  0
SECTION
  2
HEADER
  9
$ACADVER
  1
AC1014
  9
$ACADMAINTVER
 70
     9
  9
$DWGCODEPAGE
  3
ANSI_1252
  9
$INSBASE
 10
0.0
 20
0.0
 30
0.0
  9
$EXTMIN
 10
0.0135000000000141
 20
-0.0000000000000129
 30
0.0
  9
$EXTMAX
 10
192.9865
 20
335.0
 30
0.0
  9
$LIMMIN
 10
0.0
 20
0.0
  9
$LIMMAX
 10
12.0
 20
9.0
  9
$ORTHOMODE
 70
     0
  9
$REGENMODE
 70
     1
  9
$FILLMODE
 70
     1
  9
$QTEXTMODE
 70
     0
  9
$MIRRTEXT
 70
     1
  9
$DRAGMODE
 70
     2
  9
$LTSCALE
 40
1.0
  9
$OSMODE
 70
    37
  9
$ATTMODE
 70
     1
  9
$TEXTSIZE
 40
0.2
  9
$TRACEWID
 40
0.05
  9
$TEXTSTYLE
  7
STANDARD
  9
$CLAYER
  8
0
  9
$CELTYPE
  6
CONTINUOUS
  9
$CECOLOR
 62
   256
  9
$CELTSCALE
 40
1.0
  9
$DELOBJ
 70
     1
  9
$DISPSILH
 70
     0
  9
$DIMSCALE
 40
1.0
  9
$DIMASZ
 40
0.18
  9
$DIMEXO
 40
0.0625
  9
$DIMDLI
 40
0.38
  9
$DIMRND
 40
0.0
  9
$DIMDLE
 40
0.0
  9
$DIMEXE
 40
0.18
  9
$DIMTP
 40
0.0
  9
$DIMTM
 40
0.0
  9
$DIMTXT
 40
0.18
  9
$DIMCEN
 40
0.09
  9
$DIMTSZ
 40
0.0
  9
$DIMTOL
 70
     0
  9
$DIMLIM
 70
     0
  9
$DIMTIH
 70
     1
  9
$DIMTOH
 70
     1
  9
$DIMSE1
 70
     0
  9
$DIMSE2
 70
     0
  9
$DIMTAD
 70
     0
  9
$DIMZIN
 70
     0
  9
$DIMBLK
  1

  9
$DIMASO
 70
     1
  9
$DIMSHO
 70
     1
  9
$DIMPOST
  1

  9
$DIMAPOST
  1

  9
$DIMALT
 70
     0
  9
$DIMALTD
 70
     2
  9
$DIMALTF
 40
25.4
  9
$DIMLFAC
 40
1.0
  9
$DIMTOFL
 70
     0
  9
$DIMTVP
 40
0.0
  9
$DIMTIX
 70
     0
  9
$DIMSOXD
 70
     0
  9
$DIMSAH
 70
     0
  9
$DIMBLK1
  1

  9
$DIMBLK2
  1

  9
$DIMSTYLE
  2
STANDARD
  9
$DIMCLRD
 70
     0
  9
$DIMCLRE
 70
     0
  9
$DIMCLRT
 70
     0
  9
$DIMTFAC
 40
1.0
  9
$DIMGAP
 40
0.09
  9
$DIMJUST
 70
     0
  9
$DIMSD1
 70
     0
  9
$DIMSD2
 70
     0
  9
$DIMTOLJ
 70
     1
  9
$DIMTZIN
 70
     0
  9
$DIMALTZ
 70
     0
  9
$DIMALTTZ
 70
     0
  9
$DIMFIT
 70
     3
  9
$DIMUPT
 70
     0
  9
$DIMUNIT
 70
     2
  9
$DIMDEC
 70
     4
  9
$DIMTDEC
 70
     4
  9
$DIMALTU
 70
     2
  9
$DIMALTTD
 70
     2
  9
$DIMTXSTY
  7
STANDARD
  9
$DIMAUNIT
 70
     0
  9
$LUNITS
 70
     2
  9
$LUPREC
 70
     4
  9
$SKETCHINC
 40
0.1
  9
$FILLETRAD
 40
0.0
  9
$AUNITS
 70
     0
  9
$AUPREC
 70
     0
  9
$MENU
  1
.
  9
$ELEVATION
 40
0.0
  9
$PELEVATION
 40
0.0
  9
$THICKNESS
 40
0.0
  9
$LIMCHECK
 70
     0
  9
$BLIPMODE
 70
     0
  9
$CHAMFERA
 40
0.0
  9
$CHAMFERB
 40
0.0
  9
$CHAMFERC
 40
0.0
  9
$CHAMFERD
 40
0.0
  9
$SKPOLY
 70
     0
  9
$TDCREATE
 40
2454691.857141018
  9
$TDUPDATE
 40
2454691.858964294
  9
$TDINDWG
 40
0.0018236343
  9
$TDUSRTIMER
 40
0.0018236343
  9
$USRTIMER
 70
     1
  9
$ANGBASE
 50
0.0
  9
$ANGDIR
 70
     0
  9
$PDMODE
 70
     0
  9
$PDSIZE
 40
0.0
  9
$PLINEWID
 40
0.0
  9
$COORDS
 70
     1
  9
$SPLFRAME
 70
     0
  9
$SPLINETYPE
 70
     6
  9
$SPLINESEGS
 70
     8
  9
$ATTDIA
 70
     0
  9
$ATTREQ
 70
     1
  9
$HANDLING
 70
 22529
  9
$HANDSEED
  5
1AE
  9
$SURFTAB1
 70
     6
  9
$SURFTAB2
 70
     6
  9
$SURFTYPE
 70
     6
  9
$SURFU
 70
     6
  9
$SURFV
 70
     6
  9
$UCSNAME
  2

  9
$UCSORG
 10
0.0
 20
0.0
 30
0.0
  9
$UCSXDIR
 10
1.0
 20
0.0
 30
0.0
  9
$UCSYDIR
 10
0.0
 20
1.0
 30
0.0
  9
$PUCSNAME
  2

  9
$PUCSORG
 10
0.0
 20
0.0
 30
0.0
  9
$PUCSXDIR
 10
1.0
 20
0.0
 30
0.0
  9
$PUCSYDIR
 10
0.0
 20
1.0
 30
0.0
  9
$USERI1
 70
     0
  9
$USERI2
 70
     0
  9
$USERI3
 70
     0
  9
$USERI4
 70
     0
  9
$USERI5
 70
     0
  9
$USERR1
 40
0.0
  9
$USERR2
 40
0.0
  9
$USERR3
 40
0.0
  9
$USERR4
 40
0.0
  9
$USERR5
 40
0.0
  9
$WORLDVIEW
 70
     1
  9
$SHADEDGE
 70
     3
  9
$SHADEDIF
 70
    70
  9
$TILEMODE
 70
     1
  9
$MAXACTVP
 70
    64
  9
$PINSBASE
 10
0.0
 20
0.0
 30
0.0
  9
$PLIMCHECK
 70
     0
  9
$PEXTMIN
 10
1.000000000000000E+20
 20
1.000000000000000E+20
 30
1.000000000000000E+20
  9
$PEXTMAX
 10
-1.000000000000000E+20
 20
-1.000000000000000E+20
 30
-1.000000000000000E+20
  9
$PLIMMIN
 10
0.0
 20
0.0
  9
$PLIMMAX
 10
12.0
 20
9.0
  9
$UNITMODE
 70
     0
  9
$VISRETAIN
 70
     1
  9
$PLINEGEN
 70
     0
  9
$PSLTSCALE
 70
     1
  9
$TREEDEPTH
 70
  3020
  9
$PICKSTYLE
 70
     1
  9
$CMLSTYLE
  2
STANDARD
  9
$CMLJUST
 70
     0
  9
$CMLSCALE
 40
1.0
  9
$PROXYGRAPHICS
 70
     1
  9
$MEASUREMENT
 70
     0
  0
ENDSEC
  0
SECTION
  2
CLASSES
  0
CLASS
  1
ACDBDICTIONARYWDFLT
  2
AcDbDictionaryWithDefault
  3
AutoCAD 2000
 90
        0
280
     0
281
     0
  0
CLASS
  1
ACDBPLACEHOLDER
  2
AcDbPlaceHolder
  3
AutoCAD 2000
 90
        0
280
     0
281
     0
  0
CLASS
  1
LAYOUT
  2
AcDbLayout
  3
AutoCAD 2000
 90
        0
280
     0
281
     0
  0
CLASS
  1
DICTIONARYVAR
  2
AcDbDictionaryVar
  3
AutoCAD 2000
 90
        0
280
     0
281
     0
  0
CLASS
  1
LONG_TRANSACTION
  2
AcDbLongTransaction
  3
AutoCAD 2000
 90
        0
280
     0
281
     0
  0
CLASS
  1
LWPOLYLINE
  2
AcDbPolyline
  3
AutoCAD 2000
 90
        0
280
     0
281
     1
  0
CLASS
  1
HATCH
  2
AcDbHatch
  3
AutoCAD 2000
 90
        0
280
     0
281
     1
  0
CLASS
  1
XRECORD
  2
AcDbXrecord
  3
AutoCAD 2000
 90
        0
280
     0
281
     0
  0
ENDSEC
  0
SECTION
  2
TABLES
  0
TABLE
  2
VPORT
  5
8
330
0
100
AcDbSymbolTable
 70
     2
  0
VPORT
  5
189
330
8
100
AcDbSymbolTableRecord
100
AcDbViewportTableRecord
  2
*ACTIVE
 70
     0
 10
0.0
 20
0.0
 11
1.0
 21
1.0
 12
96.5
 22
167.5
 13
0.0
 23
0.0
 14
1.0
 24
1.0
 15
0.0
 25
0.0
 16
0.0
 26
0.0
 36
1.0
 17
0.0
 27
0.0
 37
0.0
 40
337.5703324808184
 41
2.078104993597951
 42
50.0
 43
0.0
 44
0.0
 50
0.0
 51
0.0
 71
     0
 72
   100
 73
     1
 74
     3
 75
     0
 76
     0
 77
     0
 78
     0
  0
ENDTAB
  0
TABLE
  2
LTYPE
  5
5
330
0
100
AcDbSymbolTable
 70
     1
  0
LTYPE
  5
13
330
5
100
AcDbSymbolTableRecord
100
AcDbLinetypeTableRecord
  2
BYBLOCK
 70
     0
  3

 72
    65
 73
     0
 40
0.0
  0
LTYPE
  5
14
330
5
100
AcDbSymbolTableRecord
100
AcDbLinetypeTableRecord
  2
BYLAYER
 70
     0
  3

 72
    65
 73
     0
 40
0.0
  0
LTYPE
  5
15
330
5
100
AcDbSymbolTableRecord
100
AcDbLinetypeTableRecord
  2
CONTINUOUS
 70
     0
  3
Solid line
 72
    65
 73
     0
 40
0.0
  0
ENDTAB
  0
TABLE
  2
LAYER
  5
2
330
0
100
AcDbSymbolTable
 70
     1
  0
LAYER
  5
10
330
2
100
AcDbSymbolTableRecord
100
AcDbLayerTableRecord
  2
0
 70
     0
 62
     7
  6
CONTINUOUS
  0
ENDTAB
  0
TABLE
  2
STYLE
  5
3
330
0
100
AcDbSymbolTable
 70
     1
  0
STYLE
  5
11
330
3
100
AcDbSymbolTableRecord
100
AcDbTextStyleTableRecord
  2
STANDARD
 70
     0
 40
0.0
 41
1.0
 50
0.0
 71
     0
 42
0.2
  3
txt
  4

  0
ENDTAB
  0
TABLE
  2
VIEW
  5
6
330
0
100
AcDbSymbolTable
 70
     0
  0
ENDTAB
  0
TABLE
  2
UCS
  5
7
330
0
100
AcDbSymbolTable
 70
     0
  0
ENDTAB
  0
TABLE
  2
APPID
  5
9
330
0
100
AcDbSymbolTable
 70
     1
  0
APPID
  5
12
330
9
100
AcDbSymbolTableRecord
100
AcDbRegAppTableRecord
  2
ACAD
 70
     0
  0
ENDTAB
  0
TABLE
  2
DIMSTYLE
  5
A
330
0
100
AcDbSymbolTable
 70
     1
  0
DIMSTYLE
105
183
330
A
100
AcDbSymbolTableRecord
100
AcDbDimStyleTableRecord
  2
STANDARD
 70
     0
  3

  4

  5

  6

  7

 40
1.0
 41
0.18
 42
0.0625
 43
0.38
 44
0.18
 45
0.0
 46
0.0
 47
0.0
 48
0.0
140
0.18
141
0.09
142
0.0
143
25.4
144
1.0
145
0.0
146
1.0
147
0.09
 71
     0
 72
     0
 73
     1
 74
     1
 75
     0
 76
     0
 77
     0
 78
     0
170
     0
171
     2
172
     0
173
     0
174
     0
175
     0
176
     0
177
     0
178
     0
270
     2
271
     4
272
     4
273
     2
274
     2
340
11
275
     0
280
     0
281
     0
282
     0
283
     1
284
     0
285
     0
286
     0
287
     3
288
     0
  0
ENDTAB
  0
TABLE
  2
BLOCK_RECORD
  5
1
330
0
100
AcDbSymbolTable
 70
     0
  0
BLOCK_RECORD
  5
1E
102
{ACAD_XDICTIONARY
360
1AC
102
}
330
1
100
AcDbSymbolTableRecord
100
AcDbBlockTableRecord
  2
*MODEL_SPACE
  0
BLOCK_RECORD
  5
1A
102
{ACAD_XDICTIONARY
360
1AA
102
}
330
1
100
AcDbSymbolTableRecord
100
AcDbBlockTableRecord
  2
*PAPER_SPACE
  0
ENDTAB
  0
ENDSEC
  0
SECTION
  2
BLOCKS
  0
BLOCK
  5
1F
330
1E
100
AcDbEntity
  8
0
100
AcDbBlockBegin
  2
*MODEL_SPACE
 70
     0
 10
0.0
 20
0.0
 30
0.0
  3
*MODEL_SPACE
  1

  0
ENDBLK
  5
20
330
1E
100
AcDbEntity
  8
0
100
AcDbBlockEnd
  0
BLOCK
  5
1B
330
1A
100
AcDbEntity
 67
     1
  8
0
100
AcDbBlockBegin
  2
*PAPER_SPACE
 70
     0
 10
0.0
 20
0.0
 30
0.0
  3
*PAPER_SPACE
  1

  0
ENDBLK
  5
1C
330
1A
100
AcDbEntity
 67
     1
  8
0
100
AcDbBlockEnd
  0
ENDSEC
  0
SECTION
  2
ENTITIES
  0
LINE
  5
22
330
1E
100
AcDbEntity
  8
0
100
AcDbLine
 10
3.372020000000009
 20
261.3909999999999
 30
0.0
 11
5.747570000000009
 21
259.727
 31
0.0
  0
LINE
  5
23
330
1E
100
AcDbEntity
  8
0
100
AcDbLine
 10
1.72645000000001
 20
261.4809999999999
 30
0.0
 11
3.446670000000009
 21
260.277
 31
0.0
  0
LINE
  5
24
330
1E
100
AcDbEntity
  8
0
100
AcDbLine
 10
3.446670000000009
 20
260.277
 30
0.0
 11
5.658380000000009
 21
258.728
 31
0.0
  0
LINE
  5
25
330
1E
100
AcDbEntity
  8
0
100
AcDbLine
 10
0.7434660000000141
 20
262.17
 30
0.0
 11
1.72645000000001
 21
261.4809999999999
 31
0.0
  0
LINE
  5
26
330
1E
100
AcDbEntity
  8
0
100
AcDbLine
 10
0.0135000000000141
 20
263.742
 30
0.0
 11
5.001120000000019
 21
270.865
 31
0.0
  0
LINE
  5
27
330
1E
100
AcDbEntity
  8
0
100
AcDbLine
 10
0.0135000000000143
 20
263.742
 30
0.0
 11
0.4230760000000141
 21
263.4559999999999
 31
0.0
  0
LINE
  5
28
330
1E
100
AcDbEntity
  8
0
100
AcDbLine
 10
0.0135000000000143
 20
263.742
 30
0.0
 11
5.001120000000019
 21
270.865
 31
0.0
  0
LINE
  5
29
330
1E
100
AcDbEntity
  8
0
100
AcDbLine
 10
0.0135000000000143
 20
263.742
 30
0.0
 11
0.333890000000014
 21
262.4559999999999
 31
0.0
  0
LINE
  5
2A
330
1E
100
AcDbEntity
  8
0
100
AcDbLine
 10
0.0135000000000143
 20
263.742
 30
0.0
 11
0.4230760000000141
 21
263.4559999999999
 31
0.0
  0
LINE
  5
2B
330
1E
100
AcDbEntity
  8
0
100
AcDbLine
 10
0.0135000000000143
 20
263.742
 30
0.0
 11
0.333890000000014
 21
262.4559999999999
 31
0.0
  0
LINE
  5
2C
330
1E
100
AcDbEntity
  8
0
100
AcDbLine
 10
0.4230760000000141
 20
263.4559999999999
 30
0.0
 11
1.56989000000001
 21
262.653
 31
0.0
  0
LINE
  5
2D
330
1E
100
AcDbEntity
  8
0
100
AcDbLine
 10
5.410700000000009
 20
270.5789999999999
 30
0.0
 11
6.557510000000009
 21
269.776
 31
0.0
  0
LINE
  5
2E
330
1E
100
AcDbEntity
  8
0
100
AcDbLine
 10
0.4230760000000141
 20
263.4559999999999
 30
0.0
 11
1.56989000000001
 21
262.653
 31
0.0
  0
LINE
  5
2F
330
1E
100
AcDbEntity
  8
0
100
AcDbLine
 10
1.56989000000001
 20
262.653
 30
0.0
 11
3.372020000000009
 21
261.3909999999999
 31
0.0
  0
LINE
  5
30
330
1E
100
AcDbEntity
  8
0
100
AcDbLine
 10
0.333890000000014
 20
262.4559999999999
 30
0.0
 11
0.7434660000000141
 21
262.17
 31
0.0
  0
LINE
  5
31
330
1E
100
AcDbEntity
  8
0
100
AcDbLine
 10
5.001120000000019
 20
270.865
 30
0.0
 11
5.660080000000009
 21
270.935
 31
0.0
  0
LINE
  5
32
330
1E
100
AcDbEntity
  8
0
100
AcDbLine
 10
5.001120000000019
 20
270.865
 30
0.0
 11
5.410700000000009
 21
270.5789999999999
 31
0.0
  0
LINE
  5
33
330
1E
100
AcDbEntity
  8
0
100
AcDbLine
 10
0.333890000000014
 20
262.4559999999999
 30
0.0
 11
0.7434660000000141
 21
262.17
 31
0.0
  0
LINE
  5
34
330
1E
100
AcDbEntity
  8
0
100
AcDbLine
 10
0.7434660000000141
 20
262.17
 30
0.0
 11
1.72645000000001
 21
261.4809999999999
 31
0.0
  0
LINE
  5
35
330
1E
100
AcDbEntity
  8
0
100
AcDbLine
 10
21.6318
 20
247.544
 30
0.0
 11
22.9498
 21
247.682
 31
0.0
  0
LINE
  5
36
330
1E
100
AcDbEntity
  8
0
100
AcDbLine
 10
21.2223
 20
247.83
 30
0.0
 11
21.6318
 21
247.544
 31
0.0
  0
LINE
  5
37
330
1E
100
AcDbEntity
  8
0
100
AcDbLine
 10
14.4306
 20
253.647
 30
0.0
 11
17.21569999999999
 21
251.697
 31
0.0
  0
LINE
  5
38
330
1E
100
AcDbEntity
  8
0
100
AcDbLine
 10
21.3934
 20
248.772
 30
0.0
 11
22.5402
 21
247.969
 31
0.0
  0
LINE
  5
39
330
1E
100
AcDbEntity
  8
0
100
AcDbLine
 10
19.5912
 20
250.034
 30
0.0
 11
21.3934
 21
248.772
 31
0.0
  0
LINE
  5
3A
330
1E
100
AcDbEntity
  8
0
100
AcDbLine
 10
17.21569999999999
 20
251.697
 30
0.0
 11
19.5912
 21
250.034
 31
0.0
  0
LINE
  5
3B
330
1E
100
AcDbEntity
  8
0
100
AcDbLine
 10
18.5191
 20
249.723
 30
0.0
 11
20.2393
 21
248.519
 31
0.0
  0
LINE
  5
3C
330
1E
100
AcDbEntity
  8
0
100
AcDbLine
 10
16.3074
 20
251.272
 30
0.0
 11
18.5191
 21
249.723
 31
0.0
  0
LINE
  5
3D
330
1E
100
AcDbEntity
  8
0
100
AcDbLine
 10
20.2393
 20
248.519
 30
0.0
 11
21.2223
 21
247.83
 31
0.0
  0
LINE
  5
3E
330
1E
100
AcDbEntity
  8
0
100
AcDbLine
 10
13.6861
 20
253.107
 30
0.0
 11
16.3074
 21
251.272
 31
0.0
  0
LINE
  5
3F
330
1E
100
AcDbEntity
  8
0
100
AcDbLine
 10
5.660080000000009
 20
270.935
 30
0.0
 11
6.069650000000009
 21
270.6479999999999
 31
0.0
  0
LINE
  5
40
330
1E
100
AcDbEntity
  8
0
100
AcDbLine
 10
6.940070000000009
 20
270.389
 30
0.0
 11
8.792590000000018
 21
269.13
 31
0.0
  0
LINE
  5
41
330
1E
100
AcDbEntity
  8
0
100
AcDbLine
 10
5.856750000000019
 20
271.1859999999999
 30
0.0
 11
6.940070000000009
 21
270.389
 31
0.0
  0
LINE
  5
42
330
1E
100
AcDbEntity
  8
0
100
AcDbLine
 10
6.069650000000009
 20
270.6479999999999
 30
0.0
 11
7.134550000000009
 21
269.9019999999999
 31
0.0
  0
LINE
  5
43
330
1E
100
AcDbEntity
  8
0
100
AcDbLine
 10
7.134550000000009
 20
269.9019999999999
 30
0.0
 11
8.936690000000018
 21
268.6409999999999
 31
0.0
  0
LINE
  5
44
330
1E
100
AcDbEntity
  8
0
100
AcDbLine
 10
6.557510000000009
 20
269.776
 30
0.0
 11
8.359650000000019
 21
268.514
 31
0.0
  0
LINE
  5
45
330
1E
100
AcDbEntity
  8
0
100
AcDbLine
 10
5.747570000000009
 20
259.727
 30
0.0
 11
8.532680000000018
 21
257.777
 31
0.0
  0
LINE
  5
46
330
1E
100
AcDbEntity
  8
0
100
AcDbLine
 10
5.658380000000009
 20
258.728
 30
0.0
 11
8.279660000000008
 21
256.8929999999999
 31
0.0
  0
LINE
  5
47
330
1E
100
AcDbEntity
  8
0
100
AcDbLine
 10
11.4816
 20
255.712
 30
0.0
 11
14.4306
 21
253.647
 31
0.0
  0
LINE
  5
48
330
1E
100
AcDbEntity
  8
0
100
AcDbLine
 10
8.792590000000018
 20
269.13
 30
0.0
 11
11.2238
 21
267.4279999999999
 31
0.0
  0
LINE
  5
49
330
1E
100
AcDbEntity
  8
0
100
AcDbLine
 10
11.2238
 20
267.4279999999999
 30
0.0
 11
13.9762
 21
265.5
 31
0.0
  0
LINE
  5
4A
330
1E
100
AcDbEntity
  8
0
100
AcDbLine
 10
8.936690000000018
 20
268.6409999999999
 30
0.0
 11
11.23029999999999
 21
267.0339999999999
 31
0.0
  0
LINE
  5
4B
330
1E
100
AcDbEntity
  8
0
100
AcDbLine
 10
11.23029999999999
 20
267.0339999999999
 30
0.0
 11
13.85159999999999
 21
265.199
 31
0.0
  0
LINE
  5
4C
330
1E
100
AcDbEntity
  8
0
100
AcDbLine
 10
8.359650000000019
 20
268.514
 30
0.0
 11
10.7352
 21
266.85
 31
0.0
  0
LINE
  5
4D
330
1E
100
AcDbEntity
  8
0
100
AcDbLine
 10
10.7352
 20
266.85
 30
0.0
 11
13.5203
 21
264.9
 31
0.0
  0
LINE
  5
4E
330
1E
100
AcDbEntity
  8
0
100
AcDbLine
 10
19.8479
 20
261.389
 30
0.0
 11
22.6002
 21
259.4619999999999
 31
0.0
  0
LINE
  5
4F
330
1E
100
AcDbEntity
  8
0
100
AcDbLine
 10
16.912
 20
263.445
 30
0.0
 11
19.8479
 21
261.389
 31
0.0
  0
LINE
  5
50
330
1E
100
AcDbEntity
  8
0
100
AcDbLine
 10
19.58569999999999
 20
261.184
 30
0.0
 11
22.20699999999999
 21
259.349
 31
0.0
  0
LINE
  5
51
330
1E
100
AcDbEntity
  8
0
100
AcDbLine
 10
16.71859999999999
 20
263.192
 30
0.0
 11
19.58569999999999
 21
261.184
 31
0.0
  0
LINE
  5
52
330
1E
100
AcDbEntity
  8
0
100
AcDbLine
 10
19.41819999999999
 20
260.7709999999999
 30
0.0
 11
22.2033
 21
258.82
 31
0.0
  0
LINE
  5
53
330
1E
100
AcDbEntity
  8
0
100
AcDbLine
 10
16.4693
 20
262.8349999999999
 30
0.0
 11
19.41819999999999
 21
260.7709999999999
 31
0.0
  0
LINE
  5
54
330
1E
100
AcDbEntity
  8
0
100
AcDbLine
 10
13.9762
 20
265.5
 30
0.0
 11
16.912
 21
263.445
 31
0.0
  0
LINE
  5
55
330
1E
100
AcDbEntity
  8
0
100
AcDbLine
 10
13.85159999999999
 20
265.199
 30
0.0
 11
16.71859999999999
 21
263.192
 31
0.0
  0
LINE
  5
56
330
1E
100
AcDbEntity
  8
0
100
AcDbLine
 10
13.5203
 20
264.9
 30
0.0
 11
16.4693
 21
262.8349999999999
 31
0.0
  0
LINE
  5
57
330
1E
100
AcDbEntity
  8
0
100
AcDbLine
 10
8.532680000000018
 20
257.777
 30
0.0
 11
11.4816
 21
255.712
 31
0.0
  0
LINE
  5
58
330
1E
100
AcDbEntity
  8
0
100
AcDbLine
 10
8.279660000000008
 20
256.8929999999999
 30
0.0
 11
10.9829
 21
255.0
 31
0.0
  0
LINE
  5
59
330
1E
100
AcDbEntity
  8
0
100
AcDbLine
 10
10.9829
 20
255.0
 30
0.0
 11
13.6861
 21
253.107
 31
0.0
  0
LINE
  5
5A
330
1E
100
AcDbEntity
  8
0
100
AcDbLine
 10
5.445010000000009
 20
271.475
 30
0.0
 11
8.72101000000001
 21
275.3029999999999
 31
0.0
  0
LINE
  5
5B
330
1E
100
AcDbEntity
  8
0
100
AcDbLine
 10
5.445010000000009
 20
271.475
 30
0.0
 11
5.660080000000009
 21
270.935
 31
0.0
  0
LINE
  5
5C
330
1E
100
AcDbEntity
  8
0
100
AcDbLine
 10
5.445010000000009
 20
271.475
 30
0.0
 11
5.856750000000019
 21
271.1859999999999
 31
0.0
  0
LINE
  5
5D
330
1E
100
AcDbEntity
  8
0
100
AcDbLine
 10
16.94729999999999
 20
281.562
 30
0.0
 11
21.6829
 21
283.9
 31
0.0
  0
LINE
  5
5E
330
1E
100
AcDbEntity
  8
0
100
AcDbLine
 10
12.6365
 20
278.6589999999999
 30
0.0
 11
16.94729999999999
 21
281.562
 31
0.0
  0
LINE
  5
5F
330
1E
100
AcDbEntity
  8
0
100
AcDbLine
 10
8.72101000000001
 20
275.3029999999999
 30
0.0
 11
12.6365
 21
278.6589999999999
 31
0.0
  0
LINE
  5
60
330
1E
100
AcDbEntity
  8
0
100
AcDbLine
 10
22.5402
 20
247.969
 30
0.0
 11
22.9498
 21
247.682
 31
0.0
  0
LINE
  5
61
330
1E
100
AcDbEntity
  8
0
100
AcDbLine
 10
27.5278
 20
255.092
 30
0.0
 11
27.9374
 21
254.8049999999999
 31
0.0
  0
LINE
  5
62
330
1E
100
AcDbEntity
  8
0
100
AcDbLine
 10
22.9498
 20
247.682
 30
0.0
 11
27.9374
 21
254.8049999999999
 31
0.0
  0
LINE
  5
63
330
1E
100
AcDbEntity
  8
0
100
AcDbLine
 10
26.3027
 20
256.481
 30
0.0
 11
27.3676
 21
255.735
 31
0.0
  0
LINE
  5
64
330
1E
100
AcDbEntity
  8
0
100
AcDbLine
 10
27.9673
 20
255.704
 30
0.0
 11
28.3802
 21
255.4149999999999
 31
0.0
  0
LINE
  5
65
330
1E
100
AcDbEntity
  8
0
100
AcDbLine
 10
26.8664
 20
256.475
 30
0.0
 11
27.9673
 21
255.704
 31
0.0
  0
LINE
  5
66
330
1E
100
AcDbEntity
  8
0
100
AcDbLine
 10
27.3676
 20
255.735
 30
0.0
 11
27.7772
 21
255.4479999999999
 31
0.0
  0
LINE
  5
67
330
1E
100
AcDbEntity
  8
0
100
AcDbLine
 10
26.381
 20
255.895
 30
0.0
 11
27.5278
 21
255.092
 31
0.0
  0
LINE
  5
68
330
1E
100
AcDbEntity
  8
0
100
AcDbLine
 10
25.0315
 20
257.759
 30
0.0
 11
26.8664
 21
256.475
 31
0.0
  0
LINE
  5
69
330
1E
100
AcDbEntity
  8
0
100
AcDbLine
 10
22.6002
 20
259.4619999999999
 30
0.0
 11
25.0315
 21
257.759
 31
0.0
  0
LINE
  5
6A
330
1E
100
AcDbEntity
  8
0
100
AcDbLine
 10
24.5006
 20
257.743
 30
0.0
 11
26.3027
 21
256.481
 31
0.0
  0
LINE
  5
6B
330
1E
100
AcDbEntity
  8
0
100
AcDbLine
 10
22.20699999999999
 20
259.349
 30
0.0
 11
24.5006
 21
257.743
 31
0.0
  0
LINE
  5
6C
330
1E
100
AcDbEntity
  8
0
100
AcDbLine
 10
24.5789
 20
257.1569999999999
 30
0.0
 11
26.381
 21
255.895
 31
0.0
  0
LINE
  5
6D
330
1E
100
AcDbEntity
  8
0
100
AcDbLine
 10
22.2033
 20
258.82
 30
0.0
 11
24.5789
 21
257.1569999999999
 31
0.0
  0
LINE
  5
6E
330
1E
100
AcDbEntity
  8
0
100
AcDbLine
 10
27.7772
 20
255.4479999999999
 30
0.0
 11
27.9374
 21
254.8049999999999
 31
0.0
  0
LINE
  5
6F
330
1E
100
AcDbEntity
  8
0
100
AcDbLine
 10
27.7772
 20
255.4479999999999
 30
0.0
 11
28.3802
 21
255.4149999999999
 31
0.0
  0
LINE
  5
70
330
1E
100
AcDbEntity
  8
0
100
AcDbLine
 10
30.9693
 20
257.392
 30
0.0
 11
32.3829
 21
258.1
 31
0.0
  0
LINE
  5
71
330
1E
100
AcDbEntity
  8
0
100
AcDbLine
 10
29.6972
 20
256.542
 30
0.0
 11
30.9693
 21
257.392
 31
0.0
  0
LINE
  5
72
330
1E
100
AcDbEntity
  8
0
100
AcDbLine
 10
28.3802
 20
255.4149999999999
 30
0.0
 11
29.6972
 21
256.542
 31
0.0
  0
LINE
  5
73
330
1E
100
AcDbEntity
  8
0
100
AcDbLine
 10
21.6829
 20
283.9
 30
0.0
 11
26.6829
 21
285.6
 31
0.0
  0
LINE
  5
74
330
1E
100
AcDbEntity
  8
0
100
AcDbLine
 10
26.6829
 20
285.6
 30
0.0
 11
31.7829
 21
286.6
 31
0.0
  0
LINE
  5
75
330
1E
100
AcDbEntity
  8
0
100
AcDbLine
 10
32.3829
 20
258.1
 30
0.0
 11
33.8829
 21
258.6
 31
0.0
  0
LINE
  5
76
330
1E
100
AcDbEntity
  8
0
100
AcDbLine
 10
33.8829
 20
258.6
 30
0.0
 11
35.38289999999999
 21
258.8999999999999
 31
0.0
  0
LINE
  5
77
330
1E
100
AcDbEntity
  8
0
100
AcDbLine
 10
36.9829
 20
259.0
 30
0.0
 11
134.9824999999999
 21
259.0
 31
0.0
  0
LINE
  5
78
330
1E
100
AcDbEntity
  8
0
100
AcDbLine
 10
36.9829
 20
287.0
 30
0.0
 11
134.9824999999999
 21
287.0
 31
0.0
  0
LINE
  5
79
330
1E
100
AcDbEntity
  8
0
100
AcDbLine
 10
36.9829
 20
259.0
 30
0.0
 11
134.9824999999999
 21
259.0
 31
0.0
  0
LINE
  5
7A
330
1E
100
AcDbEntity
  8
0
100
AcDbLine
 10
36.9829
 20
287.0
 30
0.0
 11
134.9824999999999
 21
287.0
 31
0.0
  0
LINE
  5
7B
330
1E
100
AcDbEntity
  8
0
100
AcDbLine
 10
35.38289999999999
 20
258.8999999999999
 30
0.0
 11
36.9829
 21
259.0
 31
0.0
  0
LINE
  5
7C
330
1E
100
AcDbEntity
  8
0
100
AcDbLine
 10
31.7829
 20
286.6
 30
0.0
 11
36.9829
 21
287.0
 31
0.0
  0
LINE
  5
7D
330
1E
100
AcDbEntity
  8
0
100
AcDbLine
 10
128.9824999999999
 20
2.49999999999999
 30
0.0
 11
129.4824999999999
 21
2.99999999999999
 31
0.0
  0
LINE
  5
7E
330
1E
100
AcDbEntity
  8
0
100
AcDbLine
 10
128.9824999999999
 20
2.49999999999999
 30
0.0
 11
128.9824999999999
 21
-0.0000000000000096
 31
0.0
  0
LINE
  5
7F
330
1E
100
AcDbEntity
  8
0
100
AcDbLine
 10
128.9824999999999
 20
2.49999999999999
 30
0.0
 11
129.9825
 21
2.49999999999999
 31
0.0
  0
LINE
  5
80
330
1E
100
AcDbEntity
  8
0
100
AcDbLine
 10
129.9825
 20
2.49999999999999
 30
0.0
 11
132.5825
 21
2.49999999999999
 31
0.0
  0
LINE
  5
81
330
1E
100
AcDbEntity
  8
0
100
AcDbLine
 10
129.4824999999999
 20
2.99999999999999
 30
0.0
 11
130.4824999999999
 21
2.99999999999999
 31
0.0
  0
LINE
  5
82
330
1E
100
AcDbEntity
  8
0
100
AcDbLine
 10
130.4824999999999
 20
2.99999999999999
 30
0.0
 11
132.9824999999999
 21
2.99999999999999
 31
0.0
  0
LINE
  5
83
330
1E
100
AcDbEntity
  8
0
100
AcDbLine
 10
132.5825
 20
2.49999999999999
 30
0.0
 11
136.9824999999999
 21
2.49999999999999
 31
0.0
  0
LINE
  5
84
330
1E
100
AcDbEntity
  8
0
100
AcDbLine
 10
128.9824999999999
 20
-0.0000000000000096
 30
0.0
 11
129.9825
 21
-0.0000000000000096
 31
0.0
  0
LINE
  5
85
330
1E
100
AcDbEntity
  8
0
100
AcDbLine
 10
128.9824999999999
 20
-0.0000000000000096
 30
0.0
 11
128.9824999999999
 21
2.49999999999999
 31
0.0
  0
LINE
  5
86
330
1E
100
AcDbEntity
  8
0
100
AcDbLine
 10
129.9825
 20
-0.0000000000000096
 30
0.0
 11
132.5825
 21
-0.0000000000000098
 31
0.0
  0
LINE
  5
87
330
1E
100
AcDbEntity
  8
0
100
AcDbLine
 10
134.2824999999999
 20
2.99999999999999
 30
0.0
 11
136.4824999999999
 21
2.99999999999999
 31
0.0
  0
LINE
  5
88
330
1E
100
AcDbEntity
  8
0
100
AcDbLine
 10
132.9824999999999
 20
2.99999999999999
 30
0.0
 11
137.2824999999999
 21
2.99999999999999
 31
0.0
  0
LINE
  5
89
330
1E
100
AcDbEntity
  8
0
100
AcDbLine
 10
134.9824999999999
 20
4.99999999999998
 30
0.0
 11
134.9824999999999
 21
259.005050525457
 31
0.0
  0
LINE
  5
8A
330
1E
100
AcDbEntity
  8
0
100
AcDbLine
 10
135.2824999999999
 20
3.49999999999999
 30
0.0
 11
137.3824999999999
 21
3.49999999999999
 31
0.0
  0
LINE
  5
8B
330
1E
100
AcDbEntity
  8
0
100
AcDbLine
 10
134.9824999999999
 20
298.0
 30
0.0
 11
135.9824999999999
 21
299.0
 31
0.0
  0
LINE
  5
8C
330
1E
100
AcDbEntity
  8
0
100
AcDbLine
 10
134.9824999999999
 20
298.0
 30
0.0
 11
135.7825
 21
298.0
 31
0.0
  0
LINE
  5
8D
330
1E
100
AcDbEntity
  8
0
100
AcDbLine
 10
134.9824999999999
 20
286.994949474543
 30
0.0
 11
134.9824999999999
 21
298.0
 31
0.0
  0
LINE
  5
8E
330
1E
100
AcDbEntity
  8
0
100
AcDbLine
 10
134.9824999999999
 20
4.99999999999999
 30
0.0
 11
134.9824999999999
 21
259.005050525457
 31
0.0
  0
LINE
  5
8F
330
1E
100
AcDbEntity
  8
0
100
AcDbLine
 10
134.4824999999999
 20
3.49999999999999
 30
0.0
 11
134.9824999999999
 21
4.99999999999999
 31
0.0
  0
LINE
  5
90
330
1E
100
AcDbEntity
  8
0
100
AcDbLine
 10
134.4824999999999
 20
3.49999999999999
 30
0.0
 11
135.2824999999999
 21
3.49999999999999
 31
0.0
  0
LINE
  5
91
330
1E
100
AcDbEntity
  8
0
100
AcDbLine
 10
133.4824999999999
 20
2.99999999999999
 30
0.0
 11
134.4824999999999
 21
3.49999999999999
 31
0.0
  0
LINE
  5
92
330
1E
100
AcDbEntity
  8
0
100
AcDbLine
 10
133.4824999999999
 20
2.99999999999999
 30
0.0
 11
134.2824999999999
 21
2.99999999999999
 31
0.0
  0
LINE
  5
93
330
1E
100
AcDbEntity
  8
0
100
AcDbLine
 10
132.5825
 20
-0.0000000000000098
 30
0.0
 11
136.9824999999999
 21
-0.0000000000000101
 31
0.0
  0
LINE
  5
94
330
1E
100
AcDbEntity
  8
0
100
AcDbLine
 10
69.68250000000001
 20
321.0
 30
0.0
 11
70.13819999999999
 21
321.0
 31
0.0
  0
LINE
  5
95
330
1E
100
AcDbEntity
  8
0
100
AcDbLine
 10
73.5044
 20
321.0
 30
0.0
 11
74.58249999999999
 21
321.0
 31
0.0
  0
LINE
  5
96
330
1E
100
AcDbEntity
  8
0
100
AcDbLine
 10
72.5624
 20
321.0
 30
0.0
 11
73.5044
 21
321.0
 31
0.0
  0
LINE
  5
97
330
1E
100
AcDbEntity
  8
0
100
AcDbLine
 10
71.54389999999999
 20
321.0
 30
0.0
 11
72.5624
 21
321.0
 31
0.0
  0
LINE
  5
98
330
1E
100
AcDbEntity
  8
0
100
AcDbLine
 10
74.58249999999999
 20
321.0
 30
0.0
 11
75.6825
 21
321.0
 31
0.0
  0
LINE
  5
99
330
1E
100
AcDbEntity
  8
0
100
AcDbLine
 10
75.6825
 20
321.0
 30
0.0
 11
76.7825
 21
321.0
 31
0.0
  0
LINE
  5
9A
330
1E
100
AcDbEntity
  8
0
100
AcDbLine
 10
76.7825
 20
321.0
 30
0.0
 11
77.9825
 21
321.0
 31
0.0
  0
LINE
  5
9B
330
1E
100
AcDbEntity
  8
0
100
AcDbLine
 10
70.13819999999999
 20
321.0
 30
0.0
 11
70.7404
 21
321.0
 31
0.0
  0
LINE
  5
9C
330
1E
100
AcDbEntity
  8
0
100
AcDbLine
 10
70.7404
 20
321.0
 30
0.0
 11
71.54389999999999
 21
321.0
 31
0.0
  0
LINE
  5
9D
330
1E
100
AcDbEntity
  8
0
100
AcDbLine
 10
69.2825
 20
321.0
 30
0.0
 11
69.68250000000001
 21
321.0
 31
0.0
  0
LINE
  5
9E
330
1E
100
AcDbEntity
  8
0
100
AcDbLine
 10
69.08249999999999
 20
321.0
 30
0.0
 11
69.2825
 21
321.0
 31
0.0
  0
LINE
  5
9F
330
1E
100
AcDbEntity
  8
0
100
AcDbLine
 10
68.9825
 20
321.0
 30
0.0
 11
69.08249999999999
 21
321.0
 31
0.0
  0
LINE
  5
A0
330
1E
100
AcDbEntity
  8
0
100
AcDbLine
 10
68.9825
 20
321.0
 30
0.0
 11
69.03249999999999
 21
321.00625
 31
0.0
  0
LINE
  5
A1
330
1E
100
AcDbEntity
  8
0
100
AcDbLine
 10
68.1825
 20
321.1
 30
0.0
 11
68.9825
 21
321.0
 31
0.0
  0
LINE
  5
A2
330
1E
100
AcDbEntity
  8
0
100
AcDbLine
 10
67.4825
 20
321.3999999999999
 30
0.0
 11
68.1825
 21
321.1
 31
0.0
  0
LINE
  5
A3
330
1E
100
AcDbEntity
  8
0
100
AcDbLine
 10
66.8825
 20
321.8999999999999
 30
0.0
 11
67.4825
 21
321.3999999999999
 31
0.0
  0
LINE
  5
A4
330
1E
100
AcDbEntity
  8
0
100
AcDbLine
 10
66.38249999999999
 20
322.5
 30
0.0
 11
66.8825
 21
321.8999999999999
 31
0.0
  0
LINE
  5
A5
330
1E
100
AcDbEntity
  8
0
100
AcDbLine
 10
66.08249999999999
 20
323.1999999999999
 30
0.0
 11
66.38249999999999
 21
322.5
 31
0.0
  0
LINE
  5
A6
330
1E
100
AcDbEntity
  8
0
100
AcDbLine
 10
77.9825
 20
321.0
 30
0.0
 11
134.9824999999999
 21
321.0
 31
0.0
  0
LINE
  5
A7
330
1E
100
AcDbEntity
  8
0
100
AcDbLine
 10
77.9825
 20
321.0
 30
0.0
 11
137.9075
 21
321.0
 31
0.0
  0
LINE
  5
A8
330
1E
100
AcDbEntity
  8
0
100
AcDbLine
 10
68.1825
 20
326.8999999999999
 30
0.0
 11
68.9825
 21
327.0
 31
0.0
  0
LINE
  5
A9
330
1E
100
AcDbEntity
  8
0
100
AcDbLine
 10
69.68250000000001
 20
327.0
 30
0.0
 11
70.13819999999999
 21
327.0
 31
0.0
  0
LINE
  5
AA
330
1E
100
AcDbEntity
  8
0
100
AcDbLine
 10
70.13819999999999
 20
327.0
 30
0.0
 11
70.7404
 21
327.0
 31
0.0
  0
LINE
  5
AB
330
1E
100
AcDbEntity
  8
0
100
AcDbLine
 10
73.5044
 20
327.0
 30
0.0
 11
74.58249999999999
 21
327.0
 31
0.0
  0
LINE
  5
AC
330
1E
100
AcDbEntity
  8
0
100
AcDbLine
 10
72.5624
 20
327.0
 30
0.0
 11
73.5044
 21
327.0
 31
0.0
  0
LINE
  5
AD
330
1E
100
AcDbEntity
  8
0
100
AcDbLine
 10
71.54389999999999
 20
327.0
 30
0.0
 11
72.5624
 21
327.0
 31
0.0
  0
LINE
  5
AE
330
1E
100
AcDbEntity
  8
0
100
AcDbLine
 10
74.58249999999999
 20
327.0
 30
0.0
 11
75.6825
 21
327.0
 31
0.0
  0
LINE
  5
AF
330
1E
100
AcDbEntity
  8
0
100
AcDbLine
 10
75.6825
 20
327.0
 30
0.0
 11
76.7825
 21
327.0
 31
0.0
  0
LINE
  5
B0
330
1E
100
AcDbEntity
  8
0
100
AcDbLine
 10
76.7825
 20
327.0
 30
0.0
 11
77.9825
 21
327.0
 31
0.0
  0
LINE
  5
B1
330
1E
100
AcDbEntity
  8
0
100
AcDbLine
 10
70.7404
 20
327.0
 30
0.0
 11
71.54389999999999
 21
327.0
 31
0.0
  0
LINE
  5
B2
330
1E
100
AcDbEntity
  8
0
100
AcDbLine
 10
69.2825
 20
327.0
 30
0.0
 11
69.68250000000001
 21
327.0
 31
0.0
  0
LINE
  5
B3
330
1E
100
AcDbEntity
  8
0
100
AcDbLine
 10
69.08249999999999
 20
327.0
 30
0.0
 11
69.2825
 21
327.0
 31
0.0
  0
LINE
  5
B4
330
1E
100
AcDbEntity
  8
0
100
AcDbLine
 10
77.9825
 20
327.0
 30
0.0
 11
137.9075
 21
327.0
 31
0.0
  0
LINE
  5
B5
330
1E
100
AcDbEntity
  8
0
100
AcDbLine
 10
68.9825
 20
327.0
 30
0.0
 11
69.08249999999999
 21
327.0
 31
0.0
  0
LINE
  5
B6
330
1E
100
AcDbEntity
  8
0
100
AcDbLine
 10
68.9825
 20
327.0
 30
0.0
 11
69.03249999999999
 21
326.9937499999999
 31
0.0
  0
LINE
  5
B7
330
1E
100
AcDbEntity
  8
0
100
AcDbLine
 10
67.4825
 20
326.6
 30
0.0
 11
68.1825
 21
326.8999999999999
 31
0.0
  0
LINE
  5
B8
330
1E
100
AcDbEntity
  8
0
100
AcDbLine
 10
66.8825
 20
326.1
 30
0.0
 11
67.4825
 21
326.6
 31
0.0
  0
LINE
  5
B9
330
1E
100
AcDbEntity
  8
0
100
AcDbLine
 10
66.38249999999999
 20
325.4999999999999
 30
0.0
 11
66.8825
 21
326.1
 31
0.0
  0
LINE
  5
BA
330
1E
100
AcDbEntity
  8
0
100
AcDbLine
 10
66.08249999999999
 20
324.8
 30
0.0
 11
66.38249999999999
 21
325.4999999999999
 31
0.0
  0
LINE
  5
BB
330
1E
100
AcDbEntity
  8
0
100
AcDbLine
 10
65.9825
 20
324.0
 30
0.0
 11
66.08249999999999
 21
324.8
 31
0.0
  0
LINE
  5
BC
330
1E
100
AcDbEntity
  8
0
100
AcDbLine
 10
65.9825
 20
324.0
 30
0.0
 11
66.08249999999999
 21
323.1999999999999
 31
0.0
  0
LINE
  5
BD
330
1E
100
AcDbEntity
  8
0
100
AcDbLine
 10
134.9824999999999
 20
321.0
 30
0.0
 11
134.9824999999999
 21
301.0
 31
0.0
  0
LINE
  5
BE
330
1E
100
AcDbEntity
  8
0
100
AcDbLine
 10
134.9824999999999
 20
332.8819999999999
 30
0.0
 11
135.4325
 21
333.87
 31
0.0
  0
LINE
  5
BF
330
1E
100
AcDbEntity
  8
0
100
AcDbLine
 10
134.9824999999999
 20
332.8819999999999
 30
0.0
 11
134.9824999999999
 21
327.0
 31
0.0
  0
LINE
  5
C0
330
1E
100
AcDbEntity
  8
0
100
AcDbLine
 10
135.4325
 20
333.87
 30
0.0
 11
136.4824999999999
 21
334.294
 31
0.0
  0
LINE
  5
C1
330
1E
100
AcDbEntity
  8
0
100
AcDbLine
 10
135.4325
 20
333.87
 30
0.0
 11
136.1825
 21
333.87
 31
0.0
  0
LINE
  5
C2
330
1E
100
AcDbEntity
  8
0
100
AcDbLine
 10
134.9824999999999
 20
327.0
 30
0.0
 11
134.9824999999999
 21
332.8819999999999
 31
0.0
  0
LINE
  5
C3
330
1E
100
AcDbEntity
  8
0
100
AcDbLine
 10
134.9824999999999
 20
301.0
 30
0.0
 11
134.9824999999999
 21
321.0
 31
0.0
  0
LINE
  5
C4
330
1E
100
AcDbEntity
  8
0
100
AcDbLine
 10
134.9824999999999
 20
301.0
 30
0.0
 11
135.7324999999999
 21
301.05
 31
0.0
  0
LINE
  5
C5
330
1E
100
AcDbEntity
  8
0
100
AcDbLine
 10
135.7825
 20
298.0
 30
0.0
 11
137.7825
 21
298.0
 31
0.0
  0
LINE
  5
C6
330
1E
100
AcDbEntity
  8
0
100
AcDbLine
 10
135.9824999999999
 20
299.593
 30
0.0
 11
136.130716291108
 21
301.076364664791
 31
0.0
  0
LINE
  5
C7
330
1E
100
AcDbEntity
  8
0
100
AcDbLine
 10
135.9824999999999
 20
299.593
 30
0.0
 11
135.9824999999999
 21
299.0
 31
0.0
  0
LINE
  5
C8
330
1E
100
AcDbEntity
  8
0
100
AcDbLine
 10
136.6825
 20
299.0
 30
0.0
 11
138.6824999999999
 21
299.0
 31
0.0
  0
LINE
  5
C9
330
1E
100
AcDbEntity
  8
0
100
AcDbLine
 10
136.4824999999999
 20
2.99999999999999
 30
0.0
 11
137.2824999999999
 21
2.99999999999999
 31
0.0
  0
LINE
  5
CA
330
1E
100
AcDbEntity
  8
0
100
AcDbLine
 10
138.6824999999999
 20
299.0
 30
0.0
 11
141.8825
 21
299.0
 31
0.0
  0
LINE
  5
CB
330
1E
100
AcDbEntity
  8
0
100
AcDbLine
 10
137.7825
 20
298.0
 30
0.0
 11
141.1825
 21
298.0
 31
0.0
  0
LINE
  5
CC
330
1E
100
AcDbEntity
  8
0
100
AcDbLine
 10
137.3824999999999
 20
3.49999999999999
 30
0.0
 11
140.7825
 21
3.49999999999999
 31
0.0
  0
LINE
  5
CD
330
1E
100
AcDbEntity
  8
0
100
AcDbLine
 10
141.1825
 20
298.0
 30
0.0
 11
145.5825
 21
298.0
 31
0.0
  0
LINE
  5
CE
330
1E
100
AcDbEntity
  8
0
100
AcDbLine
 10
140.7825
 20
3.49999999999999
 30
0.0
 11
145.2824999999999
 21
3.49999999999999
 31
0.0
  0
LINE
  5
CF
330
1E
100
AcDbEntity
  8
0
100
AcDbLine
 10
137.2824999999999
 20
2.99999999999999
 30
0.0
 11
142.7825
 21
2.99999999999999
 31
0.0
  0
LINE
  5
D0
330
1E
100
AcDbEntity
  8
0
100
AcDbLine
 10
136.9824999999999
 20
2.49999999999999
 30
0.0
 11
142.5825
 21
2.49999999999999
 31
0.0
  0
LINE
  5
D1
330
1E
100
AcDbEntity
  8
0
100
AcDbLine
 10
136.9824999999999
 20
-0.0000000000000101
 30
0.0
 11
142.5825
 21
-0.0000000000000104
 31
0.0
  0
LINE
  5
D2
330
1E
100
AcDbEntity
  8
0
100
AcDbLine
 10
136.7234999999999
 20
299.0
 30
0.0
 11
138.6494999999999
 21
299.0
 31
0.0
  0
LINE
  5
D3
330
1E
100
AcDbEntity
  8
0
100
AcDbLine
 10
138.6494999999999
 20
299.0
 30
0.0
 11
141.8344999999999
 21
299.0
 31
0.0
  0
LINE
  5
D4
330
1E
100
AcDbEntity
  8
0
100
AcDbLine
 10
135.9824999999999
 20
299.0
 30
0.0
 11
135.9824999999999
 21
299.593
 31
0.0
  0
LINE
  5
D5
330
1E
100
AcDbEntity
  8
0
100
AcDbLine
 10
135.9824999999999
 20
299.0
 30
0.0
 11
136.6825
 21
299.0
 31
0.0
  0
LINE
  5
D6
330
1E
100
AcDbEntity
  8
0
100
AcDbLine
 10
137.9075
 20
301.194
 30
0.0
 11
141.3574999999999
 21
301.424
 31
0.0
  0
LINE
  5
D7
330
1E
100
AcDbEntity
  8
0
100
AcDbLine
 10
141.8825
 20
299.0
 30
0.0
 11
146.0824999999999
 21
299.0
 31
0.0
  0
LINE
  5
D8
330
1E
100
AcDbEntity
  8
0
100
AcDbLine
 10
142.5825
 20
2.49999999999999
 30
0.0
 11
149.0825
 21
2.49999999999999
 31
0.0
  0
LINE
  5
D9
330
1E
100
AcDbEntity
  8
0
100
AcDbLine
 10
144.7824999999999
 20
2.99999999999999
 30
0.0
 11
150.1825
 21
2.99999999999999
 31
0.0
  0
LINE
  5
DA
330
1E
100
AcDbEntity
  8
0
100
AcDbLine
 10
145.5825
 20
298.0
 30
0.0
 11
150.5825
 21
298.0
 31
0.0
  0
LINE
  5
DB
330
1E
100
AcDbEntity
  8
0
100
AcDbLine
 10
145.2824999999999
 20
3.49999999999999
 30
0.0
 11
150.4824999999999
 21
3.49999999999999
 31
0.0
  0
LINE
  5
DC
330
1E
100
AcDbEntity
  8
0
100
AcDbLine
 10
142.7825
 20
2.99999999999999
 30
0.0
 11
149.1825
 21
2.99999999999999
 31
0.0
  0
LINE
  5
DD
330
1E
100
AcDbEntity
  8
0
100
AcDbLine
 10
142.7825
 20
2.99999999999999
 30
0.0
 11
144.7824999999999
 21
2.99999999999999
 31
0.0
  0
LINE
  5
DE
330
1E
100
AcDbEntity
  8
0
100
AcDbLine
 10
142.5825
 20
-0.0000000000000104
 30
0.0
 11
149.0825
 21
-0.0000000000000108
 31
0.0
  0
LINE
  5
DF
330
1E
100
AcDbEntity
  8
0
100
AcDbLine
 10
141.8344999999999
 20
299.0
 30
0.0
 11
146.0565
 21
299.0
 31
0.0
  0
LINE
  5
E0
330
1E
100
AcDbEntity
  8
0
100
AcDbLine
 10
146.0824999999999
 20
299.0
 30
0.0
 11
150.8824999999999
 21
299.0
 31
0.0
  0
LINE
  5
E1
330
1E
100
AcDbEntity
  8
0
100
AcDbLine
 10
149.0825
 20
2.49999999999999
 30
0.0
 11
155.9825
 21
2.49999999999999
 31
0.0
  0
LINE
  5
E2
330
1E
100
AcDbEntity
  8
0
100
AcDbLine
 10
150.8824999999999
 20
299.0
 30
0.0
 11
155.9825
 21
299.0
 31
0.0
  0
LINE
  5
E3
330
1E
100
AcDbEntity
  8
0
100
AcDbLine
 10
150.5825
 20
298.0
 30
0.0
 11
155.9825
 21
298.0
 31
0.0
  0
LINE
  5
E4
330
1E
100
AcDbEntity
  8
0
100
AcDbLine
 10
150.4824999999999
 20
3.49999999999999
 30
0.0
 11
155.9825
 21
3.49999999999999
 31
0.0
  0
LINE
  5
E5
330
1E
100
AcDbEntity
  8
0
100
AcDbLine
 10
150.1825
 20
2.99999999999999
 30
0.0
 11
155.9825
 21
2.99999999999999
 31
0.0
  0
LINE
  5
E6
330
1E
100
AcDbEntity
  8
0
100
AcDbLine
 10
149.1825
 20
2.99999999999999
 30
0.0
 11
155.9825
 21
2.99999999999999
 31
0.0
  0
LINE
  5
E7
330
1E
100
AcDbEntity
  8
0
100
AcDbLine
 10
149.0825
 20
-0.0000000000000108
 30
0.0
 11
155.9825
 21
-0.0000000000000112
 31
0.0
  0
LINE
  5
E8
330
1E
100
AcDbEntity
  8
0
100
AcDbLine
 10
146.0565
 20
299.0
 30
0.0
 11
150.7975
 21
299.0
 31
0.0
  0
LINE
  5
E9
330
1E
100
AcDbEntity
  8
0
100
AcDbLine
 10
150.7975
 20
299.0
 30
0.0
 11
155.9825
 21
299.0
 31
0.0
  0
LINE
  5
EA
330
1E
100
AcDbEntity
  8
0
100
AcDbLine
 10
141.3574999999999
 20
301.424
 30
0.0
 11
145.9324999999999
 21
301.7279999999999
 31
0.0
  0
LINE
  5
EB
330
1E
100
AcDbEntity
  8
0
100
AcDbLine
 10
136.1825
 20
333.87
 30
0.0
 11
138.2824999999999
 21
333.87
 31
0.0
  0
LINE
  5
EC
330
1E
100
AcDbEntity
  8
0
100
AcDbLine
 10
138.2824999999999
 20
333.87
 30
0.0
 11
141.7324999999999
 21
333.87
 31
0.0
  0
LINE
  5
ED
330
1E
100
AcDbEntity
  8
0
100
AcDbLine
 10
141.7324999999999
 20
333.87
 30
0.0
 11
146.1575
 21
333.87
 31
0.0
  0
LINE
  5
EE
330
1E
100
AcDbEntity
  8
0
100
AcDbLine
 10
146.1575
 20
333.87
 30
0.0
 11
151.2575
 21
333.87
 31
0.0
  0
LINE
  5
EF
330
1E
100
AcDbEntity
  8
0
100
AcDbLine
 10
145.9324999999999
 20
301.7279999999999
 30
0.0
 11
151.1074999999999
 21
302.072
 31
0.0
  0
LINE
  5
F0
330
1E
100
AcDbEntity
  8
0
100
AcDbLine
 10
155.9825
 20
3.49999999999999
 30
0.0
 11
161.4824999999999
 21
3.49999999999999
 31
0.0
  0
LINE
  5
F1
330
1E
100
AcDbEntity
  8
0
100
AcDbLine
 10
155.9825
 20
2.99999999999999
 30
0.0
 11
162.7825
 21
2.99999999999999
 31
0.0
  0
LINE
  5
F2
330
1E
100
AcDbEntity
  8
0
100
AcDbLine
 10
155.9825
 20
2.49999999999999
 30
0.0
 11
162.8824999999999
 21
2.49999999999999
 31
0.0
  0
LINE
  5
F3
330
1E
100
AcDbEntity
  8
0
100
AcDbLine
 10
155.9825
 20
298.0
 30
0.0
 11
161.3825
 21
298.0
 31
0.0
  0
LINE
  5
F4
330
1E
100
AcDbEntity
  8
0
100
AcDbLine
 10
155.9825
 20
-0.0000000000000112
 30
0.0
 11
162.8824999999999
 21
-0.0000000000000116
 31
0.0
  0
LINE
  5
F5
330
1E
100
AcDbEntity
  8
0
100
AcDbLine
 10
155.9825
 20
299.0
 30
0.0
 11
161.1674999999999
 21
299.0
 31
0.0
  0
LINE
  5
F6
330
1E
100
AcDbEntity
  8
0
100
AcDbLine
 10
155.9825
 20
299.0
 30
0.0
 11
161.0825
 21
299.0
 31
0.0
  0
LINE
  5
F7
330
1E
100
AcDbEntity
  8
0
100
AcDbLine
 10
155.9825
 20
333.87
 30
0.0
 11
160.7075
 21
333.87
 31
0.0
  0
LINE
  5
F8
330
1E
100
AcDbEntity
  8
0
100
AcDbLine
 10
161.0825
 20
299.0
 30
0.0
 11
165.8825
 21
299.0
 31
0.0
  0
LINE
  5
F9
330
1E
100
AcDbEntity
  8
0
100
AcDbLine
 10
161.4824999999999
 20
3.49999999999999
 30
0.0
 11
166.6825
 21
3.49999999999999
 31
0.0
  0
LINE
  5
FA
330
1E
100
AcDbEntity
  8
0
100
AcDbLine
 10
162.7825
 20
2.99999999999999
 30
0.0
 11
169.1825
 21
2.99999999999999
 31
0.0
  0
LINE
  5
FB
330
1E
100
AcDbEntity
  8
0
100
AcDbLine
 10
162.8824999999999
 20
2.49999999999999
 30
0.0
 11
169.3824999999999
 21
2.49999999999999
 31
0.0
  0
LINE
  5
FC
330
1E
100
AcDbEntity
  8
0
100
AcDbLine
 10
165.8825
 20
299.0
 30
0.0
 11
170.0825
 21
299.0
 31
0.0
  0
LINE
  5
FD
330
1E
100
AcDbEntity
  8
0
100
AcDbLine
 10
161.3825
 20
298.0
 30
0.0
 11
166.3824999999999
 21
298.0
 31
0.0
  0
LINE
  5
FE
330
1E
100
AcDbEntity
  8
0
100
AcDbLine
 10
162.8824999999999
 20
-0.0000000000000116
 30
0.0
 11
169.3824999999999
 21
-0.000000000000012
 31
0.0
  0
LINE
  5
FF
330
1E
100
AcDbEntity
  8
0
100
AcDbLine
 10
166.6825
 20
3.49999999999999
 30
0.0
 11
171.1825
 21
3.49999999999999
 31
0.0
  0
LINE
  5
100
330
1E
100
AcDbEntity
  8
0
100
AcDbLine
 10
169.1825
 20
2.99999999999999
 30
0.0
 11
174.6825
 21
2.99999999999999
 31
0.0
  0
LINE
  5
101
330
1E
100
AcDbEntity
  8
0
100
AcDbLine
 10
169.1825
 20
2.99999999999999
 30
0.0
 11
171.8825
 21
2.99999999999999
 31
0.0
  0
LINE
  5
102
330
1E
100
AcDbEntity
  8
0
100
AcDbLine
 10
171.1825
 20
3.49999999999999
 30
0.0
 11
174.5825
 21
3.49999999999999
 31
0.0
  0
LINE
  5
103
330
1E
100
AcDbEntity
  8
0
100
AcDbLine
 10
171.8825
 20
2.99999999999999
 30
0.0
 11
175.4824999999999
 21
2.99999999999999
 31
0.0
  0
LINE
  5
104
330
1E
100
AcDbEntity
  8
0
100
AcDbLine
 10
169.3824999999999
 20
2.49999999999999
 30
0.0
 11
174.9824999999999
 21
2.49999999999999
 31
0.0
  0
LINE
  5
105
330
1E
100
AcDbEntity
  8
0
100
AcDbLine
 10
173.2825
 20
299.0
 30
0.0
 11
175.2825
 21
299.0
 31
0.0
  0
LINE
  5
106
330
1E
100
AcDbEntity
  8
0
100
AcDbLine
 10
170.0825
 20
299.0
 30
0.0
 11
173.2825
 21
299.0
 31
0.0
  0
LINE
  5
107
330
1E
100
AcDbEntity
  8
0
100
AcDbLine
 10
170.7824999999999
 20
298.0
 30
0.0
 11
174.1825
 21
298.0
 31
0.0
  0
LINE
  5
108
330
1E
100
AcDbEntity
  8
0
100
AcDbLine
 10
166.3824999999999
 20
298.0
 30
0.0
 11
170.7824999999999
 21
298.0
 31
0.0
  0
LINE
  5
109
330
1E
100
AcDbEntity
  8
0
100
AcDbLine
 10
169.3824999999999
 20
-0.000000000000012
 30
0.0
 11
174.9824999999999
 21
-0.0000000000000124
 31
0.0
  0
LINE
  5
10A
330
1E
100
AcDbEntity
  8
0
100
AcDbLine
 10
174.5825
 20
3.49999999999999
 30
0.0
 11
176.6825
 21
3.49999999999999
 31
0.0
  0
LINE
  5
10B
330
1E
100
AcDbEntity
  8
0
100
AcDbLine
 10
174.6825
 20
2.99999999999999
 30
0.0
 11
178.9824999999999
 21
2.99999999999999
 31
0.0
  0
LINE
  5
10C
330
1E
100
AcDbEntity
  8
0
100
AcDbLine
 10
174.9824999999999
 20
2.49999999999999
 30
0.0
 11
179.3825
 21
2.49999999999999
 31
0.0
  0
LINE
  5
10D
330
1E
100
AcDbEntity
  8
0
100
AcDbLine
 10
174.9824999999999
 20
-0.0000000000000124
 30
0.0
 11
179.3825
 21
-0.0000000000000127
 31
0.0
  0
LINE
  5
10E
330
1E
100
AcDbEntity
  8
0
100
AcDbLine
 10
174.1825
 20
298.0
 30
0.0
 11
176.1824999999999
 21
298.0
 31
0.0
  0
LINE
  5
10F
330
1E
100
AcDbEntity
  8
0
100
AcDbLine
 10
175.2825
 20
299.0
 30
0.0
 11
175.9825
 21
299.0
 31
0.0
  0
LINE
  5
110
330
1E
100
AcDbEntity
  8
0
100
AcDbLine
 10
175.9825
 20
299.0
 30
0.0
 11
175.9825
 21
299.593
 31
0.0
  0
LINE
  5
111
330
1E
100
AcDbEntity
  8
0
100
AcDbLine
 10
175.9825
 20
299.0
 30
0.0
 11
176.9824999999999
 21
298.0
 31
0.0
  0
LINE
  5
112
330
1E
100
AcDbEntity
  8
0
100
AcDbLine
 10
173.3155
 20
299.0
 30
0.0
 11
175.2415
 21
299.0
 31
0.0
  0
LINE
  5
113
330
1E
100
AcDbEntity
  8
0
100
AcDbLine
 10
170.1305
 20
299.0
 30
0.0
 11
173.3155
 21
299.0
 31
0.0
  0
LINE
  5
114
330
1E
100
AcDbEntity
  8
0
100
AcDbLine
 10
165.9085
 20
299.0
 30
0.0
 11
170.1305
 21
299.0
 31
0.0
  0
LINE
  5
115
330
1E
100
AcDbEntity
  8
0
100
AcDbLine
 10
161.1674999999999
 20
299.0
 30
0.0
 11
165.9085
 21
299.0
 31
0.0
  0
LINE
  5
116
330
1E
100
AcDbEntity
  8
0
100
AcDbLine
 10
176.9824999999999
 20
4.99999999999999
 30
0.0
 11
176.9824999999999
 21
36.9474835728952
 31
0.0
  0
LINE
  5
117
330
1E
100
AcDbEntity
  8
0
100
AcDbLine
 10
176.6825
 20
3.49999999999999
 30
0.0
 11
177.4824999999999
 21
3.49999999999999
 31
0.0
  0
LINE
  5
118
330
1E
100
AcDbEntity
  8
0
100
AcDbLine
 10
176.9824999999999
 20
26.9341044744257
 30
0.0
 11
182.9844999999999
 21
37.30949999999999
 31
0.0
  0
LINE
  5
119
330
1E
100
AcDbEntity
  8
0
100
AcDbLine
 10
176.9824999999999
 20
36.9474835728953
 30
0.0
 11
176.9824999999999
 21
298.0
 31
0.0
  0
LINE
  5
11A
330
1E
100
AcDbEntity
  8
0
100
AcDbLine
 10
176.1824999999999
 20
298.0
 30
0.0
 11
176.9824999999999
 21
298.0
 31
0.0
  0
LINE
  5
11B
330
1E
100
AcDbEntity
  8
0
100
AcDbLine
 10
176.9824999999999
 20
36.9474835728952
 30
0.0
 11
176.9824999999999
 21
298.0
 31
0.0
  0
LINE
  5
11C
330
1E
100
AcDbEntity
  8
0
100
AcDbLine
 10
176.9824999999999
 20
36.9474835728952
 30
0.0
 11
178.6545
 21
39.80949999999999
 31
0.0
  0
LINE
  5
11D
330
1E
100
AcDbEntity
  8
0
100
AcDbLine
 10
176.9824999999999
 20
36.9474835728952
 30
0.0
 11
178.6545
 21
39.80949999999999
 31
0.0
  0
LINE
  5
11E
330
1E
100
AcDbEntity
  8
0
100
AcDbLine
 10
176.9824999999999
 20
4.99999999999999
 30
0.0
 11
177.4824999999999
 21
3.49999999999999
 31
0.0
  0
LINE
  5
11F
330
1E
100
AcDbEntity
  8
0
100
AcDbLine
 10
176.9824999999999
 20
4.99999999999999
 30
0.0
 11
176.9824999999999
 21
36.9474835728952
 31
0.0
  0
LINE
  5
120
330
1E
100
AcDbEntity
  8
0
100
AcDbLine
 10
175.9825
 20
299.593
 30
0.0
 11
175.9825
 21
299.0
 31
0.0
  0
LINE
  5
121
330
1E
100
AcDbEntity
  8
0
100
AcDbLine
 10
165.8075
 20
333.87
 30
0.0
 11
170.2324999999999
 21
333.87
 31
0.0
  0
LINE
  5
122
330
1E
100
AcDbEntity
  8
0
100
AcDbLine
 10
160.7075
 20
333.87
 30
0.0
 11
165.8075
 21
333.87
 31
0.0
  0
LINE
  5
123
330
1E
100
AcDbEntity
  8
0
100
AcDbLine
 10
175.6125
 20
303.296
 30
0.0
 11
175.9825
 21
299.593
 31
0.0
  0
LINE
  5
124
330
1E
100
AcDbEntity
  8
0
100
AcDbLine
 10
173.6825
 20
333.87
 30
0.0
 11
175.7824999999999
 21
333.87
 31
0.0
  0
LINE
  5
125
330
1E
100
AcDbEntity
  8
0
100
AcDbLine
 10
170.2324999999999
 20
333.87
 30
0.0
 11
173.6825
 21
333.87
 31
0.0
  0
LINE
  5
126
330
1E
100
AcDbEntity
  8
0
100
AcDbLine
 10
175.49317335904
 20
303.6934693148509
 30
0.0
 11
175.6125
 21
303.296
 31
0.0
  0
LINE
  5
127
330
1E
100
AcDbEntity
  8
0
100
AcDbLine
 10
175.7824999999999
 20
333.87
 30
0.0
 11
176.5324999999999
 21
333.87
 31
0.0
  0
LINE
  5
128
330
1E
100
AcDbEntity
  8
0
100
AcDbLine
 10
176.9824999999999
 20
303.792
 30
0.0
 11
176.9824999999999
 21
332.8819999999999
 31
0.0
  0
LINE
  5
129
330
1E
100
AcDbEntity
  8
0
100
AcDbLine
 10
176.2375
 20
303.743
 30
0.0
 11
176.9824999999999
 21
303.792
 31
0.0
  0
LINE
  5
12A
330
1E
100
AcDbEntity
  8
0
100
AcDbLine
 10
174.0585
 20
303.598
 30
0.0
 11
176.2375
 21
303.743
 31
0.0
  0
LINE
  5
12B
330
1E
100
AcDbEntity
  8
0
100
AcDbLine
 10
170.6094999999999
 20
303.369
 30
0.0
 11
174.0585
 21
303.598
 31
0.0
  0
LINE
  5
12C
330
1E
100
AcDbEntity
  8
0
100
AcDbLine
 10
166.0325
 20
303.064
 30
0.0
 11
170.6094999999999
 21
303.369
 31
0.0
  0
LINE
  5
12D
330
1E
100
AcDbEntity
  8
0
100
AcDbLine
 10
160.8574999999999
 20
302.72
 30
0.0
 11
166.0325
 21
303.064
 31
0.0
  0
LINE
  5
12E
330
1E
100
AcDbEntity
  8
0
100
AcDbLine
 10
155.9825
 20
302.3959999999999
 30
0.0
 11
160.8574999999999
 21
302.72
 31
0.0
  0
LINE
  5
12F
330
1E
100
AcDbEntity
  8
0
100
AcDbLine
 10
151.2575
 20
333.87
 30
0.0
 11
155.9825
 21
333.87
 31
0.0
  0
LINE
  5
130
330
1E
100
AcDbEntity
  8
0
100
AcDbLine
 10
151.1074999999999
 20
302.072
 30
0.0
 11
155.9825
 21
302.3959999999999
 31
0.0
  0
LINE
  5
131
330
1E
100
AcDbEntity
  8
0
100
AcDbLine
 10
175.4824999999999
 20
334.294
 30
0.0
 11
176.5324999999999
 21
333.87
 31
0.0
  0
LINE
  5
132
330
1E
100
AcDbEntity
  8
0
100
AcDbLine
 10
176.5324999999999
 20
333.87
 30
0.0
 11
176.9824999999999
 21
332.8819999999999
 31
0.0
  0
LINE
  5
133
330
1E
100
AcDbEntity
  8
0
100
AcDbLine
 10
182.9824999999999
 20
-0.0000000000000129
 30
0.0
 11
182.9824999999999
 21
2.49999999999999
 31
0.0
  0
LINE
  5
134
330
1E
100
AcDbEntity
  8
0
100
AcDbLine
 10
181.9824999999999
 20
-0.0000000000000128
 30
0.0
 11
182.9824999999999
 21
-0.0000000000000129
 31
0.0
  0
LINE
  5
135
330
1E
100
AcDbEntity
  8
0
100
AcDbLine
 10
178.9824999999999
 20
2.99999999999999
 30
0.0
 11
181.4824999999999
 21
2.99999999999999
 31
0.0
  0
LINE
  5
136
330
1E
100
AcDbEntity
  8
0
100
AcDbLine
 10
181.4824999999999
 20
2.99999999999999
 30
0.0
 11
182.4824999999999
 21
2.99999999999999
 31
0.0
  0
LINE
  5
137
330
1E
100
AcDbEntity
  8
0
100
AcDbLine
 10
181.9824999999999
 20
2.49999999999999
 30
0.0
 11
182.9824999999999
 21
2.49999999999999
 31
0.0
  0
LINE
  5
138
330
1E
100
AcDbEntity
  8
0
100
AcDbLine
 10
179.3825
 20
2.49999999999999
 30
0.0
 11
181.9824999999999
 21
2.49999999999999
 31
0.0
  0
LINE
  5
145
330
1E
100
AcDbEntity
  8
0
100
AcDbLine
 10
181.9914999999999
 20
42.20979999999999
 30
0.0
 11
182.9844999999999
 21
42.30939999999999
 31
0.0
  0
LINE
  5
146
330
1E
100
AcDbEntity
  8
0
100
AcDbLine
 10
181.0375
 20
41.9148
 30
0.0
 11
181.9914999999999
 21
42.20979999999999
 31
0.0
  0
LINE
  5
147
330
1E
100
AcDbEntity
  8
0
100
AcDbLine
 10
180.1614999999999
 20
41.4361
 30
0.0
 11
181.0375
 21
41.9148
 31
0.0
  0
LINE
  5
148
330
1E
100
AcDbEntity
  8
0
100
AcDbLine
 10
179.3975
 20
40.79299999999999
 30
0.0
 11
180.1614999999999
 21
41.4361
 31
0.0
  0
LINE
  5
14A
330
1E
100
AcDbEntity
  8
0
100
AcDbLine
 10
178.6545
 20
39.80949999999999
 30
0.0
 11
179.3975
 21
40.79299999999999
 31
0.0
  0
LINE
  5
14F
330
1E
100
AcDbEntity
  8
0
100
AcDbLine
 10
177.4824999999999
 20
3.49999999999999
 30
0.0
 11
178.4824999999999
 21
2.99999999999999
 31
0.0
  0
LINE
  5
150
330
1E
100
AcDbEntity
  8
0
100
AcDbLine
 10
182.4824999999999
 20
2.99999999999999
 30
0.0
 11
182.9824999999999
 21
2.49999999999999
 31
0.0
  0
LINE
  5
151
330
1E
100
AcDbEntity
  8
0
100
AcDbLine
 10
192.9824999999999
 20
40.76979999999999
 30
0.0
 11
192.9824999999999
 21
39.8134
 31
0.0
  0
LINE
  5
152
330
1E
100
AcDbEntity
  8
0
100
AcDbLine
 10
192.9824999999999
 20
40.76979999999999
 30
0.0
 11
192.9834999999999
 21
41.58
 31
0.0
  0
LINE
  5
153
330
1E
100
AcDbEntity
  8
0
100
AcDbLine
 10
192.9834999999999
 20
41.58
 30
0.0
 11
192.9834999999999
 21
42.12069999999999
 31
0.0
  0
LINE
  5
154
330
1E
100
AcDbEntity
  8
0
100
AcDbLine
 10
192.9834999999999
 20
42.12069999999999
 30
0.0
 11
192.9834999999999
 21
41.58
 31
0.0
  0
LINE
  5
155
330
1E
100
AcDbEntity
  8
0
100
AcDbLine
 10
192.9834999999999
 20
42.12069999999999
 30
0.0
 11
192.9845
 21
42.30939999999999
 31
0.0
  0
LINE
  5
156
330
1E
100
AcDbEntity
  8
0
100
AcDbLine
 10
192.9824999999999
 20
39.8134
 30
0.0
 11
192.9824999999999
 21
38.85629999999999
 31
0.0
  0
LINE
  5
157
330
1E
100
AcDbEntity
  8
0
100
AcDbLine
 10
192.9824999999999
 20
39.8134
 30
0.0
 11
192.9824999999999
 21
40.76979999999999
 31
0.0
  0
LINE
  5
158
330
1E
100
AcDbEntity
  8
0
100
AcDbLine
 10
192.9824999999999
 20
38.85629999999999
 30
0.0
 11
192.9834999999999
 21
38.0445
 31
0.0
  0
LINE
  5
159
330
1E
100
AcDbEntity
  8
0
100
AcDbLine
 10
192.9824999999999
 20
38.85629999999999
 30
0.0
 11
192.9824999999999
 21
39.8134
 31
0.0
  0
LINE
  5
15A
330
1E
100
AcDbEntity
  8
0
100
AcDbLine
 10
192.9834999999999
 20
38.0445
 30
0.0
 11
192.9834999999999
 21
37.50119999999999
 31
0.0
  0
LINE
  5
15B
330
1E
100
AcDbEntity
  8
0
100
AcDbLine
 10
192.9834999999999
 20
37.50119999999999
 30
0.0
 11
192.9845
 21
37.30939999999999
 31
0.0
  0
LINE
  5
15C
330
1E
100
AcDbEntity
  8
0
100
AcDbLine
 10
192.9834999999999
 20
37.50119999999999
 30
0.0
 11
192.9834999999999
 21
38.0445
 31
0.0
  0
LINE
  5
15D
330
1E
100
AcDbEntity
  8
0
100
AcDbLine
 10
182.9844999999999
 20
37.30949999999999
 30
0.0
 11
192.9845
 21
37.30939999999999
 31
0.0
  0
LINE
  5
15E
330
1E
100
AcDbEntity
  8
0
100
AcDbLine
 10
192.9845
 20
37.30939999999999
 30
0.0
 11
192.9855
 21
37.4981
 31
0.0
  0
LINE
  5
15F
330
1E
100
AcDbEntity
  8
0
100
AcDbLine
 10
192.9855
 20
37.4981
 30
0.0
 11
192.9865
 21
38.0388
 31
0.0
  0
LINE
  5
160
330
1E
100
AcDbEntity
  8
0
100
AcDbLine
 10
192.9865
 20
38.0388
 30
0.0
 11
192.9865
 21
38.849
 31
0.0
  0
LINE
  5
161
330
1E
100
AcDbEntity
  8
0
100
AcDbLine
 10
192.9865
 20
38.849
 30
0.0
 11
192.9865
 21
39.80539999999999
 31
0.0
  0
LINE
  5
162
330
1E
100
AcDbEntity
  8
0
100
AcDbLine
 10
192.9865
 20
38.849
 30
0.0
 11
192.9865
 21
38.0388
 31
0.0
  0
LINE
  5
163
330
1E
100
AcDbEntity
  8
0
100
AcDbLine
 10
192.9865
 20
41.5743
 30
0.0
 11
192.9865
 21
40.7625
 31
0.0
  0
LINE
  5
164
330
1E
100
AcDbEntity
  8
0
100
AcDbLine
 10
192.9865
 20
39.80539999999999
 30
0.0
 11
192.9865
 21
40.7625
 31
0.0
  0
LINE
  5
165
330
1E
100
AcDbEntity
  8
0
100
AcDbLine
 10
192.9865
 20
39.80539999999999
 30
0.0
 11
192.9865
 21
38.849
 31
0.0
  0
LINE
  5
166
330
1E
100
AcDbEntity
  8
0
100
AcDbLine
 10
192.9865
 20
40.7625
 30
0.0
 11
192.9865
 21
41.5743
 31
0.0
  0
LINE
  5
167
330
1E
100
AcDbEntity
  8
0
100
AcDbLine
 10
192.9865
 20
40.7625
 30
0.0
 11
192.9865
 21
39.80539999999999
 31
0.0
  0
LINE
  5
168
330
1E
100
AcDbEntity
  8
0
100
AcDbLine
 10
192.9855
 20
42.1176
 30
0.0
 11
192.9865
 21
41.5743
 31
0.0
  0
LINE
  5
169
330
1E
100
AcDbEntity
  8
0
100
AcDbLine
 10
192.9845
 20
42.30939999999999
 30
0.0
 11
192.9855
 21
42.1176
 31
0.0
  0
LINE
  5
16A
330
1E
100
AcDbEntity
  8
0
100
AcDbLine
 10
182.9844999999999
 20
42.30939999999999
 30
0.0
 11
192.9845
 21
42.30939999999999
 31
0.0
  0
LINE
  5
16B
330
1E
100
AcDbEntity
  8
0
100
AcDbLine
 10
182.9824999999999
 20
2.49999999999999
 30
0.0
 11
182.9824999999999
 21
-0.0000000000000128
 31
0.0
  0
LINE
  5
16C
330
1E
100
AcDbEntity
  8
0
100
AcDbLine
 10
179.3825
 20
-0.0000000000000127
 30
0.0
 11
181.9824999999999
 21
-0.0000000000000128
 31
0.0
  0
LINE
  5
16D
330
1E
100
AcDbEntity
  8
0
100
AcDbLine
 10
176.9824999999999
 20
332.8819999999999
 30
0.0
 11
176.9824999999999
 21
303.792
 31
0.0
  0
LINE
  5
16E
330
1E
100
AcDbEntity
  8
0
100
AcDbLine
 10
142.2245
 20
334.7099999999999
 30
0.0
 11
142.2399631332959
 21
334.4129294199509
 31
0.0
  0
LINE
  5
16F
330
1E
100
AcDbEntity
  8
0
100
AcDbLine
 10
142.2245
 20
334.7099999999999
 30
0.0
 11
142.233345388667
 21
334.540066475418
 31
0.0
  0
LINE
  5
170
330
1E
100
AcDbEntity
  8
0
100
AcDbLine
 10
142.2595
 20
334.7119999999999
 30
0.0
 11
142.3555
 21
334.7169999999999
 31
0.0
  0
LINE
  5
171
330
1E
100
AcDbEntity
  8
0
100
AcDbLine
 10
142.3555
 20
334.7169999999999
 30
0.0
 11
142.5154999999999
 21
334.725
 31
0.0
  0
LINE
  5
172
330
1E
100
AcDbEntity
  8
0
100
AcDbLine
 10
142.5154999999999
 20
334.725
 30
0.0
 11
142.7274999999999
 21
334.736
 31
0.0
  0
LINE
  5
173
330
1E
100
AcDbEntity
  8
0
100
AcDbLine
 10
142.7274999999999
 20
334.736
 30
0.0
 11
142.9675
 21
334.749
 31
0.0
  0
LINE
  5
174
330
1E
100
AcDbEntity
  8
0
100
AcDbLine
 10
143.2225
 20
334.7619999999999
 30
0.0
 11
143.7175
 21
334.7879999999999
 31
0.0
  0
LINE
  5
175
330
1E
100
AcDbEntity
  8
0
100
AcDbLine
 10
143.2225
 20
334.7619999999999
 30
0.0
 11
143.4784999999999
 21
334.775
 31
0.0
  0
LINE
  5
176
330
1E
100
AcDbEntity
  8
0
100
AcDbLine
 10
143.9294999999999
 20
334.799
 30
0.0
 11
144.0894999999999
 21
334.8069999999999
 31
0.0
  0
LINE
  5
177
330
1E
100
AcDbEntity
  8
0
100
AcDbLine
 10
144.2215
 20
334.814
 30
0.0
 11
144.2428238093549
 21
334.4047468896929
 31
0.0
  0
LINE
  5
178
330
1E
100
AcDbEntity
  8
0
100
AcDbLine
 10
144.0894999999999
 20
334.8069999999999
 30
0.0
 11
144.1854999999999
 21
334.8119999999999
 31
0.0
  0
LINE
  5
179
330
1E
100
AcDbEntity
  8
0
100
AcDbLine
 10
143.7175
 20
334.7879999999999
 30
0.0
 11
143.9294999999999
 21
334.799
 31
0.0
  0
LINE
  5
17A
330
1E
100
AcDbEntity
  8
0
100
AcDbLine
 10
143.4784999999999
 20
334.775
 30
0.0
 11
143.7175
 21
334.7879999999999
 31
0.0
  0
LINE
  5
17B
330
1E
100
AcDbEntity
  8
0
100
AcDbLine
 10
142.9675
 20
334.749
 30
0.0
 11
143.2225
 21
334.7619999999999
 31
0.0
  0
LINE
  5
17C
330
1E
100
AcDbEntity
  8
0
100
AcDbLine
 10
167.2324999999999
 20
334.647
 30
0.0
 11
175.4824999999999
 21
334.294
 31
0.0
  0
LINE
  5
17D
330
1E
100
AcDbEntity
  8
0
100
AcDbLine
 10
155.9825
 20
335.0
 30
0.0
 11
167.2324999999999
 21
334.647
 31
0.0
  0
LINE
  5
17E
330
1E
100
AcDbEntity
  8
0
100
AcDbLine
 10
144.7325
 20
334.647
 30
0.0
 11
155.9825
 21
335.0
 31
0.0
  0
LINE
  5
17F
330
1E
100
AcDbEntity
  8
0
100
AcDbLine
 10
144.231318750594
 20
334.6255555174499
 30
0.0
 11
144.7325
 21
334.647
 31
0.0
  0
LINE
  5
180
330
1E
100
AcDbEntity
  8
0
100
AcDbLine
 10
136.4824999999999
 20
334.294
 30
0.0
 11
142.233345388667
 21
334.540066475418
 31
0.0
  0
LINE
  5
181
330
1E
100
AcDbEntity
  8
0
100
AcDbLine
 10
135.7324999999999
 20
301.05
 30
0.0
 11
136.130716291108
 21
301.076364664791
 31
0.0
  0
LINE
  5
182
330
1E
100
AcDbEntity
  8
0
100
AcDbLine
 10
135.7324999999999
 20
301.05
 30
0.0
 11
137.9075
 21
301.194
 31
0.0
  0
ENDSEC
  0
SECTION
  2
OBJECTS
  0
DICTIONARY
  5
C
330
0
100
AcDbDictionary
  3
ACAD_GROUP
350
D
  3
ACAD_LAYOUT
350
19
  3
ACAD_MLINESTYLE
350
16
  3
ACAD_PLOTSETTINGS
350
18
  3
ACAD_PLOTSTYLENAME
350
E
  3
ACDBHEADERROUNDTRIPXREC
350
18A
  3
ACDBVARIABLEDICTIONARY
350
187
  0
DICTIONARY
  5
1AC
330
1E
100
AcDbDictionary
280
     1
  3
ACAD_LAYOUTSELFREF
360
1AD
  0
DICTIONARY
  5
1AA
330
1A
100
AcDbDictionary
280
     1
  3
ACAD_LAYOUTSELFREF
360
1AB
  0
DICTIONARY
  5
D
102
{ACAD_REACTORS
330
C
102
}
330
C
100
AcDbDictionary
  0
DICTIONARY
  5
19
102
{ACAD_REACTORS
330
C
102
}
330
C
100
AcDbDictionary
  0
DICTIONARY
  5
16
102
{ACAD_REACTORS
330
C
102
}
330
C
100
AcDbDictionary
  3
STANDARD
350
17
  0
DICTIONARY
  5
18
102
{ACAD_REACTORS
330
C
102
}
330
C
100
AcDbDictionary
  0
ACDBDICTIONARYWDFLT
  5
E
102
{ACAD_REACTORS
330
C
102
}
330
C
100
AcDbDictionary
281
     1
  3
Normal
350
F
100
AcDbDictionaryWithDefault
340
F
  0
DICTIONARY
  5
18A
102
{ACAD_REACTORS
330
C
102
}
330
C
100
AcDbDictionary
  3
CEPSNTYPE
350
194
  3
FINGERPRINTGUID
350
195
  3
HYPERLINKBASE
350
18D
  3
INSUNITS
350
193
  3
LAYOUTDICT
350
18F
  3
LWETCUNION
350
192
  3
PLOTSETDICT
350
190
  3
PLOTSTYLNAMDICT
350
191
  3
PSVPSCALE
350
197
  3
PUCSBASE
350
19A
  3
PUCSORGBACK
350
1A0
  3
PUCSORGBOTTOM
350
19C
  3
PUCSORGFRONT
350
19F
  3
PUCSORGLEFT
350
19D
  3
PUCSORGRIGHT
350
19E
  3
PUCSORGTOP
350
19B
  3
PUCSORTHOREF
350
198
  3
PUCSORTHOVIEW
350
199
  3
STYLESHEET
350
18E
  3
TSTACKALIGN
350
18B
  3
TSTACKSIZE
350
18C
  3
UCSBASE
350
1A3
  3
UCSORGBACK
350
1A9
  3
UCSORGBOTTOM
350
1A5
  3
UCSORGFRONT
350
1A8
  3
UCSORGLEFT
350
1A6
  3
UCSORGRIGHT
350
1A7
  3
UCSORGTOP
350
1A4
  3
UCSORTHOREF
350
1A1
  3
UCSORTHOVIEW
350
1A2
  3
VERSIONGUID
350
196
  0
DICTIONARY
  5
187
102
{ACAD_REACTORS
330
C
102
}
330
C
100
AcDbDictionary
  3
DIMASSOC
350
188
  0
XRECORD
  5
1AD
102
{ACAD_REACTORS
330
1AC
102
}
330
1AC
100
AcDbXrecord
340
1E
  0
XRECORD
  5
1AB
102
{ACAD_REACTORS
330
1AA
102
}
330
1AA
100
AcDbXrecord
340
1A
  0
MLINESTYLE
  5
17
102
{ACAD_REACTORS
330
16
102
}
330
16
100
AcDbMlineStyle
  2
STANDARD
 70
     0
  3

 62
   256
 51
90.0
 52
90.0
 71
     2
 49
0.5
 62
   256
  6
BYLAYER
 49
-0.5
 62
   256
  6
BYLAYER
  0
ACDBPLACEHOLDER
  5
F
102
{ACAD_REACTORS
330
E
102
}
330
E
100
AcDbPlaceHolder
280
     0
  0
XRECORD
  5
194
102
{ACAD_REACTORS
330
18A
102
}
330
18A
100
AcDbXrecord
 90
        0
  0
XRECORD
  5
195
102
{ACAD_REACTORS
330
18A
102
}
330
18A
100
AcDbXrecord
  1
{531AB69E-90C1-4DE9-A1C3-FB0273F19250}
  0
XRECORD
  5
18D
102
{ACAD_REACTORS
330
18A
102
}
330
18A
100
AcDbXrecord
  1

  0
XRECORD
  5
193
102
{ACAD_REACTORS
330
18A
102
}
330
18A
100
AcDbXrecord
 90
        0
  0
XRECORD
  5
18F
102
{ACAD_REACTORS
330
18A
102
}
330
18A
100
AcDbXrecord
340
19
  0
XRECORD
  5
192
102
{ACAD_REACTORS
330
18A
102
}
330
18A
100
AcDbXrecord
 90
    10781
  0
XRECORD
  5
190
102
{ACAD_REACTORS
330
18A
102
}
330
18A
100
AcDbXrecord
340
18
  0
XRECORD
  5
191
102
{ACAD_REACTORS
330
18A
102
}
330
18A
100
AcDbXrecord
340
E
  0
XRECORD
  5
197
102
{ACAD_REACTORS
330
18A
102
}
330
18A
100
AcDbXrecord
 40
0.0
  0
XRECORD
  5
19A
102
{ACAD_REACTORS
330
18A
102
}
330
18A
100
AcDbXrecord
340
0
  0
XRECORD
  5
1A0
102
{ACAD_REACTORS
330
18A
102
}
330
18A
100
AcDbXrecord
 10
0.0
 20
0.0
 30
0.0
  0
XRECORD
  5
19C
102
{ACAD_REACTORS
330
18A
102
}
330
18A
100
AcDbXrecord
 10
0.0
 20
0.0
 30
0.0
  0
XRECORD
  5
19F
102
{ACAD_REACTORS
330
18A
102
}
330
18A
100
AcDbXrecord
 10
0.0
 20
0.0
 30
0.0
  0
XRECORD
  5
19D
102
{ACAD_REACTORS
330
18A
102
}
330
18A
100
AcDbXrecord
 10
0.0
 20
0.0
 30
0.0
  0
XRECORD
  5
19E
102
{ACAD_REACTORS
330
18A
102
}
330
18A
100
AcDbXrecord
 10
0.0
 20
0.0
 30
0.0
  0
XRECORD
  5
19B
102
{ACAD_REACTORS
330
18A
102
}
330
18A
100
AcDbXrecord
 10
0.0
 20
0.0
 30
0.0
  0
XRECORD
  5
198
102
{ACAD_REACTORS
330
18A
102
}
330
18A
100
AcDbXrecord
340
0
  0
XRECORD
  5
199
102
{ACAD_REACTORS
330
18A
102
}
330
18A
100
AcDbXrecord
 70
     0
  0
XRECORD
  5
18E
102
{ACAD_REACTORS
330
18A
102
}
330
18A
100
AcDbXrecord
  1

  0
XRECORD
  5
18B
102
{ACAD_REACTORS
330
18A
102
}
330
18A
100
AcDbXrecord
 90
        1
  0
XRECORD
  5
18C
102
{ACAD_REACTORS
330
18A
102
}
330
18A
100
AcDbXrecord
 90
       70
  0
XRECORD
  5
1A3
102
{ACAD_REACTORS
330
18A
102
}
330
18A
100
AcDbXrecord
340
0
  0
XRECORD
  5
1A9
102
{ACAD_REACTORS
330
18A
102
}
330
18A
100
AcDbXrecord
 10
0.0
 20
0.0
 30
0.0
  0
XRECORD
  5
1A5
102
{ACAD_REACTORS
330
18A
102
}
330
18A
100
AcDbXrecord
 10
0.0
 20
0.0
 30
0.0
  0
XRECORD
  5
1A8
102
{ACAD_REACTORS
330
18A
102
}
330
18A
100
AcDbXrecord
 10
0.0
 20
0.0
 30
0.0
  0
XRECORD
  5
1A6
102
{ACAD_REACTORS
330
18A
102
}
330
18A
100
AcDbXrecord
 10
0.0
 20
0.0
 30
0.0
  0
XRECORD
  5
1A7
102
{ACAD_REACTORS
330
18A
102
}
330
18A
100
AcDbXrecord
 10
0.0
 20
0.0
 30
0.0
  0
XRECORD
  5
1A4
102
{ACAD_REACTORS
330
18A
102
}
330
18A
100
AcDbXrecord
 10
0.0
 20
0.0
 30
0.0
  0
XRECORD
  5
1A1
102
{ACAD_REACTORS
330
18A
102
}
330
18A
100
AcDbXrecord
340
0
  0
XRECORD
  5
1A2
102
{ACAD_REACTORS
330
18A
102
}
330
18A
100
AcDbXrecord
 70
     1
  0
XRECORD
  5
196
102
{ACAD_REACTORS
330
18A
102
}
330
18A
100
AcDbXrecord
  1
{EC723042-B827-4009-89E6-CB2F69440F02}
  0
DICTIONARYVAR
  5
188
102
{ACAD_REACTORS
330
187
102
}
330
187
100
DictionaryVariables
280
     0
  1
1
  0
ENDSEC
  0
EOF
