  0
SECTION
  2
HEADER
  9
$ACADVER
  1
AC1015
  9
$ACADMAINTVER
 70
    13
  9
$DWGCODEPAGE
  3
ANSI_1252
  9
$INSBASE
 10
0.0
 20
0.0
 30
0.0
  9
$EXTMIN
 10
0.20919350000001
 20
-0.0000000000000081
 30
0.0
  9
$EXTMAX
 10
132.7908065
 20
155.0
 30
0.0
  9
$LIMMIN
 10
0.0
 20
0.0
  9
$LIMMAX
 10
12.0
 20
9.0
  9
$ORTHOMODE
 70
     0
  9
$REGENMODE
 70
     1
  9
$FILLMODE
 70
     1
  9
$QTEXTMODE
 70
     0
  9
$MIRRTEXT
 70
     1
  9
$LTSCALE
 40
1.0
  9
$ATTMODE
 70
     1
  9
$TEXTSIZE
 40
0.2
  9
$TRACEWID
 40
0.05
  9
$TEXTSTYLE
  7
Standard
  9
$CLAYER
  8
0
  9
$CELTYPE
  6
Continuous
  9
$CECOLOR
 62
   256
  9
$CELTSCALE
 40
1.0
  9
$DISPSILH
 70
     0
  9
$DIMSCALE
 40
1.0
  9
$DIMASZ
 40
0.18
  9
$DIMEXO
 40
0.0625
  9
$DIMDLI
 40
0.38
  9
$DIMRND
 40
0.0
  9
$DIMDLE
 40
0.0
  9
$DIMEXE
 40
0.18
  9
$DIMTP
 40
0.0
  9
$DIMTM
 40
0.0
  9
$DIMTXT
 40
0.18
  9
$DIMCEN
 40
0.09
  9
$DIMTSZ
 40
0.0
  9
$DIMTOL
 70
     0
  9
$DIMLIM
 70
     0
  9
$DIMTIH
 70
     1
  9
$DIMTOH
 70
     1
  9
$DIMSE1
 70
     0
  9
$DIMSE2
 70
     0
  9
$DIMTAD
 70
     0
  9
$DIMZIN
 70
     0
  9
$DIMBLK
  1

  9
$DIMASO
 70
     1
  9
$DIMSHO
 70
     1
  9
$DIMPOST
  1

  9
$DIMAPOST
  1

  9
$DIMALT
 70
     0
  9
$DIMALTD
 70
     2
  9
$DIMALTF
 40
25.4
  9
$DIMLFAC
 40
1.0
  9
$DIMTOFL
 70
     0
  9
$DIMTVP
 40
0.0
  9
$DIMTIX
 70
     0
  9
$DIMSOXD
 70
     0
  9
$DIMSAH
 70
     0
  9
$DIMBLK1
  1

  9
$DIMBLK2
  1

  9
$DIMSTYLE
  2
Standard
  9
$DIMCLRD
 70
     0
  9
$DIMCLRE
 70
     0
  9
$DIMCLRT
 70
     0
  9
$DIMTFAC
 40
1.0
  9
$DIMGAP
 40
0.09
  9
$DIMJUST
 70
     0
  9
$DIMSD1
 70
     0
  9
$DIMSD2
 70
     0
  9
$DIMTOLJ
 70
     1
  9
$DIMTZIN
 70
     0
  9
$DIMALTZ
 70
     0
  9
$DIMALTTZ
 70
     0
  9
$DIMUPT
 70
     0
  9
$DIMDEC
 70
     4
  9
$DIMTDEC
 70
     4
  9
$DIMALTU
 70
     2
  9
$DIMALTTD
 70
     2
  9
$DIMTXSTY
  7
Standard
  9
$DIMAUNIT
 70
     0
  9
$DIMADEC
 70
     0
  9
$DIMALTRND
 40
0.0
  9
$DIMAZIN
 70
     0
  9
$DIMDSEP
 70
    46
  9
$DIMATFIT
 70
     3
  9
$DIMFRAC
 70
     0
  9
$DIMLDRBLK
  1

  9
$DIMLUNIT
 70
     2
  9
$DIMLWD
 70
    -2
  9
$DIMLWE
 70
    -2
  9
$DIMTMOVE
 70
     0
  9
$LUNITS
 70
     2
  9
$LUPREC
 70
     4
  9
$SKETCHINC
 40
0.1
  9
$FILLETRAD
 40
0.0
  9
$AUNITS
 70
     0
  9
$AUPREC
 70
     0
  9
$MENU
  1
.
  9
$ELEVATION
 40
0.0
  9
$PELEVATION
 40
0.0
  9
$THICKNESS
 40
0.0
  9
$LIMCHECK
 70
     0
  9
$CHAMFERA
 40
0.0
  9
$CHAMFERB
 40
0.0
  9
$CHAMFERC
 40
0.0
  9
$CHAMFERD
 40
0.0
  9
$SKPOLY
 70
     0
  9
$TDCREATE
 40
2454691.726670821
  9
$TDUCREATE
 40
2454691.643337488
  9
$TDUPDATE
 40
2454691.728141088
  9
$TDUUPDATE
 40
2454691.644807754
  9
$TDINDWG
 40
0.0014704514
  9
$TDUSRTIMER
 40
0.0014704514
  9
$USRTIMER
 70
     1
  9
$ANGBASE
 50
0.0
  9
$ANGDIR
 70
     0
  9
$PDMODE
 70
     0
  9
$PDSIZE
 40
0.0
  9
$PLINEWID
 40
0.0
  9
$SPLFRAME
 70
     0
  9
$SPLINETYPE
 70
     6
  9
$SPLINESEGS
 70
     8
  9
$HANDSEED
  5
F7
  9
$SURFTAB1
 70
     6
  9
$SURFTAB2
 70
     6
  9
$SURFTYPE
 70
     6
  9
$SURFU
 70
     6
  9
$SURFV
 70
     6
  9
$UCSBASE
  2

  9
$UCSNAME
  2

  9
$UCSORG
 10
0.0
 20
0.0
 30
0.0
  9
$UCSXDIR
 10
1.0
 20
0.0
 30
0.0
  9
$UCSYDIR
 10
0.0
 20
1.0
 30
0.0
  9
$UCSORTHOREF
  2

  9
$UCSORTHOVIEW
 70
     1
  9
$UCSORGTOP
 10
0.0
 20
0.0
 30
0.0
  9
$UCSORGBOTTOM
 10
0.0
 20
0.0
 30
0.0
  9
$UCSORGLEFT
 10
0.0
 20
0.0
 30
0.0
  9
$UCSORGRIGHT
 10
0.0
 20
0.0
 30
0.0
  9
$UCSORGFRONT
 10
0.0
 20
0.0
 30
0.0
  9
$UCSORGBACK
 10
0.0
 20
0.0
 30
0.0
  9
$PUCSBASE
  2

  9
$PUCSNAME
  2

  9
$PUCSORG
 10
0.0
 20
0.0
 30
0.0
  9
$PUCSXDIR
 10
1.0
 20
0.0
 30
0.0
  9
$PUCSYDIR
 10
0.0
 20
1.0
 30
0.0
  9
$PUCSORTHOREF
  2

  9
$PUCSORTHOVIEW
 70
     0
  9
$PUCSORGTOP
 10
0.0
 20
0.0
 30
0.0
  9
$PUCSORGBOTTOM
 10
0.0
 20
0.0
 30
0.0
  9
$PUCSORGLEFT
 10
0.0
 20
0.0
 30
0.0
  9
$PUCSORGRIGHT
 10
0.0
 20
0.0
 30
0.0
  9
$PUCSORGFRONT
 10
0.0
 20
0.0
 30
0.0
  9
$PUCSORGBACK
 10
0.0
 20
0.0
 30
0.0
  9
$USERI1
 70
     0
  9
$USERI2
 70
     0
  9
$USERI3
 70
     0
  9
$USERI4
 70
     0
  9
$USERI5
 70
     0
  9
$USERR1
 40
0.0
  9
$USERR2
 40
0.0
  9
$USERR3
 40
0.0
  9
$USERR4
 40
0.0
  9
$USERR5
 40
0.0
  9
$WORLDVIEW
 70
     1
  9
$SHADEDGE
 70
     3
  9
$SHADEDIF
 70
    70
  9
$TILEMODE
 70
     1
  9
$MAXACTVP
 70
    64
  9
$PINSBASE
 10
0.0
 20
0.0
 30
0.0
  9
$PLIMCHECK
 70
     0
  9
$PEXTMIN
 10
1.000000000000000E+20
 20
1.000000000000000E+20
 30
1.000000000000000E+20
  9
$PEXTMAX
 10
-1.000000000000000E+20
 20
-1.000000000000000E+20
 30
-1.000000000000000E+20
  9
$PLIMMIN
 10
0.0
 20
0.0
  9
$PLIMMAX
 10
12.0
 20
9.0
  9
$UNITMODE
 70
     0
  9
$VISRETAIN
 70
     1
  9
$PLINEGEN
 70
     0
  9
$PSLTSCALE
 70
     1
  9
$TREEDEPTH
 70
  3020
  9
$CMLSTYLE
  2
Standard
  9
$CMLJUST
 70
     0
  9
$CMLSCALE
 40
1.0
  9
$PROXYGRAPHICS
 70
     1
  9
$MEASUREMENT
 70
     0
  9
$CELWEIGHT
370
    -1
  9
$ENDCAPS
280
     0
  9
$JOINSTYLE
280
     0
  9
$LWDISPLAY
290
     0
  9
$INSUNITS
 70
     0
  9
$HYPERLINKBASE
  1

  9
$STYLESHEET
  1

  9
$XEDIT
290
     1
  9
$CEPSNTYPE
380
     0
  9
$PSTYLEMODE
290
     1
  9
$FINGERPRINTGUID
  2
{D512BF92-EF45-413E-A4D4-1A4D9877D3E5}
  9
$VERSIONGUID
  2
{85AB5AF8-E4C4-4D80-9DD3-138CDC605298}
  9
$EXTNAMES
290
     1
  9
$PSVPSCALE
 40
0.0
  9
$OLESTARTUP
290
     0
  0
ENDSEC
  0
SECTION
  2
CLASSES
  0
CLASS
  1
ACDBDICTIONARYWDFLT
  2
AcDbDictionaryWithDefault
  3
AutoCAD 2000
 90
        0
280
     0
281
     0
  0
CLASS
  1
ACDBPLACEHOLDER
  2
AcDbPlaceHolder
  3
AutoCAD 2000
 90
        0
280
     0
281
     0
  0
CLASS
  1
LAYOUT
  2
AcDbLayout
  3
AutoCAD 2000
 90
        0
280
     0
281
     0
  0
CLASS
  1
DICTIONARYVAR
  2
AcDbDictionaryVar
  3
AutoCAD 2000
 90
        0
280
     0
281
     0
  0
ENDSEC
  0
SECTION
  2
TABLES
  0
TABLE
  2
VPORT
  5
8
330
0
100
AcDbSymbolTable
 70
     2
  0
VPORT
  5
F6
330
8
100
AcDbSymbolTableRecord
100
AcDbViewportTableRecord
  2
*Active
 70
     0
 10
0.0
 20
0.0
 11
1.0
 21
1.0
 12
66.50000000000002
 22
77.49999999999999
 13
0.0
 23
0.0
 14
1.0
 24
1.0
 15
0.0
 25
0.0
 16
0.0
 26
0.0
 36
1.0
 17
0.0
 27
0.0
 37
0.0
 40
156.1892583120204
 41
2.043533930857874
 42
50.0
 43
0.0
 44
0.0
 50
0.0
 51
0.0
 71
     0
 72
   100
 73
     1
 74
     3
 75
     0
 76
     0
 77
     0
 78
     0
281
     0
 65
     1
110
0.0
120
0.0
130
0.0
111
1.0
121
0.0
131
0.0
112
0.0
122
1.0
132
0.0
 79
     1
146
0.0
  0
ENDTAB
  0
TABLE
  2
LTYPE
  5
5
330
0
100
AcDbSymbolTable
 70
     1
  0
LTYPE
  5
13
330
5
100
AcDbSymbolTableRecord
100
AcDbLinetypeTableRecord
  2
ByBlock
 70
     0
  3

 72
    65
 73
     0
 40
0.0
  0
LTYPE
  5
14
330
5
100
AcDbSymbolTableRecord
100
AcDbLinetypeTableRecord
  2
ByLayer
 70
     0
  3

 72
    65
 73
     0
 40
0.0
  0
LTYPE
  5
15
330
5
100
AcDbSymbolTableRecord
100
AcDbLinetypeTableRecord
  2
Continuous
 70
     0
  3
Solid line
 72
    65
 73
     0
 40
0.0
  0
ENDTAB
  0
TABLE
  2
LAYER
  5
2
330
0
100
AcDbSymbolTable
 70
     1
  0
LAYER
  5
10
330
2
100
AcDbSymbolTableRecord
100
AcDbLayerTableRecord
  2
0
 70
     0
 62
     7
  6
Continuous
370
    -3
390
F
  0
ENDTAB
  0
TABLE
  2
STYLE
  5
3
330
0
100
AcDbSymbolTable
 70
     1
  0
STYLE
  5
11
330
3
100
AcDbSymbolTableRecord
100
AcDbTextStyleTableRecord
  2
Standard
 70
     0
 40
0.0
 41
1.0
 50
0.0
 71
     0
 42
0.2
  3
txt
  4

  0
ENDTAB
  0
TABLE
  2
VIEW
  5
6
330
0
100
AcDbSymbolTable
 70
     0
  0
ENDTAB
  0
TABLE
  2
UCS
  5
7
330
0
100
AcDbSymbolTable
 70
     0
  0
ENDTAB
  0
TABLE
  2
APPID
  5
9
330
0
100
AcDbSymbolTable
 70
     1
  0
APPID
  5
12
330
9
100
AcDbSymbolTableRecord
100
AcDbRegAppTableRecord
  2
ACAD
 70
     0
  0
ENDTAB
  0
TABLE
  2
DIMSTYLE
  5
A
330
0
100
AcDbSymbolTable
 70
     1
100
AcDbDimStyleTable
 71
     0
  0
DIMSTYLE
105
F0
330
A
100
AcDbSymbolTableRecord
100
AcDbDimStyleTableRecord
  2
Standard
 70
     0
340
11
  0
ENDTAB
  0
TABLE
  2
BLOCK_RECORD
  5
1
330
0
100
AcDbSymbolTable
 70
     0
  0
BLOCK_RECORD
  5
1E
330
1
100
AcDbSymbolTableRecord
100
AcDbBlockTableRecord
  2
*Model_Space
340
21
  0
BLOCK_RECORD
  5
1A
330
1
100
AcDbSymbolTableRecord
100
AcDbBlockTableRecord
  2
*Paper_Space
340
1D
  0
ENDTAB
  0
ENDSEC
  0
SECTION
  2
BLOCKS
  0
BLOCK
  5
1F
330
1E
100
AcDbEntity
  8
0
100
AcDbBlockBegin
  2
*Model_Space
 70
     0
 10
0.0
 20
0.0
 30
0.0
  3
*Model_Space
  1

  0
ENDBLK
  5
20
330
1E
100
AcDbEntity
  8
0
100
AcDbBlockEnd
  0
BLOCK
  5
1B
330
1A
100
AcDbEntity
 67
     1
  8
0
100
AcDbBlockBegin
  2
*Paper_Space
 70
     0
 10
0.0
 20
0.0
 30
0.0
  3
*Paper_Space
  1

  0
ENDBLK
  5
1C
330
1A
100
AcDbEntity
 67
     1
  8
0
100
AcDbBlockEnd
  0
ENDSEC
  0
SECTION
  2
ENTITIES
  0
LINE
  5
22
330
1E
100
AcDbEntity
  8
0
100
AcDbLine
 10
89.8908065
 20
-0.0000000000000054
 30
0.0
 11
93.59080650000001
 21
-0.0000000000000057
 31
0.0
  0
LINE
  5
23
330
1E
100
AcDbEntity
  8
0
100
AcDbLine
 10
86.79080649999999
 20
3.99999999999999
 30
0.0
 11
86.79080649999999
 21
-0.0000000000000054
 31
0.0
  0
LINE
  5
24
330
1E
100
AcDbEntity
  8
0
100
AcDbLine
 10
86.79080649999999
 20
3.99999999999999
 30
0.0
 11
87.59080649999999
 21
3.99999999999999
 31
0.0
  0
LINE
  5
25
330
1E
100
AcDbEntity
  8
0
100
AcDbLine
 10
93.59080650000001
 20
3.99999999999999
 30
0.0
 11
98.39080649999999
 21
3.99999999999999
 31
0.0
  0
LINE
  5
26
330
1E
100
AcDbEntity
  8
0
100
AcDbLine
 10
89.8908065
 20
3.99999999999999
 30
0.0
 11
93.59080650000001
 21
3.99999999999999
 31
0.0
  0
LINE
  5
27
330
1E
100
AcDbEntity
  8
0
100
AcDbLine
 10
87.59080649999999
 20
3.99999999999999
 30
0.0
 11
89.8908065
 21
3.99999999999999
 31
0.0
  0
LINE
  5
28
330
1E
100
AcDbEntity
  8
0
100
AcDbLine
 10
92.79080649999999
 20
3.99999999999999
 30
0.0
 11
94.79080649999998
 21
4.99999999999999
 31
0.0
  0
LINE
  5
29
330
1E
100
AcDbEntity
  8
0
100
AcDbLine
 10
86.79080649999999
 20
-0.0000000000000053
 30
0.0
 11
86.79080649999999
 21
3.99999999999999
 31
0.0
  0
LINE
  5
2A
330
1E
100
AcDbEntity
  8
0
100
AcDbLine
 10
86.79080649999999
 20
-0.0000000000000053
 30
0.0
 11
87.59080649999999
 21
-0.0000000000000053
 31
0.0
  0
LINE
  5
2B
330
1E
100
AcDbEntity
  8
0
100
AcDbLine
 10
87.59080649999999
 20
-0.0000000000000053
 30
0.0
 11
89.8908065
 21
-0.0000000000000054
 31
0.0
  0
LINE
  5
2C
330
1E
100
AcDbEntity
  8
0
100
AcDbLine
 10
95.29080649999999
 20
4.99999999999999
 30
0.0
 11
96.79080649999999
 21
4.99999999999999
 31
0.0
  0
LINE
  5
2D
330
1E
100
AcDbEntity
  8
0
100
AcDbLine
 10
94.79080649999998
 20
4.99999999999999
 30
0.0
 11
95.79080649999999
 21
6.99999999999999
 31
0.0
  0
LINE
  5
2E
330
1E
100
AcDbEntity
  8
0
100
AcDbLine
 10
94.79080649999998
 20
4.99999999999999
 30
0.0
 11
95.29080649999999
 21
4.99999999999999
 31
0.0
  0
LINE
  5
2F
330
1E
100
AcDbEntity
  8
0
100
AcDbLine
 10
93.59080650000001
 20
-0.0000000000000057
 30
0.0
 11
98.39080649999999
 21
-0.000000000000006
 31
0.0
  0
LINE
  5
30
330
1E
100
AcDbEntity
  8
0
100
AcDbLine
 10
3.145236500000009
 20
67.78069999999999
 30
0.0
 11
5.115726500000009
 21
67.2527
 31
0.0
  0
LINE
  5
31
330
1E
100
AcDbEntity
  8
0
100
AcDbLine
 10
1.63839650000001
 20
68.18439999999999
 30
0.0
 11
3.145236500000009
 21
67.78069999999999
 31
0.0
  0
LINE
  5
32
330
1E
100
AcDbEntity
  8
0
100
AcDbLine
 10
3.029696500000009
 20
68.1222
 30
0.0
 11
5.077456500000009
 21
67.57349999999999
 31
0.0
  0
LINE
  5
33
330
1E
100
AcDbEntity
  8
0
100
AcDbLine
 10
5.115726500000009
 20
67.2527
 30
0.0
 11
7.356676500000009
 21
66.65219999999999
 31
0.0
  0
LINE
  5
34
330
1E
100
AcDbEntity
  8
0
100
AcDbLine
 10
5.077456500000009
 20
67.57349999999999
 30
0.0
 11
7.395686500000009
 21
66.9524
 31
0.0
  0
LINE
  5
35
330
1E
100
AcDbEntity
  8
0
100
AcDbLine
 10
0.20919350000001
 20
68.878
 30
0.0
 11
0.5569275000000101
 21
68.7848
 31
0.0
  0
LINE
  5
36
330
1E
100
AcDbEntity
  8
0
100
AcDbLine
 10
0.20919350000001
 20
68.878
 30
0.0
 11
0.36337050000001
 21
68.5261
 31
0.0
  0
LINE
  5
37
330
1E
100
AcDbEntity
  8
0
100
AcDbLine
 10
0.20919350000001
 20
68.878
 30
0.0
 11
1.16683154305472
 21
72.4519031330103
 31
0.0
  0
LINE
  5
38
330
1E
100
AcDbEntity
  8
0
100
AcDbLine
 10
0.20919350000001
 20
68.878
 30
0.0
 11
0.5569275000000101
 21
68.7848
 31
0.0
  0
LINE
  5
39
330
1E
100
AcDbEntity
  8
0
100
AcDbLine
 10
0.5569275000000101
 20
68.7848
 30
0.0
 11
1.48421650000001
 21
68.53629999999999
 31
0.0
  0
LINE
  5
3A
330
1E
100
AcDbEntity
  8
0
100
AcDbLine
 10
1.48421650000001
 20
68.53629999999999
 30
0.0
 11
3.029696500000009
 21
68.1222
 31
0.0
  0
LINE
  5
3B
330
1E
100
AcDbEntity
  8
0
100
AcDbLine
 10
0.36337050000001
 20
68.5261
 30
0.0
 11
0.71110350000001
 21
68.4329
 31
0.0
  0
LINE
  5
3C
330
1E
100
AcDbEntity
  8
0
100
AcDbLine
 10
0.71110350000001
 20
68.4329
 30
0.0
 11
1.63839650000001
 21
68.18439999999999
 31
0.0
  0
LINE
  5
3D
330
1E
100
AcDbEntity
  8
0
100
AcDbLine
 10
18.8705065
 20
63.5671
 30
0.0
 11
19.2182065
 21
63.4739
 31
0.0
  0
LINE
  5
3E
330
1E
100
AcDbEntity
  8
0
100
AcDbLine
 10
19.2182065
 20
63.4739
 30
0.0
 11
19.5277065
 21
63.7016
 31
0.0
  0
LINE
  5
3F
330
1E
100
AcDbEntity
  8
0
100
AcDbLine
 10
7.395686500000009
 20
66.9524
 30
0.0
 11
9.868406500000009
 21
66.2898
 31
0.0
  0
LINE
  5
40
330
1E
100
AcDbEntity
  8
0
100
AcDbLine
 10
17.94320649999999
 20
63.8156
 30
0.0
 11
18.8705065
 21
63.5671
 31
0.0
  0
LINE
  5
41
330
1E
100
AcDbEntity
  8
0
100
AcDbLine
 10
19.1800065
 20
63.7948
 30
0.0
 11
19.5277065
 21
63.7016
 31
0.0
  0
LINE
  5
42
330
1E
100
AcDbEntity
  8
0
100
AcDbLine
 10
18.2527065
 20
64.0432
 30
0.0
 11
19.1800065
 21
63.7948
 31
0.0
  0
LINE
  5
43
330
1E
100
AcDbEntity
  8
0
100
AcDbLine
 10
14.4659065
 20
64.7473
 30
0.0
 11
16.4364065
 21
64.2193
 31
0.0
  0
LINE
  5
44
330
1E
100
AcDbEntity
  8
0
100
AcDbLine
 10
12.2249065
 20
65.34780000000001
 30
0.0
 11
14.4659065
 21
64.7473
 31
0.0
  0
LINE
  5
45
330
1E
100
AcDbEntity
  8
0
100
AcDbLine
 10
16.7072065
 20
64.45730000000001
 30
0.0
 11
18.2527065
 21
64.0432
 31
0.0
  0
LINE
  5
46
330
1E
100
AcDbEntity
  8
0
100
AcDbLine
 10
14.6594065
 20
65.006
 30
0.0
 11
16.7072065
 21
64.45730000000001
 31
0.0
  0
LINE
  5
47
330
1E
100
AcDbEntity
  8
0
100
AcDbLine
 10
12.3412065
 20
65.6272
 30
0.0
 11
14.6594065
 21
65.006
 31
0.0
  0
LINE
  5
48
330
1E
100
AcDbEntity
  8
0
100
AcDbLine
 10
9.868406500000009
 20
66.2898
 30
0.0
 11
12.3412065
 21
65.6272
 31
0.0
  0
LINE
  5
49
330
1E
100
AcDbEntity
  8
0
100
AcDbLine
 10
15.9687065
 20
68.48569999999999
 30
0.0
 11
18.1362065
 21
67.905
 31
0.0
  0
LINE
  5
4A
330
1E
100
AcDbEntity
  8
0
100
AcDbLine
 10
19.79370649999999
 20
67.4608
 30
0.0
 11
20.81370649999999
 21
67.1875
 31
0.0
  0
LINE
  5
4B
330
1E
100
AcDbEntity
  8
0
100
AcDbLine
 10
18.1362065
 20
67.905
 30
0.0
 11
19.79370649999999
 21
67.4608
 31
0.0
  0
LINE
  5
4C
330
1E
100
AcDbEntity
  8
0
100
AcDbLine
 10
20.81370649999999
 20
67.1875
 30
0.0
 11
21.19630649999999
 21
67.08499999999999
 31
0.0
  0
LINE
  5
4D
330
1E
100
AcDbEntity
  8
0
100
AcDbLine
 10
21.1464065
 20
67.40899999999999
 30
0.0
 11
21.5289065
 21
67.3065
 31
0.0
  0
LINE
  5
4E
330
1E
100
AcDbEntity
  8
0
100
AcDbLine
 10
20.1264065
 20
67.68229999999999
 30
0.0
 11
21.1464065
 21
67.40899999999999
 31
0.0
  0
LINE
  5
4F
330
1E
100
AcDbEntity
  8
0
100
AcDbLine
 10
18.42640649999999
 20
68.1378
 30
0.0
 11
20.1264065
 21
67.68229999999999
 31
0.0
  0
LINE
  5
50
330
1E
100
AcDbEntity
  8
0
100
AcDbLine
 10
16.1738065
 20
68.7414
 30
0.0
 11
18.42640649999999
 21
68.1378
 31
0.0
  0
LINE
  5
51
330
1E
100
AcDbEntity
  8
0
100
AcDbLine
 10
21.19630649999999
 20
67.08499999999999
 30
0.0
 11
21.5289065
 21
67.3065
 31
0.0
  0
LINE
  5
52
330
1E
100
AcDbEntity
  8
0
100
AcDbLine
 10
21.5289065
 20
67.3065
 30
0.0
 11
24.0634065
 21
77.07049999999999
 31
0.0
  0
LINE
  5
53
330
1E
100
AcDbEntity
  8
0
100
AcDbLine
 10
16.4364065
 20
64.2193
 30
0.0
 11
17.94320649999999
 21
63.8156
 31
0.0
  0
LINE
  5
54
330
1E
100
AcDbEntity
  8
0
100
AcDbLine
 10
9.790806500000009
 20
66.0
 30
0.0
 11
12.2249065
 21
65.34780000000001
 31
0.0
  0
LINE
  5
55
330
1E
100
AcDbEntity
  8
0
100
AcDbLine
 10
19.5277065
 20
63.7016
 30
0.0
 11
20.48537370338129
 21
67.27547387579988
 31
0.0
  0
LINE
  5
56
330
1E
100
AcDbEntity
  8
0
100
AcDbLine
 10
7.356676500000009
 20
66.65219999999999
 30
0.0
 11
9.790806500000009
 21
66.0
 31
0.0
  0
LINE
  5
57
330
1E
100
AcDbEntity
  8
0
100
AcDbLine
 10
5.683496500000009
 20
71.24169999999999
 30
0.0
 11
8.148536500000009
 21
70.5811
 31
0.0
  0
LINE
  5
58
330
1E
100
AcDbEntity
  8
0
100
AcDbLine
 10
8.148536500000009
 20
70.5811
 30
0.0
 11
10.8261065
 21
69.86369999999999
 31
0.0
  0
LINE
  5
59
330
1E
100
AcDbEntity
  8
0
100
AcDbLine
 10
0.8384065000000099
 20
72.5399
 30
0.0
 11
1.85842650000001
 21
72.26659999999999
 31
0.0
  0
LINE
  5
5A
330
1E
100
AcDbEntity
  8
0
100
AcDbLine
 10
1.85842650000001
 20
72.26659999999999
 30
0.0
 11
3.515956500000009
 21
71.8224
 31
0.0
  0
LINE
  5
5B
330
1E
100
AcDbEntity
  8
0
100
AcDbLine
 10
0.455903500000011
 20
72.6424
 30
0.0
 11
0.8384065000000099
 21
72.5399
 31
0.0
  0
LINE
  5
5C
330
1E
100
AcDbEntity
  8
0
100
AcDbLine
 10
0.661050500000011
 20
72.89799999999999
 30
0.0
 11
1.68106650000001
 21
72.6247
 31
0.0
  0
LINE
  5
5D
330
1E
100
AcDbEntity
  8
0
100
AcDbLine
 10
1.68106650000001
 20
72.6247
 30
0.0
 11
3.381096500000009
 21
72.1692
 31
0.0
  0
LINE
  5
5E
330
1E
100
AcDbEntity
  8
0
100
AcDbLine
 10
3.515956500000009
 20
71.8224
 30
0.0
 11
5.683496500000009
 21
71.24169999999999
 31
0.0
  0
LINE
  5
5F
330
1E
100
AcDbEntity
  8
0
100
AcDbLine
 10
3.381096500000009
 20
72.1692
 30
0.0
 11
5.633636500000009
 21
71.5656
 31
0.0
  0
LINE
  5
60
330
1E
100
AcDbEntity
  8
0
100
AcDbLine
 10
5.633636500000009
 20
71.5656
 30
0.0
 11
8.183676500000009
 21
70.8823
 31
0.0
  0
LINE
  5
61
330
1E
100
AcDbEntity
  8
0
100
AcDbLine
 10
13.5036065
 20
69.14629999999999
 30
0.0
 11
15.9687065
 21
68.48569999999999
 31
0.0
  0
LINE
  5
62
330
1E
100
AcDbEntity
  8
0
100
AcDbLine
 10
10.8261065
 20
69.86369999999999
 30
0.0
 11
13.5036065
 21
69.14629999999999
 31
0.0
  0
LINE
  5
63
330
1E
100
AcDbEntity
  8
0
100
AcDbLine
 10
13.6238065
 20
69.4246
 30
0.0
 11
16.1738065
 21
68.7414
 31
0.0
  0
LINE
  5
64
330
1E
100
AcDbEntity
  8
0
100
AcDbLine
 10
10.9037065
 20
70.15349999999999
 30
0.0
 11
13.6238065
 21
69.4246
 31
0.0
  0
LINE
  5
65
330
1E
100
AcDbEntity
  8
0
100
AcDbLine
 10
8.183676500000009
 20
70.8823
 30
0.0
 11
10.9037065
 21
70.15349999999999
 31
0.0
  0
LINE
  5
66
330
1E
100
AcDbEntity
  8
0
100
AcDbLine
 10
27.7908065
 20
81.92820000000001
 30
0.0
 11
29.7202065
 21
82.7274
 31
0.0
  0
LINE
  5
67
330
1E
100
AcDbEntity
  8
0
100
AcDbLine
 10
26.1339065
 20
80.6569
 30
0.0
 11
27.7908065
 21
81.92820000000001
 31
0.0
  0
LINE
  5
68
330
1E
100
AcDbEntity
  8
0
100
AcDbLine
 10
31.79080649999999
 20
83.0
 30
0.0
 11
95.79080649999999
 21
83.0
 31
0.0
  0
LINE
  5
69
330
1E
100
AcDbEntity
  8
0
100
AcDbLine
 10
29.7202065
 20
82.7274
 30
0.0
 11
31.79080649999999
 21
83.0
 31
0.0
  0
LINE
  5
6A
330
1E
100
AcDbEntity
  8
0
100
AcDbLine
 10
24.8626065
 20
79.0
 30
0.0
 11
26.1339065
 21
80.6569
 31
0.0
  0
LINE
  5
6B
330
1E
100
AcDbEntity
  8
0
100
AcDbLine
 10
16.79080649999999
 20
100.981
 30
0.0
 11
24.0262065
 21
103.9779999999999
 31
0.0
  0
LINE
  5
6C
330
1E
100
AcDbEntity
  8
0
100
AcDbLine
 10
10.5776065
 20
96.2132
 30
0.0
 11
16.79080649999999
 21
100.981
 31
0.0
  0
LINE
  5
6D
330
1E
100
AcDbEntity
  8
0
100
AcDbLine
 10
31.79080649999999
 20
105.0
 30
0.0
 11
95.79080649999999
 21
105.0
 31
0.0
  0
LINE
  5
6E
330
1E
100
AcDbEntity
  8
0
100
AcDbLine
 10
24.0262065
 20
103.9779999999999
 30
0.0
 11
31.79080649999999
 21
105.0
 31
0.0
  0
LINE
  5
6F
330
1E
100
AcDbEntity
  8
0
100
AcDbLine
 10
5.810046500000009
 20
90.0
 30
0.0
 11
10.5776065
 21
96.2132
 31
0.0
  0
LINE
  5
70
330
1E
100
AcDbEntity
  8
0
100
AcDbLine
 10
31.79080649999999
 20
83.0
 30
0.0
 11
95.79080649999999
 21
83.0
 31
0.0
  0
LINE
  5
71
330
1E
100
AcDbEntity
  8
0
100
AcDbLine
 10
31.79080649999999
 20
105.0
 30
0.0
 11
95.79080649999999
 21
105.0
 31
0.0
  0
LINE
  5
72
330
1E
100
AcDbEntity
  8
0
100
AcDbLine
 10
24.0634065
 20
77.07049999999999
 30
0.0
 11
24.8626065
 21
79.0
 31
0.0
  0
LINE
  5
73
330
1E
100
AcDbEntity
  8
0
100
AcDbLine
 10
2.813026500000009
 20
82.7646
 30
0.0
 11
5.810046500000009
 21
90.0
 31
0.0
  0
LINE
  5
74
330
1E
100
AcDbEntity
  8
0
100
AcDbLine
 10
0.27854450000001
 20
73.0005
 30
0.0
 11
0.455903500000011
 21
72.6424
 31
0.0
  0
LINE
  5
75
330
1E
100
AcDbEntity
  8
0
100
AcDbLine
 10
0.27854450000001
 20
73.0005
 30
0.0
 11
0.661050500000011
 21
72.89799999999999
 31
0.0
  0
LINE
  5
76
330
1E
100
AcDbEntity
  8
0
100
AcDbLine
 10
0.27854450000001
 20
73.0005
 30
0.0
 11
2.813026500000009
 21
82.7646
 31
0.0
  0
LINE
  5
77
330
1E
100
AcDbEntity
  8
0
100
AcDbLine
 10
0.27854450000001
 20
73.0005
 30
0.0
 11
2.813026500000009
 21
82.7646
 31
0.0
  0
LINE
  5
78
330
1E
100
AcDbEntity
  8
0
100
AcDbLine
 10
0.20919350000001
 20
68.878
 30
0.0
 11
1.16683154305472
 21
72.4519031330103
 31
0.0
  0
LINE
  5
79
330
1E
100
AcDbEntity
  8
0
100
AcDbLine
 10
95.79080649999999
 20
83.0
 30
0.0
 11
95.79080649999999
 21
7.0
 31
0.0
  0
LINE
  5
7A
330
1E
100
AcDbEntity
  8
0
100
AcDbLine
 10
95.79080649999999
 20
114.8739999999999
 30
0.0
 11
96.12680650000001
 21
115.0
 31
0.0
  0
LINE
  5
7B
330
1E
100
AcDbEntity
  8
0
100
AcDbLine
 10
95.79080649999999
 20
114.8739999999999
 30
0.0
 11
95.79080649999999
 21
114.126
 31
0.0
  0
LINE
  5
7C
330
1E
100
AcDbEntity
  8
0
100
AcDbLine
 10
95.79080649999999
 20
114.8739999999999
 30
0.0
 11
96.29480649999999
 21
114.8739999999999
 31
0.0
  0
LINE
  5
7D
330
1E
100
AcDbEntity
  8
0
100
AcDbLine
 10
95.79080649999999
 20
114.126
 30
0.0
 11
96.12680650000001
 21
114.0
 31
0.0
  0
LINE
  5
7E
330
1E
100
AcDbEntity
  8
0
100
AcDbLine
 10
95.79080649999999
 20
114.126
 30
0.0
 11
95.79080649999999
 21
114.8739999999999
 31
0.0
  0
LINE
  5
7F
330
1E
100
AcDbEntity
  8
0
100
AcDbLine
 10
95.79080649999999
 20
114.126
 30
0.0
 11
96.29480649999999
 21
114.126
 31
0.0
  0
LINE
  5
80
330
1E
100
AcDbEntity
  8
0
100
AcDbLine
 10
95.79080649999999
 20
113.4229999999999
 30
0.0
 11
96.12680650000001
 21
114.0
 31
0.0
  0
LINE
  5
81
330
1E
100
AcDbEntity
  8
0
100
AcDbLine
 10
95.79080649999999
 20
113.4229999999999
 30
0.0
 11
95.79080649999999
 21
105.0
 31
0.0
  0
LINE
  5
82
330
1E
100
AcDbEntity
  8
0
100
AcDbLine
 10
96.12680650000001
 20
114.0
 30
0.0
 11
96.63080649999999
 21
114.0
 31
0.0
  0
LINE
  5
83
330
1E
100
AcDbEntity
  8
0
100
AcDbLine
 10
95.79080649999999
 20
105.0
 30
0.0
 11
95.79080649999999
 21
113.4229999999999
 31
0.0
  0
LINE
  5
84
330
1E
100
AcDbEntity
  8
0
100
AcDbLine
 10
95.79080649999999
 20
6.99999999999999
 30
0.0
 11
95.79080649999999
 21
83.0
 31
0.0
  0
LINE
  5
85
330
1E
100
AcDbEntity
  8
0
100
AcDbLine
 10
96.79080649999999
 20
4.99999999999999
 30
0.0
 11
99.19080649999999
 21
4.99999999999999
 31
0.0
  0
LINE
  5
86
330
1E
100
AcDbEntity
  8
0
100
AcDbLine
 10
96.63080649999999
 20
114.0
 30
0.0
 11
97.9748065
 21
114.0
 31
0.0
  0
LINE
  5
87
330
1E
100
AcDbEntity
  8
0
100
AcDbLine
 10
96.29480649999999
 20
114.8739999999999
 30
0.0
 11
97.6388065
 21
114.8739999999999
 31
0.0
  0
LINE
  5
88
330
1E
100
AcDbEntity
  8
0
100
AcDbLine
 10
96.29480649999999
 20
114.126
 30
0.0
 11
97.6388065
 21
114.126
 31
0.0
  0
LINE
  5
89
330
1E
100
AcDbEntity
  8
0
100
AcDbLine
 10
97.6388065
 20
114.8739999999999
 30
0.0
 11
99.87880650000001
 21
114.8739999999999
 31
0.0
  0
LINE
  5
8A
330
1E
100
AcDbEntity
  8
0
100
AcDbLine
 10
97.6388065
 20
114.126
 30
0.0
 11
99.87880650000001
 21
114.126
 31
0.0
  0
LINE
  5
8B
330
1E
100
AcDbEntity
  8
0
100
AcDbLine
 10
97.9748065
 20
114.0
 30
0.0
 11
100.1588064999999
 21
114.0
 31
0.0
  0
LINE
  5
8C
330
1E
100
AcDbEntity
  8
0
100
AcDbLine
 10
96.12680650000001
 20
115.0
 30
0.0
 11
96.63080649999999
 21
115.0
 31
0.0
  0
LINE
  5
8D
330
1E
100
AcDbEntity
  8
0
100
AcDbLine
 10
96.63080649999999
 20
115.0
 30
0.0
 11
97.9748065
 21
115.0
 31
0.0
  0
LINE
  5
8E
330
1E
100
AcDbEntity
  8
0
100
AcDbLine
 10
99.19080649999999
 20
4.99999999999999
 30
0.0
 11
102.2908064999999
 21
4.99999999999999
 31
0.0
  0
LINE
  5
8F
330
1E
100
AcDbEntity
  8
0
100
AcDbLine
 10
98.39080649999999
 20
3.99999999999999
 30
0.0
 11
103.8908064999999
 21
3.99999999999999
 31
0.0
  0
LINE
  5
90
330
1E
100
AcDbEntity
  8
0
100
AcDbLine
 10
98.39080649999999
 20
3.99999999999999
 30
0.0
 11
101.2908064999999
 21
3.99999999999999
 31
0.0
  0
LINE
  5
91
330
1E
100
AcDbEntity
  8
0
100
AcDbLine
 10
98.39080649999999
 20
-0.000000000000006
 30
0.0
 11
103.8908064999999
 21
-0.0000000000000063
 31
0.0
  0
LINE
  5
92
330
1E
100
AcDbEntity
  8
0
100
AcDbLine
 10
102.2908064999999
 20
4.99999999999999
 30
0.0
 11
105.8908065
 21
4.99999999999999
 31
0.0
  0
LINE
  5
93
330
1E
100
AcDbEntity
  8
0
100
AcDbLine
 10
101.2908064999999
 20
3.99999999999999
 30
0.0
 11
103.8908064999999
 21
3.99999999999999
 31
0.0
  0
LINE
  5
94
330
1E
100
AcDbEntity
  8
0
100
AcDbLine
 10
100.1588064999999
 20
114.0
 30
0.0
 11
103.0148064999999
 21
114.0
 31
0.0
  0
LINE
  5
95
330
1E
100
AcDbEntity
  8
0
100
AcDbLine
 10
99.87880650000001
 20
114.8739999999999
 30
0.0
 11
102.8468064999999
 21
114.8739999999999
 31
0.0
  0
LINE
  5
96
330
1E
100
AcDbEntity
  8
0
100
AcDbLine
 10
99.87880650000001
 20
114.126
 30
0.0
 11
102.8468064999999
 21
114.126
 31
0.0
  0
LINE
  5
97
330
1E
100
AcDbEntity
  8
0
100
AcDbLine
 10
102.8468064999999
 20
114.8739999999999
 30
0.0
 11
106.2068065
 21
114.8739999999999
 31
0.0
  0
LINE
  5
98
330
1E
100
AcDbEntity
  8
0
100
AcDbLine
 10
102.8468064999999
 20
114.126
 30
0.0
 11
106.2068065
 21
114.126
 31
0.0
  0
LINE
  5
99
330
1E
100
AcDbEntity
  8
0
100
AcDbLine
 10
103.0148064999999
 20
114.0
 30
0.0
 11
106.2628064999999
 21
114.0
 31
0.0
  0
LINE
  5
9A
330
1E
100
AcDbEntity
  8
0
100
AcDbLine
 10
97.9748065
 20
115.0
 30
0.0
 11
100.1588064999999
 21
115.0
 31
0.0
  0
LINE
  5
9B
330
1E
100
AcDbEntity
  8
0
100
AcDbLine
 10
100.1588064999999
 20
115.0
 30
0.0
 11
103.0148064999999
 21
115.0
 31
0.0
  0
LINE
  5
9C
330
1E
100
AcDbEntity
  8
0
100
AcDbLine
 10
105.8908065
 20
4.99999999999999
 30
0.0
 11
109.7908064999999
 21
4.99999999999999
 31
0.0
  0
LINE
  5
9D
330
1E
100
AcDbEntity
  8
0
100
AcDbLine
 10
103.8908064999999
 20
3.99999999999999
 30
0.0
 11
109.7908064999999
 21
3.99999999999999
 31
0.0
  0
LINE
  5
9E
330
1E
100
AcDbEntity
  8
0
100
AcDbLine
 10
103.8908064999999
 20
-0.0000000000000063
 30
0.0
 11
109.7908064999999
 21
-0.0000000000000067
 31
0.0
  0
LINE
  5
9F
330
1E
100
AcDbEntity
  8
0
100
AcDbLine
 10
109.7908064999999
 20
4.99999999999999
 30
0.0
 11
113.6908064999999
 21
4.99999999999999
 31
0.0
  0
LINE
  5
A0
330
1E
100
AcDbEntity
  8
0
100
AcDbLine
 10
109.7908064999999
 20
3.99999999999999
 30
0.0
 11
115.6908064999999
 21
3.99999999999999
 31
0.0
  0
LINE
  5
A1
330
1E
100
AcDbEntity
  8
0
100
AcDbLine
 10
109.7908064999999
 20
-0.0000000000000067
 30
0.0
 11
115.6908064999999
 21
-0.000000000000007
 31
0.0
  0
LINE
  5
A2
330
1E
100
AcDbEntity
  8
0
100
AcDbLine
 10
106.2628064999999
 20
114.0
 30
0.0
 11
109.7908064999999
 21
114.0
 31
0.0
  0
LINE
  5
A3
330
1E
100
AcDbEntity
  8
0
100
AcDbLine
 10
106.2068065
 20
114.8739999999999
 30
0.0
 11
109.7908064999999
 21
114.8739999999999
 31
0.0
  0
LINE
  5
A4
330
1E
100
AcDbEntity
  8
0
100
AcDbLine
 10
106.2068065
 20
114.126
 30
0.0
 11
109.7908064999999
 21
114.126
 31
0.0
  0
LINE
  5
A5
330
1E
100
AcDbEntity
  8
0
100
AcDbLine
 10
109.7908064999999
 20
114.8739999999999
 30
0.0
 11
113.3748065
 21
114.8739999999999
 31
0.0
  0
LINE
  5
A6
330
1E
100
AcDbEntity
  8
0
100
AcDbLine
 10
109.7908064999999
 20
114.126
 30
0.0
 11
113.3748065
 21
114.126
 31
0.0
  0
LINE
  5
A7
330
1E
100
AcDbEntity
  8
0
100
AcDbLine
 10
109.7908064999999
 20
114.0
 30
0.0
 11
113.3188064999999
 21
114.0
 31
0.0
  0
LINE
  5
A8
330
1E
100
AcDbEntity
  8
0
100
AcDbLine
 10
103.0148064999999
 20
115.0
 30
0.0
 11
106.2628064999999
 21
115.0
 31
0.0
  0
LINE
  5
A9
330
1E
100
AcDbEntity
  8
0
100
AcDbLine
 10
106.2628064999999
 20
115.0
 30
0.0
 11
109.7908064999999
 21
115.0
 31
0.0
  0
LINE
  5
AA
330
1E
100
AcDbEntity
  8
0
100
AcDbLine
 10
113.6908064999999
 20
4.99999999999999
 30
0.0
 11
117.2908064999999
 21
4.99999999999999
 31
0.0
  0
LINE
  5
AB
330
1E
100
AcDbEntity
  8
0
100
AcDbLine
 10
115.6908064999999
 20
3.99999999999999
 30
0.0
 11
121.1908065
 21
3.99999999999999
 31
0.0
  0
LINE
  5
AC
330
1E
100
AcDbEntity
  8
0
100
AcDbLine
 10
115.6908064999999
 20
3.99999999999999
 30
0.0
 11
118.2908064999999
 21
3.99999999999999
 31
0.0
  0
LINE
  5
AD
330
1E
100
AcDbEntity
  8
0
100
AcDbLine
 10
115.6908064999999
 20
-0.000000000000007
 30
0.0
 11
121.1908065
 21
-0.0000000000000074
 31
0.0
  0
LINE
  5
AE
330
1E
100
AcDbEntity
  8
0
100
AcDbLine
 10
116.5668064999999
 20
114.0
 30
0.0
 11
119.4228064999999
 21
114.0
 31
0.0
  0
LINE
  5
AF
330
1E
100
AcDbEntity
  8
0
100
AcDbLine
 10
113.3748065
 20
114.8739999999999
 30
0.0
 11
116.7348064999999
 21
114.8739999999999
 31
0.0
  0
LINE
  5
B0
330
1E
100
AcDbEntity
  8
0
100
AcDbLine
 10
113.3748065
 20
114.126
 30
0.0
 11
116.7348064999999
 21
114.126
 31
0.0
  0
LINE
  5
B1
330
1E
100
AcDbEntity
  8
0
100
AcDbLine
 10
113.3188064999999
 20
114.0
 30
0.0
 11
116.5668064999999
 21
114.0
 31
0.0
  0
LINE
  5
B2
330
1E
100
AcDbEntity
  8
0
100
AcDbLine
 10
120.3908065
 20
4.99999999999999
 30
0.0
 11
122.7908064999999
 21
4.99999999999999
 31
0.0
  0
LINE
  5
B3
330
1E
100
AcDbEntity
  8
0
100
AcDbLine
 10
117.2908064999999
 20
4.99999999999999
 30
0.0
 11
120.3908065
 21
4.99999999999999
 31
0.0
  0
LINE
  5
B4
330
1E
100
AcDbEntity
  8
0
100
AcDbLine
 10
118.2908064999999
 20
3.99999999999999
 30
0.0
 11
121.1908065
 21
3.99999999999999
 31
0.0
  0
LINE
  5
B5
330
1E
100
AcDbEntity
  8
0
100
AcDbLine
 10
121.1908065
 20
3.99999999999999
 30
0.0
 11
125.9908064999999
 21
3.99999999999999
 31
0.0
  0
LINE
  5
B6
330
1E
100
AcDbEntity
  8
0
100
AcDbLine
 10
121.1908065
 20
-0.0000000000000074
 30
0.0
 11
125.9908064999999
 21
-0.0000000000000077
 31
0.0
  0
LINE
  5
B7
330
1E
100
AcDbEntity
  8
0
100
AcDbLine
 10
121.6068064999999
 20
114.0
 30
0.0
 11
122.9508065
 21
114.0
 31
0.0
  0
LINE
  5
B8
330
1E
100
AcDbEntity
  8
0
100
AcDbLine
 10
116.7348064999999
 20
114.8739999999999
 30
0.0
 11
119.7028065
 21
114.8739999999999
 31
0.0
  0
LINE
  5
B9
330
1E
100
AcDbEntity
  8
0
100
AcDbLine
 10
119.7028065
 20
114.8739999999999
 30
0.0
 11
121.9428065
 21
114.8739999999999
 31
0.0
  0
LINE
  5
BA
330
1E
100
AcDbEntity
  8
0
100
AcDbLine
 10
119.7028065
 20
114.126
 30
0.0
 11
121.9428065
 21
114.126
 31
0.0
  0
LINE
  5
BB
330
1E
100
AcDbEntity
  8
0
100
AcDbLine
 10
116.7348064999999
 20
114.126
 30
0.0
 11
119.7028065
 21
114.126
 31
0.0
  0
LINE
  5
BC
330
1E
100
AcDbEntity
  8
0
100
AcDbLine
 10
119.4228064999999
 20
114.0
 30
0.0
 11
121.6068064999999
 21
114.0
 31
0.0
  0
LINE
  5
BD
330
1E
100
AcDbEntity
  8
0
100
AcDbLine
 10
122.7908064999999
 20
4.99999999999999
 30
0.0
 11
124.2908064999999
 21
4.99999999999999
 31
0.0
  0
LINE
  5
BE
330
1E
100
AcDbEntity
  8
0
100
AcDbLine
 10
121.9428065
 20
114.8739999999999
 30
0.0
 11
123.2868064999999
 21
114.8739999999999
 31
0.0
  0
LINE
  5
BF
330
1E
100
AcDbEntity
  8
0
100
AcDbLine
 10
123.2868064999999
 20
114.8739999999999
 30
0.0
 11
123.7908064999999
 21
114.8739999999999
 31
0.0
  0
LINE
  5
C0
330
1E
100
AcDbEntity
  8
0
100
AcDbLine
 10
123.2868064999999
 20
114.126
 30
0.0
 11
123.7908064999999
 21
114.126
 31
0.0
  0
LINE
  5
C1
330
1E
100
AcDbEntity
  8
0
100
AcDbLine
 10
121.9428065
 20
114.126
 30
0.0
 11
123.2868064999999
 21
114.126
 31
0.0
  0
LINE
  5
C2
330
1E
100
AcDbEntity
  8
0
100
AcDbLine
 10
122.9508065
 20
114.0
 30
0.0
 11
123.4548065
 21
114.0
 31
0.0
  0
LINE
  5
C3
330
1E
100
AcDbEntity
  8
0
100
AcDbLine
 10
123.4548065
 20
114.0
 30
0.0
 11
123.7908064999999
 21
113.4229999999999
 31
0.0
  0
LINE
  5
C4
330
1E
100
AcDbEntity
  8
0
100
AcDbLine
 10
123.4548065
 20
114.0
 30
0.0
 11
123.7908064999999
 21
114.126
 31
0.0
  0
LINE
  5
C5
330
1E
100
AcDbEntity
  8
0
100
AcDbLine
 10
122.9508065
 20
115.0
 30
0.0
 11
123.4548065
 21
115.0
 31
0.0
  0
LINE
  5
C6
330
1E
100
AcDbEntity
  8
0
100
AcDbLine
 10
121.6068064999999
 20
115.0
 30
0.0
 11
122.9508065
 21
115.0
 31
0.0
  0
LINE
  5
C7
330
1E
100
AcDbEntity
  8
0
100
AcDbLine
 10
119.4228064999999
 20
115.0
 30
0.0
 11
121.6068064999999
 21
115.0
 31
0.0
  0
LINE
  5
C8
330
1E
100
AcDbEntity
  8
0
100
AcDbLine
 10
116.5668064999999
 20
115.0
 30
0.0
 11
119.4228064999999
 21
115.0
 31
0.0
  0
LINE
  5
C9
330
1E
100
AcDbEntity
  8
0
100
AcDbLine
 10
113.3188064999999
 20
115.0
 30
0.0
 11
116.5668064999999
 21
115.0
 31
0.0
  0
LINE
  5
CA
330
1E
100
AcDbEntity
  8
0
100
AcDbLine
 10
109.7908064999999
 20
115.0
 30
0.0
 11
113.3188064999999
 21
115.0
 31
0.0
  0
LINE
  5
CB
330
1E
100
AcDbEntity
  8
0
100
AcDbLine
 10
96.12680650000001
 20
155.0
 30
0.0
 11
96.63080649999999
 21
155.0
 31
0.0
  0
LINE
  5
CC
330
1E
100
AcDbEntity
  8
0
100
AcDbLine
 10
96.63080649999999
 20
155.0
 30
0.0
 11
97.9748065
 21
155.0
 31
0.0
  0
LINE
  5
CD
330
1E
100
AcDbEntity
  8
0
100
AcDbLine
 10
97.9748065
 20
155.0
 30
0.0
 11
100.1588064999999
 21
155.0
 31
0.0
  0
LINE
  5
CE
330
1E
100
AcDbEntity
  8
0
100
AcDbLine
 10
100.1588064999999
 20
155.0
 30
0.0
 11
103.0148064999999
 21
155.0
 31
0.0
  0
LINE
  5
CF
330
1E
100
AcDbEntity
  8
0
100
AcDbLine
 10
103.0148064999999
 20
155.0
 30
0.0
 11
106.2628064999999
 21
155.0
 31
0.0
  0
LINE
  5
D0
330
1E
100
AcDbEntity
  8
0
100
AcDbLine
 10
106.2628064999999
 20
155.0
 30
0.0
 11
109.7908064999999
 21
155.0
 31
0.0
  0
LINE
  5
D1
330
1E
100
AcDbEntity
  8
0
100
AcDbLine
 10
122.9508065
 20
155.0
 30
0.0
 11
123.4548065
 21
155.0
 31
0.0
  0
LINE
  5
D2
330
1E
100
AcDbEntity
  8
0
100
AcDbLine
 10
121.6068064999999
 20
155.0
 30
0.0
 11
122.9508065
 21
155.0
 31
0.0
  0
LINE
  5
D3
330
1E
100
AcDbEntity
  8
0
100
AcDbLine
 10
119.4228064999999
 20
155.0
 30
0.0
 11
121.6068064999999
 21
155.0
 31
0.0
  0
LINE
  5
D4
330
1E
100
AcDbEntity
  8
0
100
AcDbLine
 10
116.5668064999999
 20
155.0
 30
0.0
 11
119.4228064999999
 21
155.0
 31
0.0
  0
LINE
  5
D5
330
1E
100
AcDbEntity
  8
0
100
AcDbLine
 10
113.3188064999999
 20
155.0
 30
0.0
 11
116.5668064999999
 21
155.0
 31
0.0
  0
LINE
  5
D6
330
1E
100
AcDbEntity
  8
0
100
AcDbLine
 10
109.7908064999999
 20
155.0
 30
0.0
 11
113.3188064999999
 21
155.0
 31
0.0
  0
LINE
  5
D7
330
1E
100
AcDbEntity
  8
0
100
AcDbLine
 10
95.79080649999999
 20
154.4229999999999
 30
0.0
 11
96.12680650000001
 21
155.0
 31
0.0
  0
LINE
  5
D8
330
1E
100
AcDbEntity
  8
0
100
AcDbLine
 10
123.4548065
 20
155.0
 30
0.0
 11
123.7908064999999
 21
154.4229999999999
 31
0.0
  0
LINE
  5
D9
330
1E
100
AcDbEntity
  8
0
100
AcDbLine
 10
95.79080649999999
 20
115.577
 30
0.0
 11
96.12680650000001
 21
115.0
 31
0.0
  0
LINE
  5
DA
330
1E
100
AcDbEntity
  8
0
100
AcDbLine
 10
95.79080649999999
 20
115.577
 30
0.0
 11
95.79080649999999
 21
154.4229999999999
 31
0.0
  0
LINE
  5
DB
330
1E
100
AcDbEntity
  8
0
100
AcDbLine
 10
123.7908064999999
 20
6.99999999999999
 30
0.0
 11
123.7908064999999
 21
113.4229999999999
 31
0.0
  0
LINE
  5
DC
330
1E
100
AcDbEntity
  8
0
100
AcDbLine
 10
123.7908064999999
 20
6.99999999999999
 30
0.0
 11
124.7908064999999
 21
4.99999999999999
 31
0.0
  0
LINE
  5
DD
330
1E
100
AcDbEntity
  8
0
100
AcDbLine
 10
132.7908065
 20
-0.0000000000000081
 30
0.0
 11
132.7908065
 21
3.99999999999999
 31
0.0
  0
LINE
  5
DE
330
1E
100
AcDbEntity
  8
0
100
AcDbLine
 10
124.2908064999999
 20
4.99999999999999
 30
0.0
 11
124.7908064999999
 21
4.99999999999999
 31
0.0
  0
LINE
  5
DF
330
1E
100
AcDbEntity
  8
0
100
AcDbLine
 10
125.9908064999999
 20
3.99999999999999
 30
0.0
 11
129.6908065
 21
3.99999999999999
 31
0.0
  0
LINE
  5
E0
330
1E
100
AcDbEntity
  8
0
100
AcDbLine
 10
125.9908064999999
 20
3.99999999999999
 30
0.0
 11
126.1908064999999
 21
3.99999999999999
 31
0.0
  0
LINE
  5
E1
330
1E
100
AcDbEntity
  8
0
100
AcDbLine
 10
123.7908064999999
 20
114.126
 30
0.0
 11
123.7908064999999
 21
114.8739999999999
 31
0.0
  0
LINE
  5
E2
330
1E
100
AcDbEntity
  8
0
100
AcDbLine
 10
123.7908064999999
 20
114.8739999999999
 30
0.0
 11
123.7908064999999
 21
114.126
 31
0.0
  0
LINE
  5
E3
330
1E
100
AcDbEntity
  8
0
100
AcDbLine
 10
124.7908064999999
 20
4.99999999999999
 30
0.0
 11
126.7908064999999
 21
3.99999999999999
 31
0.0
  0
LINE
  5
E4
330
1E
100
AcDbEntity
  8
0
100
AcDbLine
 10
129.6908065
 20
3.99999999999999
 30
0.0
 11
131.9908064999999
 21
3.99999999999999
 31
0.0
  0
LINE
  5
E5
330
1E
100
AcDbEntity
  8
0
100
AcDbLine
 10
131.9908064999999
 20
3.99999999999999
 30
0.0
 11
132.7908065
 21
3.99999999999999
 31
0.0
  0
LINE
  5
E6
330
1E
100
AcDbEntity
  8
0
100
AcDbLine
 10
129.6908065
 20
-0.0000000000000079
 30
0.0
 11
131.9908064999999
 21
-0.000000000000008
 31
0.0
  0
LINE
  5
E7
330
1E
100
AcDbEntity
  8
0
100
AcDbLine
 10
126.1908064999999
 20
3.99999999999999
 30
0.0
 11
126.7908064999999
 21
3.99999999999999
 31
0.0
  0
LINE
  5
E8
330
1E
100
AcDbEntity
  8
0
100
AcDbLine
 10
132.7908065
 20
3.99999999999999
 30
0.0
 11
132.7908065
 21
-0.0000000000000081
 31
0.0
  0
LINE
  5
E9
330
1E
100
AcDbEntity
  8
0
100
AcDbLine
 10
125.9908064999999
 20
-0.0000000000000077
 30
0.0
 11
129.6908065
 21
-0.0000000000000079
 31
0.0
  0
LINE
  5
EA
330
1E
100
AcDbEntity
  8
0
100
AcDbLine
 10
131.9908064999999
 20
-0.000000000000008
 30
0.0
 11
132.7908065
 21
-0.0000000000000081
 31
0.0
  0
LINE
  5
EB
330
1E
100
AcDbEntity
  8
0
100
AcDbLine
 10
123.7908064999999
 20
6.999999999999981
 30
0.0
 11
123.7908064999999
 21
113.4229999999999
 31
0.0
  0
LINE
  5
EC
330
1E
100
AcDbEntity
  8
0
100
AcDbLine
 10
123.7908064999999
 20
154.4229999999999
 30
0.0
 11
123.7908064999999
 21
115.577
 31
0.0
  0
LINE
  5
ED
330
1E
100
AcDbEntity
  8
0
100
AcDbLine
 10
123.7908064999999
 20
115.577
 30
0.0
 11
123.7908064999999
 21
154.4229999999999
 31
0.0
  0
LINE
  5
EE
330
1E
100
AcDbEntity
  8
0
100
AcDbLine
 10
123.4548065
 20
115.0
 30
0.0
 11
123.7908064999999
 21
115.577
 31
0.0
  0
LINE
  5
EF
330
1E
100
AcDbEntity
  8
0
100
AcDbLine
 10
123.4548065
 20
115.0
 30
0.0
 11
123.7908064999999
 21
114.8739999999999
 31
0.0
  0
ENDSEC
  0
SECTION
  2
OBJECTS
  0
DICTIONARY
  5
C
330
0
100
AcDbDictionary
281
     1
  3
ACAD_GROUP
350
D
  3
ACAD_LAYOUT
350
19
  3
ACAD_MLINESTYLE
350
16
  3
ACAD_PLOTSETTINGS
350
18
  3
ACAD_PLOTSTYLENAME
350
E
  3
AcDbVariableDictionary
350
F4
  0
DICTIONARY
  5
D
102
{ACAD_REACTORS
330
C
102
}
330
C
100
AcDbDictionary
281
     1
  0
DICTIONARY
  5
19
102
{ACAD_REACTORS
330
C
102
}
330
C
100
AcDbDictionary
281
     1
  3
Layout1
350
1D
  3
Model
350
21
  0
DICTIONARY
  5
16
102
{ACAD_REACTORS
330
C
102
}
330
C
100
AcDbDictionary
281
     1
  3
Standard
350
17
  0
DICTIONARY
  5
18
102
{ACAD_REACTORS
330
C
102
}
330
C
100
AcDbDictionary
281
     1
  0
ACDBDICTIONARYWDFLT
  5
E
102
{ACAD_REACTORS
330
C
102
}
330
C
100
AcDbDictionary
281
     1
  3
Normal
350
F
100
AcDbDictionaryWithDefault
340
F
  0
DICTIONARY
  5
F4
102
{ACAD_REACTORS
330
C
102
}
330
C
100
AcDbDictionary
281
     1
  3
DIMASSOC
350
F5
  0
LAYOUT
  5
1D
102
{ACAD_REACTORS
330
19
102
}
330
19
100
AcDbPlotSettings
  1

  2
hp deskjet 980c series
  4

  6

 40
0.0
 41
0.0
 42
0.0
 43
0.0
 44
0.0
 45
0.0
 46
0.0
 47
0.0
 48
0.0
 49
0.0
140
0.0
141
0.0
142
1.0
143
1.0
 70
   688
 72
     0
 73
     0
 74
     5
  7

 75
    16
147
1.0
148
0.0
149
0.0
100
AcDbLayout
  1
Layout1
 70
     1
 71
     1
 10
0.0
 20
0.0
 11
12.0
 21
9.0
 12
0.0
 22
0.0
 32
0.0
 14
1.000000000000000E+20
 24
1.000000000000000E+20
 34
1.000000000000000E+20
 15
-1.000000000000000E+20
 25
-1.000000000000000E+20
 35
-1.000000000000000E+20
146
0.0
 13
0.0
 23
0.0
 33
0.0
 16
1.0
 26
0.0
 36
0.0
 17
0.0
 27
1.0
 37
0.0
 76
     0
330
1A
  0
LAYOUT
  5
21
102
{ACAD_REACTORS
330
19
102
}
330
19
100
AcDbPlotSettings
  1

  2
hp deskjet 980c series
  4

  6

 40
0.0
 41
0.0
 42
0.0
 43
0.0
 44
0.0
 45
0.0
 46
0.0
 47
0.0
 48
0.0
 49
0.0
140
0.0
141
0.0
142
1.0
143
1.0
 70
  1712
 72
     0
 73
     0
 74
     0
  7

 75
     0
147
1.0
148
0.0
149
0.0
100
AcDbLayout
  1
Model
 70
     1
 71
     0
 10
0.0
 20
0.0
 11
12.0
 21
9.0
 12
0.0
 22
0.0
 32
0.0
 14
0.0
 24
0.0
 34
0.0
 15
0.0
 25
0.0
 35
0.0
146
0.0
 13
0.0
 23
0.0
 33
0.0
 16
1.0
 26
0.0
 36
0.0
 17
0.0
 27
1.0
 37
0.0
 76
     0
330
1E
  0
MLINESTYLE
  5
17
102
{ACAD_REACTORS
330
16
102
}
330
16
100
AcDbMlineStyle
  2
STANDARD
 70
     0
  3

 62
   256
 51
90.0
 52
90.0
 71
     2
 49
0.5
 62
   256
  6
BYLAYER
 49
-0.5
 62
   256
  6
BYLAYER
  0
ACDBPLACEHOLDER
  5
F
102
{ACAD_REACTORS
330
E
102
}
330
E
  0
DICTIONARYVAR
  5
F5
102
{ACAD_REACTORS
330
F4
102
}
330
F4
100
DictionaryVariables
280
     0
  1
1
  0
ENDSEC
  0
EOF
