  0
SECTION
  2
HEADER
  9
$ACADVER
  1
AC1014
  9
$ACADMAINTVER
 70
     9
  9
$DWGCODEPAGE
  3
ANSI_1252
  9
$INSBASE
 10
0.0
 20
0.0
 30
0.0
  9
$EXTMIN
 10
0.0000000000000015
 20
0.013316500000008
 30
0.0
  9
$EXTMAX
 10
54.0
 20
153.9866834999999
 30
0.0
  9
$LIMMIN
 10
0.0
 20
0.0
  9
$LIMMAX
 10
12.0
 20
9.0
  9
$ORTHOMODE
 70
     0
  9
$REGENMODE
 70
     1
  9
$FILLMODE
 70
     1
  9
$QTEXTMODE
 70
     0
  9
$MIRRTEXT
 70
     1
  9
$DRAGMODE
 70
     2
  9
$LTSCALE
 40
1.0
  9
$OSMODE
 70
    37
  9
$ATTMODE
 70
     1
  9
$TEXTSIZE
 40
0.2
  9
$TRACEWID
 40
0.05
  9
$TEXTSTYLE
  7
STANDARD
  9
$CLAYER
  8
0
  9
$CELTYPE
  6
CONTINUOUS
  9
$CECOLOR
 62
   256
  9
$CELTSCALE
 40
1.0
  9
$DELOBJ
 70
     1
  9
$DISPSILH
 70
     0
  9
$DIMSCALE
 40
1.0
  9
$DIMASZ
 40
0.18
  9
$DIMEXO
 40
0.0625
  9
$DIMDLI
 40
0.38
  9
$DIMRND
 40
0.0
  9
$DIMDLE
 40
0.0
  9
$DIMEXE
 40
0.18
  9
$DIMTP
 40
0.0
  9
$DIMTM
 40
0.0
  9
$DIMTXT
 40
0.18
  9
$DIMCEN
 40
0.09
  9
$DIMTSZ
 40
0.0
  9
$DIMTOL
 70
     0
  9
$DIMLIM
 70
     0
  9
$DIMTIH
 70
     1
  9
$DIMTOH
 70
     1
  9
$DIMSE1
 70
     0
  9
$DIMSE2
 70
     0
  9
$DIMTAD
 70
     0
  9
$DIMZIN
 70
     0
  9
$DIMBLK
  1

  9
$DIMASO
 70
     1
  9
$DIMSHO
 70
     1
  9
$DIMPOST
  1

  9
$DIMAPOST
  1

  9
$DIMALT
 70
     0
  9
$DIMALTD
 70
     2
  9
$DIMALTF
 40
25.4
  9
$DIMLFAC
 40
1.0
  9
$DIMTOFL
 70
     0
  9
$DIMTVP
 40
0.0
  9
$DIMTIX
 70
     0
  9
$DIMSOXD
 70
     0
  9
$DIMSAH
 70
     0
  9
$DIMBLK1
  1

  9
$DIMBLK2
  1

  9
$DIMSTYLE
  2
STANDARD
  9
$DIMCLRD
 70
     0
  9
$DIMCLRE
 70
     0
  9
$DIMCLRT
 70
     0
  9
$DIMTFAC
 40
1.0
  9
$DIMGAP
 40
0.09
  9
$DIMJUST
 70
     0
  9
$DIMSD1
 70
     0
  9
$DIMSD2
 70
     0
  9
$DIMTOLJ
 70
     1
  9
$DIMTZIN
 70
     0
  9
$DIMALTZ
 70
     0
  9
$DIMALTTZ
 70
     0
  9
$DIMFIT
 70
     3
  9
$DIMUPT
 70
     0
  9
$DIMUNIT
 70
     2
  9
$DIMDEC
 70
     4
  9
$DIMTDEC
 70
     4
  9
$DIMALTU
 70
     2
  9
$DIMALTTD
 70
     2
  9
$DIMTXSTY
  7
STANDARD
  9
$DIMAUNIT
 70
     0
  9
$LUNITS
 70
     2
  9
$LUPREC
 70
     4
  9
$SKETCHINC
 40
0.1
  9
$FILLETRAD
 40
0.0
  9
$AUNITS
 70
     0
  9
$AUPREC
 70
     0
  9
$MENU
  1
.
  9
$ELEVATION
 40
0.0
  9
$PELEVATION
 40
0.0
  9
$THICKNESS
 40
0.0
  9
$LIMCHECK
 70
     0
  9
$BLIPMODE
 70
     0
  9
$CHAMFERA
 40
0.0
  9
$CHAMFERB
 40
0.0
  9
$CHAMFERC
 40
0.0
  9
$CHAMFERD
 40
0.0
  9
$SKPOLY
 70
     0
  9
$TDCREATE
 40
2454691.848664270
  9
$TDUPDATE
 40
2454691.850620833
  9
$TDINDWG
 40
0.0019567477
  9
$TDUSRTIMER
 40
0.0019567477
  9
$USRTIMER
 70
     1
  9
$ANGBASE
 50
0.0
  9
$ANGDIR
 70
     0
  9
$PDMODE
 70
     0
  9
$PDSIZE
 40
0.0
  9
$PLINEWID
 40
0.0
  9
$COORDS
 70
     1
  9
$SPLFRAME
 70
     0
  9
$SPLINETYPE
 70
     6
  9
$SPLINESEGS
 70
     8
  9
$ATTDIA
 70
     0
  9
$ATTREQ
 70
     1
  9
$HANDLING
 70
 22529
  9
$HANDSEED
  5
1BD
  9
$SURFTAB1
 70
     6
  9
$SURFTAB2
 70
     6
  9
$SURFTYPE
 70
     6
  9
$SURFU
 70
     6
  9
$SURFV
 70
     6
  9
$UCSNAME
  2

  9
$UCSORG
 10
0.0
 20
0.0
 30
0.0
  9
$UCSXDIR
 10
1.0
 20
0.0
 30
0.0
  9
$UCSYDIR
 10
0.0
 20
1.0
 30
0.0
  9
$PUCSNAME
  2

  9
$PUCSORG
 10
0.0
 20
0.0
 30
0.0
  9
$PUCSXDIR
 10
1.0
 20
0.0
 30
0.0
  9
$PUCSYDIR
 10
0.0
 20
1.0
 30
0.0
  9
$USERI1
 70
     0
  9
$USERI2
 70
     0
  9
$USERI3
 70
     0
  9
$USERI4
 70
     0
  9
$USERI5
 70
     0
  9
$USERR1
 40
0.0
  9
$USERR2
 40
0.0
  9
$USERR3
 40
0.0
  9
$USERR4
 40
0.0
  9
$USERR5
 40
0.0
  9
$WORLDVIEW
 70
     1
  9
$SHADEDGE
 70
     3
  9
$SHADEDIF
 70
    70
  9
$TILEMODE
 70
     1
  9
$MAXACTVP
 70
    64
  9
$PINSBASE
 10
0.0
 20
0.0
 30
0.0
  9
$PLIMCHECK
 70
     0
  9
$PEXTMIN
 10
1.000000000000000E+20
 20
1.000000000000000E+20
 30
1.000000000000000E+20
  9
$PEXTMAX
 10
-1.000000000000000E+20
 20
-1.000000000000000E+20
 30
-1.000000000000000E+20
  9
$PLIMMIN
 10
0.0
 20
0.0
  9
$PLIMMAX
 10
12.0
 20
9.0
  9
$UNITMODE
 70
     0
  9
$VISRETAIN
 70
     1
  9
$PLINEGEN
 70
     0
  9
$PSLTSCALE
 70
     1
  9
$TREEDEPTH
 70
  3020
  9
$PICKSTYLE
 70
     1
  9
$CMLSTYLE
  2
STANDARD
  9
$CMLJUST
 70
     0
  9
$CMLSCALE
 40
1.0
  9
$PROXYGRAPHICS
 70
     1
  9
$MEASUREMENT
 70
     0
  0
ENDSEC
  0
SECTION
  2
CLASSES
  0
CLASS
  1
ACDBDICTIONARYWDFLT
  2
AcDbDictionaryWithDefault
  3
AutoCAD 2000
 90
        0
280
     0
281
     0
  0
CLASS
  1
ACDBPLACEHOLDER
  2
AcDbPlaceHolder
  3
AutoCAD 2000
 90
        0
280
     0
281
     0
  0
CLASS
  1
LAYOUT
  2
AcDbLayout
  3
AutoCAD 2000
 90
        0
280
     0
281
     0
  0
CLASS
  1
DICTIONARYVAR
  2
AcDbDictionaryVar
  3
AutoCAD 2000
 90
        0
280
     0
281
     0
  0
CLASS
  1
LONG_TRANSACTION
  2
AcDbLongTransaction
  3
AutoCAD 2000
 90
        0
280
     0
281
     0
  0
CLASS
  1
LWPOLYLINE
  2
AcDbPolyline
  3
AutoCAD 2000
 90
        0
280
     0
281
     1
  0
CLASS
  1
HATCH
  2
AcDbHatch
  3
AutoCAD 2000
 90
        0
280
     0
281
     1
  0
CLASS
  1
XRECORD
  2
AcDbXrecord
  3
AutoCAD 2000
 90
        0
280
     0
281
     0
  0
ENDSEC
  0
SECTION
  2
TABLES
  0
TABLE
  2
VPORT
  5
8
330
0
100
AcDbSymbolTable
 70
     2
  0
VPORT
  5
198
330
8
100
AcDbSymbolTableRecord
100
AcDbViewportTableRecord
  2
*ACTIVE
 70
     0
 10
0.0
 20
0.0
 11
1.0
 21
1.0
 12
27.0
 22
77.0
 13
0.0
 23
0.0
 14
1.0
 24
1.0
 15
0.0
 25
0.0
 16
0.0
 26
0.0
 36
1.0
 17
0.0
 27
0.0
 37
0.0
 40
155.1547483324808
 41
2.078104993597951
 42
50.0
 43
0.0
 44
0.0
 50
0.0
 51
0.0
 71
     0
 72
   100
 73
     1
 74
     3
 75
     0
 76
     0
 77
     0
 78
     0
  0
ENDTAB
  0
TABLE
  2
LTYPE
  5
5
330
0
100
AcDbSymbolTable
 70
     1
  0
LTYPE
  5
13
330
5
100
AcDbSymbolTableRecord
100
AcDbLinetypeTableRecord
  2
BYBLOCK
 70
     0
  3

 72
    65
 73
     0
 40
0.0
  0
LTYPE
  5
14
330
5
100
AcDbSymbolTableRecord
100
AcDbLinetypeTableRecord
  2
BYLAYER
 70
     0
  3

 72
    65
 73
     0
 40
0.0
  0
LTYPE
  5
15
330
5
100
AcDbSymbolTableRecord
100
AcDbLinetypeTableRecord
  2
CONTINUOUS
 70
     0
  3
Solid line
 72
    65
 73
     0
 40
0.0
  0
ENDTAB
  0
TABLE
  2
LAYER
  5
2
330
0
100
AcDbSymbolTable
 70
     1
  0
LAYER
  5
10
330
2
100
AcDbSymbolTableRecord
100
AcDbLayerTableRecord
  2
0
 70
     0
 62
     7
  6
CONTINUOUS
  0
ENDTAB
  0
TABLE
  2
STYLE
  5
3
330
0
100
AcDbSymbolTable
 70
     1
  0
STYLE
  5
11
330
3
100
AcDbSymbolTableRecord
100
AcDbTextStyleTableRecord
  2
STANDARD
 70
     0
 40
0.0
 41
1.0
 50
0.0
 71
     0
 42
0.2
  3
txt
  4

  0
ENDTAB
  0
TABLE
  2
VIEW
  5
6
330
0
100
AcDbSymbolTable
 70
     0
  0
ENDTAB
  0
TABLE
  2
UCS
  5
7
330
0
100
AcDbSymbolTable
 70
     0
  0
ENDTAB
  0
TABLE
  2
APPID
  5
9
330
0
100
AcDbSymbolTable
 70
     1
  0
APPID
  5
12
330
9
100
AcDbSymbolTableRecord
100
AcDbRegAppTableRecord
  2
ACAD
 70
     0
  0
ENDTAB
  0
TABLE
  2
DIMSTYLE
  5
A
330
0
100
AcDbSymbolTable
 70
     1
  0
DIMSTYLE
105
192
330
A
100
AcDbSymbolTableRecord
100
AcDbDimStyleTableRecord
  2
STANDARD
 70
     0
  3

  4

  5

  6

  7

 40
1.0
 41
0.18
 42
0.0625
 43
0.38
 44
0.18
 45
0.0
 46
0.0
 47
0.0
 48
0.0
140
0.18
141
0.09
142
0.0
143
25.4
144
1.0
145
0.0
146
1.0
147
0.09
 71
     0
 72
     0
 73
     1
 74
     1
 75
     0
 76
     0
 77
     0
 78
     0
170
     0
171
     2
172
     0
173
     0
174
     0
175
     0
176
     0
177
     0
178
     0
270
     2
271
     4
272
     4
273
     2
274
     2
340
11
275
     0
280
     0
281
     0
282
     0
283
     1
284
     0
285
     0
286
     0
287
     3
288
     0
  0
ENDTAB
  0
TABLE
  2
BLOCK_RECORD
  5
1
330
0
100
AcDbSymbolTable
 70
     0
  0
BLOCK_RECORD
  5
1E
102
{ACAD_XDICTIONARY
360
1BB
102
}
330
1
100
AcDbSymbolTableRecord
100
AcDbBlockTableRecord
  2
*MODEL_SPACE
  0
BLOCK_RECORD
  5
1A
102
{ACAD_XDICTIONARY
360
1B9
102
}
330
1
100
AcDbSymbolTableRecord
100
AcDbBlockTableRecord
  2
*PAPER_SPACE
  0
ENDTAB
  0
ENDSEC
  0
SECTION
  2
BLOCKS
  0
BLOCK
  5
1F
330
1E
100
AcDbEntity
  8
0
100
AcDbBlockBegin
  2
*MODEL_SPACE
 70
     0
 10
0.0
 20
0.0
 30
0.0
  3
*MODEL_SPACE
  1

  0
ENDBLK
  5
20
330
1E
100
AcDbEntity
  8
0
100
AcDbBlockEnd
  0
BLOCK
  5
1B
330
1A
100
AcDbEntity
 67
     1
  8
0
100
AcDbBlockBegin
  2
*PAPER_SPACE
 70
     0
 10
0.0
 20
0.0
 30
0.0
  3
*PAPER_SPACE
  1

  0
ENDBLK
  5
1C
330
1A
100
AcDbEntity
 67
     1
  8
0
100
AcDbBlockEnd
  0
ENDSEC
  0
SECTION
  2
ENTITIES
  0
LINE
  5
22
330
1E
100
AcDbEntity
  8
0
100
AcDbLine
 10
0.500000000000002
 20
116.9826835
 30
0.0
 11
1.5
 21
110.1826835
 31
0.0
  0
LINE
  5
23
330
1E
100
AcDbEntity
  8
0
100
AcDbLine
 10
0.500000000000002
 20
116.9826835
 30
0.0
 11
1.5
 21
123.7826834999999
 31
0.0
  0
LINE
  5
24
330
1E
100
AcDbEntity
  8
0
100
AcDbLine
 10
0.500000000000001
 20
116.9826835
 30
0.0
 11
1.5
 21
110.1826835
 31
0.0
  0
LINE
  5
25
330
1E
100
AcDbEntity
  8
0
100
AcDbLine
 10
0.500000000000001
 20
116.9826835
 30
0.0
 11
1.5
 21
123.7826834999999
 31
0.0
  0
LINE
  5
26
330
1E
100
AcDbEntity
  8
0
100
AcDbLine
 10
4.0
 20
103.7826834999999
 30
0.0
 11
8.3
 21
98.2826835
 31
0.0
  0
LINE
  5
27
330
1E
100
AcDbEntity
  8
0
100
AcDbLine
 10
5.5
 20
116.9826835
 30
0.0
 11
6.299999999999999
 21
111.4826834999999
 31
0.0
  0
LINE
  5
28
330
1E
100
AcDbEntity
  8
0
100
AcDbLine
 10
5.5
 20
116.9826835
 30
0.0
 11
6.299999999999999
 21
122.4826835
 31
0.0
  0
LINE
  5
29
330
1E
100
AcDbEntity
  8
0
100
AcDbLine
 10
1.5
 20
110.1826835
 30
0.0
 11
4.0
 21
103.7826834999999
 31
0.0
  0
LINE
  5
2A
330
1E
100
AcDbEntity
  8
0
100
AcDbLine
 10
1.0
 20
110.0826835
 30
0.0
 11
3.6
 21
103.5826834999999
 31
0.0
  0
LINE
  5
2B
330
1E
100
AcDbEntity
  8
0
100
AcDbLine
 10
3.6
 20
103.5826834999999
 30
0.0
 11
8.0
 21
97.9826835
 31
0.0
  0
LINE
  5
2C
330
1E
100
AcDbEntity
  8
0
100
AcDbLine
 10
1.0
 20
110.0826835
 30
0.0
 11
3.6
 21
103.5826834999999
 31
0.0
  0
LINE
  5
2D
330
1E
100
AcDbEntity
  8
0
100
AcDbLine
 10
1.0
 20
123.8826835
 30
0.0
 11
3.6
 21
130.3826834999999
 31
0.0
  0
LINE
  5
2E
330
1E
100
AcDbEntity
  8
0
100
AcDbLine
 10
4.0
 20
130.1826834999999
 30
0.0
 11
8.3
 21
135.6826834999999
 31
0.0
  0
LINE
  5
2F
330
1E
100
AcDbEntity
  8
0
100
AcDbLine
 10
1.5
 20
123.7826834999999
 30
0.0
 11
4.0
 21
130.1826834999999
 31
0.0
  0
LINE
  5
30
330
1E
100
AcDbEntity
  8
0
100
AcDbLine
 10
3.6
 20
130.3826834999999
 30
0.0
 11
8.0
 21
135.9826835
 31
0.0
  0
LINE
  5
31
330
1E
100
AcDbEntity
  8
0
100
AcDbLine
 10
1.0
 20
123.8826835
 30
0.0
 11
3.6
 21
130.3826834999999
 31
0.0
  0
LINE
  5
32
330
1E
100
AcDbEntity
  8
0
100
AcDbLine
 10
0.0000000000000015
 20
116.9826835
 30
0.0
 11
1.0
 21
110.0826835
 31
0.0
  0
LINE
  5
33
330
1E
100
AcDbEntity
  8
0
100
AcDbLine
 10
0.0000000000000015
 20
116.9826835
 30
0.0
 11
1.0
 21
123.8826835
 31
0.0
  0
LINE
  5
34
330
1E
100
AcDbEntity
  8
0
100
AcDbLine
 10
6.799999999999999
 20
111.5826835
 30
0.0
 11
8.8
 21
106.5826834999999
 31
0.0
  0
LINE
  5
35
330
1E
100
AcDbEntity
  8
0
100
AcDbLine
 10
6.299999999999999
 20
111.4826834999999
 30
0.0
 11
8.4
 21
106.2826834999999
 31
0.0
  0
LINE
  5
36
330
1E
100
AcDbEntity
  8
0
100
AcDbLine
 10
8.8
 20
106.5826834999999
 30
0.0
 11
12.19999999999999
 21
102.1826834999999
 31
0.0
  0
LINE
  5
37
330
1E
100
AcDbEntity
  8
0
100
AcDbLine
 10
8.4
 20
106.2826834999999
 30
0.0
 11
11.8
 21
101.7826834999999
 31
0.0
  0
LINE
  5
38
330
1E
100
AcDbEntity
  8
0
100
AcDbLine
 10
8.3
 20
98.2826835
 30
0.0
 11
13.0
 21
94.60813804545459
 31
0.0
  0
LINE
  5
39
330
1E
100
AcDbEntity
  8
0
100
AcDbLine
 10
8.0
 20
97.9826835
 30
0.0
 11
13.0
 21
94.0541120714286
 31
0.0
  0
LINE
  5
3A
330
1E
100
AcDbEntity
  8
0
100
AcDbLine
 10
13.0
 20
16.4690835
 30
0.0
 11
13.0
 21
11.4814835
 31
0.0
  0
LINE
  5
3B
330
1E
100
AcDbEntity
  8
0
100
AcDbLine
 10
13.0
 20
16.4690835
 30
0.0
 11
13.5
 21
13.52008349999999
 31
0.0
  0
LINE
  5
3C
330
1E
100
AcDbEntity
  8
0
100
AcDbLine
 10
13.0
 20
16.4690835
 30
0.0
 11
13.0377719065048
 21
16.6918546501838
 31
0.0
  0
LINE
  5
3D
330
1E
100
AcDbEntity
  8
0
100
AcDbLine
 10
13.0
 20
11.4814835
 30
0.0
 11
13.5
 21
8.532503500000009
 31
0.0
  0
LINE
  5
3E
330
1E
100
AcDbEntity
  8
0
100
AcDbLine
 10
13.0
 20
11.4814835
 30
0.0
 11
13.0
 21
16.4690835
 31
0.0
  0
LINE
  5
3F
330
1E
100
AcDbEntity
  8
0
100
AcDbLine
 10
13.0
 20
16.9118835
 30
0.0
 11
13.504
 21
13.97598349999999
 31
0.0
  0
LINE
  5
40
330
1E
100
AcDbEntity
  8
0
100
AcDbLine
 10
13.0
 20
16.9118835
 30
0.0
 11
13.0
 21
18.6115835
 31
0.0
  0
LINE
  5
41
330
1E
100
AcDbEntity
  8
0
100
AcDbLine
 10
13.0
 20
18.6115835
 30
0.0
 11
13.0
 21
21.20208349999999
 31
0.0
  0
LINE
  5
42
330
1E
100
AcDbEntity
  8
0
100
AcDbLine
 10
13.0
 20
18.6115835
 30
0.0
 11
13.0
 21
16.9118835
 31
0.0
  0
LINE
  5
43
330
1E
100
AcDbEntity
  8
0
100
AcDbLine
 10
13.0
 20
23.8873835
 30
0.0
 11
13.0
 21
21.20208349999999
 31
0.0
  0
LINE
  5
44
330
1E
100
AcDbEntity
  8
0
100
AcDbLine
 10
13.0
 20
23.8873835
 30
0.0
 11
13.0
 21
26.9973835
 31
0.0
  0
LINE
  5
45
330
1E
100
AcDbEntity
  8
0
100
AcDbLine
 10
13.0
 20
21.20208349999999
 30
0.0
 11
13.0
 21
18.6115835
 31
0.0
  0
LINE
  5
46
330
1E
100
AcDbEntity
  8
0
100
AcDbLine
 10
13.0
 20
21.20208349999999
 30
0.0
 11
13.0
 21
23.8873835
 31
0.0
  0
LINE
  5
47
330
1E
100
AcDbEntity
  8
0
100
AcDbLine
 10
13.0
 20
26.9973835
 30
0.0
 11
13.0
 21
30.2826835
 31
0.0
  0
LINE
  5
48
330
1E
100
AcDbEntity
  8
0
100
AcDbLine
 10
13.0
 20
26.9973835
 30
0.0
 11
13.0
 21
23.8873835
 31
0.0
  0
LINE
  5
49
330
1E
100
AcDbEntity
  8
0
100
AcDbLine
 10
13.0
 20
30.2826835
 30
0.0
 11
13.0
 21
33.5826835
 31
0.0
  0
LINE
  5
4A
330
1E
100
AcDbEntity
  8
0
100
AcDbLine
 10
13.0
 20
30.2826835
 30
0.0
 11
13.0
 21
26.9973835
 31
0.0
  0
LINE
  5
4B
330
1E
100
AcDbEntity
  8
0
100
AcDbLine
 10
20.0
 20
1.56970350000001
 30
0.0
 11
23.39999999999999
 21
0.4228925000000081
 31
0.0
  0
LINE
  5
4C
330
1E
100
AcDbEntity
  8
0
100
AcDbLine
 10
20.0
 20
1.56970350000001
 30
0.0
 11
23.39999999999999
 21
0.4228925000000081
 31
0.0
  0
LINE
  5
4D
330
1E
100
AcDbEntity
  8
0
100
AcDbLine
 10
20.0
 20
6.557333500000009
 30
0.0
 11
23.39999999999999
 21
5.410513500000009
 31
0.0
  0
LINE
  5
4E
330
1E
100
AcDbEntity
  8
0
100
AcDbLine
 10
17.1
 20
3.371843500000009
 30
0.0
 11
20.0
 21
1.56970350000001
 31
0.0
  0
LINE
  5
4F
330
1E
100
AcDbEntity
  8
0
100
AcDbLine
 10
14.9
 20
5.747383500000009
 30
0.0
 11
17.1
 21
3.371843500000009
 31
0.0
  0
LINE
  5
50
330
1E
100
AcDbEntity
  8
0
100
AcDbLine
 10
14.9
 20
10.7349835
 30
0.0
 11
17.1
 21
8.359463500000009
 31
0.0
  0
LINE
  5
51
330
1E
100
AcDbEntity
  8
0
100
AcDbLine
 10
13.5
 20
8.532503500000009
 30
0.0
 11
14.9
 21
5.747383500000009
 31
0.0
  0
LINE
  5
52
330
1E
100
AcDbEntity
  8
0
100
AcDbLine
 10
13.5
 20
13.52008349999999
 30
0.0
 11
14.9
 21
10.7349835
 31
0.0
  0
LINE
  5
53
330
1E
100
AcDbEntity
  8
0
100
AcDbLine
 10
15.9
 20
34.4826835
 30
0.0
 11
16.4866
 21
33.1166835
 31
0.0
  0
LINE
  5
54
330
1E
100
AcDbEntity
  8
0
100
AcDbLine
 10
16.4866
 20
33.1166835
 30
0.0
 11
17.3559
 21
31.7403835
 31
0.0
  0
LINE
  5
55
330
1E
100
AcDbEntity
  8
0
100
AcDbLine
 10
15.4
 20
35.88268349999999
 30
0.0
 11
15.9
 21
34.4826835
 31
0.0
  0
LINE
  5
56
330
1E
100
AcDbEntity
  8
0
100
AcDbLine
 10
13.504
 20
13.97598349999999
 30
0.0
 11
14.84799999999999
 21
11.2236835
 31
0.0
  0
LINE
  5
57
330
1E
100
AcDbEntity
  8
0
100
AcDbLine
 10
14.84799999999999
 20
11.2236835
 30
0.0
 11
17.088
 21
8.792413500000009
 31
0.0
  0
LINE
  5
58
330
1E
100
AcDbEntity
  8
0
100
AcDbLine
 10
19.75769999999999
 20
29.3385835
 30
0.0
 11
21.13399999999999
 21
28.4692835
 31
0.0
  0
LINE
  5
59
330
1E
100
AcDbEntity
  8
0
100
AcDbLine
 10
18.46379999999999
 20
30.3936835
 30
0.0
 11
19.75769999999999
 21
29.3385835
 31
0.0
  0
LINE
  5
5A
330
1E
100
AcDbEntity
  8
0
100
AcDbLine
 10
17.3559
 20
31.7403835
 30
0.0
 11
18.46379999999999
 21
30.3936835
 31
0.0
  0
LINE
  5
5B
330
1E
100
AcDbEntity
  8
0
100
AcDbLine
 10
17.1
 20
8.359463500000009
 30
0.0
 11
20.0
 21
6.557333500000009
 31
0.0
  0
LINE
  5
5C
330
1E
100
AcDbEntity
  8
0
100
AcDbLine
 10
17.088
 20
8.792413500000009
 30
0.0
 11
20.05599999999999
 21
6.939883500000009
 31
0.0
  0
LINE
  5
5D
330
1E
100
AcDbEntity
  8
0
100
AcDbLine
 10
20.05599999999999
 20
6.939883500000009
 30
0.0
 11
23.416
 21
5.856573500000009
 31
0.0
  0
LINE
  5
5E
330
1E
100
AcDbEntity
  8
0
100
AcDbLine
 10
13.0
 20
33.5826835
 30
0.0
 11
13.0
 21
36.9826835
 31
0.0
  0
LINE
  5
5F
330
1E
100
AcDbEntity
  8
0
100
AcDbLine
 10
13.0
 20
33.5826835
 30
0.0
 11
13.0
 21
30.2826835
 31
0.0
  0
LINE
  5
60
330
1E
100
AcDbEntity
  8
0
100
AcDbLine
 10
15.09999999999999
 20
37.4826835
 30
0.0
 11
15.4
 21
35.88268349999999
 31
0.0
  0
LINE
  5
61
330
1E
100
AcDbEntity
  8
0
100
AcDbLine
 10
15.0
 20
38.9826835
 30
0.0
 11
15.09999999999999
 21
37.4826835
 31
0.0
  0
LINE
  5
62
330
1E
100
AcDbEntity
  8
0
100
AcDbLine
 10
15.0
 20
38.9826835
 30
0.0
 11
15.0
 21
100.3781753032789
 31
0.0
  0
LINE
  5
63
330
1E
100
AcDbEntity
  8
0
100
AcDbLine
 10
21.0
 20
38.9826835
 30
0.0
 11
21.0
 21
97.2055095869566
 31
0.0
  0
LINE
  5
64
330
1E
100
AcDbEntity
  8
0
100
AcDbLine
 10
21.0
 20
38.9826835
 30
0.0
 11
21.1
 21
38.1826835
 31
0.0
  0
LINE
  5
65
330
1E
100
AcDbEntity
  8
0
100
AcDbLine
 10
13.0
 20
36.9826835
 30
0.0
 11
13.0
 21
33.5826835
 31
0.0
  0
LINE
  5
66
330
1E
100
AcDbEntity
  8
0
100
AcDbLine
 10
13.0
 20
36.9826835
 30
0.0
 11
13.0
 21
101.564501681818
 31
0.0
  0
LINE
  5
67
330
1E
100
AcDbEntity
  8
0
100
AcDbLine
 10
21.0
 20
97.0226835
 30
0.0
 11
21.6
 21
96.78268349999999
 31
0.0
  0
LINE
  5
68
330
1E
100
AcDbEntity
  8
0
100
AcDbLine
 10
15.0
 20
100.3781753032789
 30
0.0
 11
15.0
 21
38.9826835
 31
0.0
  0
LINE
  5
69
330
1E
100
AcDbEntity
  8
0
100
AcDbLine
 10
13.0
 20
101.564501681818
 30
0.0
 11
13.0
 21
36.9826835
 31
0.0
  0
LINE
  5
6A
330
1E
100
AcDbEntity
  8
0
100
AcDbLine
 10
12.19999999999999
 20
102.1826834999999
 30
0.0
 11
15.0
 21
100.019047136364
 31
0.0
  0
LINE
  5
6B
330
1E
100
AcDbEntity
  8
0
100
AcDbLine
 10
11.8
 20
101.7826834999999
 30
0.0
 11
13.0
 21
100.876016833333
 31
0.0
  0
LINE
  5
6C
330
1E
100
AcDbEntity
  8
0
100
AcDbLine
 10
17.175
 20
99.28268349999999
 30
0.0
 11
22.275
 21
97.1826835
 31
0.0
  0
LINE
  5
6D
330
1E
100
AcDbEntity
  8
0
100
AcDbLine
 10
21.13399999999999
 20
28.4692835
 30
0.0
 11
22.5
 21
27.8826835
 31
0.0
  0
LINE
  5
6E
330
1E
100
AcDbEntity
  8
0
100
AcDbLine
 10
22.5
 20
27.8826835
 30
0.0
 11
23.9
 21
27.3826835
 31
0.0
  0
LINE
  5
6F
330
1E
100
AcDbEntity
  8
0
100
AcDbLine
 10
23.3288
 20
34.2106835
 30
0.0
 11
23.983
 21
33.7393835
 31
0.0
  0
LINE
  5
70
330
1E
100
AcDbEntity
  8
0
100
AcDbLine
 10
22.6992
 20
34.6573835
 30
0.0
 11
23.3288
 21
34.2106835
 31
0.0
  0
LINE
  5
71
330
1E
100
AcDbEntity
  8
0
100
AcDbLine
 10
21.43339999999999
 20
36.6669835
 30
0.0
 11
21.75669999999999
 21
35.9656835
 31
0.0
  0
LINE
  5
72
330
1E
100
AcDbEntity
  8
0
100
AcDbLine
 10
21.75669999999999
 20
35.9656835
 30
0.0
 11
22.228
 21
35.3114835
 31
0.0
  0
LINE
  5
73
330
1E
100
AcDbEntity
  8
0
100
AcDbLine
 10
22.228
 20
35.3114835
 30
0.0
 11
22.6992
 21
34.6573835
 31
0.0
  0
LINE
  5
74
330
1E
100
AcDbEntity
  8
0
100
AcDbLine
 10
21.2
 20
37.3826835
 30
0.0
 11
21.43339999999999
 21
36.6669835
 31
0.0
  0
LINE
  5
75
330
1E
100
AcDbEntity
  8
0
100
AcDbLine
 10
21.1
 20
38.1826835
 30
0.0
 11
21.2
 21
37.3826835
 31
0.0
  0
LINE
  5
76
330
1E
100
AcDbEntity
  8
0
100
AcDbLine
 10
23.39999999999999
 20
5.410513500000009
 30
0.0
 11
27.0
 21
5.000943500000009
 31
0.0
  0
LINE
  5
77
330
1E
100
AcDbEntity
  8
0
100
AcDbLine
 10
23.39999999999999
 20
0.4228925000000081
 30
0.0
 11
27.0
 21
0.013316500000008
 31
0.0
  0
LINE
  5
78
330
1E
100
AcDbEntity
  8
0
100
AcDbLine
 10
23.39999999999999
 20
0.4228925000000081
 30
0.0
 11
27.0
 21
0.013316500000008
 31
0.0
  0
LINE
  5
79
330
1E
100
AcDbEntity
  8
0
100
AcDbLine
 10
27.0
 20
0.013316500000008
 30
0.0
 11
30.6
 21
0.4228925000000081
 31
0.0
  0
LINE
  5
7A
330
1E
100
AcDbEntity
  8
0
100
AcDbLine
 10
27.0
 20
0.013316500000008
 30
0.0
 11
30.6
 21
0.4228925000000081
 31
0.0
  0
LINE
  5
7B
330
1E
100
AcDbEntity
  8
0
100
AcDbLine
 10
23.9
 20
27.3826835
 30
0.0
 11
25.5
 21
27.0826835
 31
0.0
  0
LINE
  5
7C
330
1E
100
AcDbEntity
  8
0
100
AcDbLine
 10
27.0
 20
26.9826835
 30
0.0
 11
28.5
 21
27.0826835
 31
0.0
  0
LINE
  5
7D
330
1E
100
AcDbEntity
  8
0
100
AcDbLine
 10
24.6843
 20
33.4160835
 30
0.0
 11
25.4
 21
33.1826835
 31
0.0
  0
LINE
  5
7E
330
1E
100
AcDbEntity
  8
0
100
AcDbLine
 10
25.4
 20
33.1826835
 30
0.0
 11
26.2
 21
33.0826835
 31
0.0
  0
LINE
  5
7F
330
1E
100
AcDbEntity
  8
0
100
AcDbLine
 10
27.0
 20
32.9826835
 30
0.0
 11
27.8
 21
33.0826835
 31
0.0
  0
LINE
  5
80
330
1E
100
AcDbEntity
  8
0
100
AcDbLine
 10
26.2
 20
33.0826835
 30
0.0
 11
27.0
 21
32.9826835
 31
0.0
  0
LINE
  5
81
330
1E
100
AcDbEntity
  8
0
100
AcDbLine
 10
25.5
 20
27.0826835
 30
0.0
 11
27.0
 21
26.9826835
 31
0.0
  0
LINE
  5
82
330
1E
100
AcDbEntity
  8
0
100
AcDbLine
 10
23.983
 20
33.7393835
 30
0.0
 11
24.6843
 21
33.4160835
 31
0.0
  0
LINE
  5
83
330
1E
100
AcDbEntity
  8
0
100
AcDbLine
 10
27.0
 20
5.444823500000009
 30
0.0
 11
30.584
 21
5.856573500000009
 31
0.0
  0
LINE
  5
84
330
1E
100
AcDbEntity
  8
0
100
AcDbLine
 10
27.8
 20
33.0826835
 30
0.0
 11
28.6
 21
33.1826835
 31
0.0
  0
LINE
  5
85
330
1E
100
AcDbEntity
  8
0
100
AcDbLine
 10
29.3157
 20
33.4160835
 30
0.0
 11
30.017
 21
33.7393835
 31
0.0
  0
LINE
  5
86
330
1E
100
AcDbEntity
  8
0
100
AcDbLine
 10
30.017
 20
33.7393835
 30
0.0
 11
30.6712
 21
34.2106835
 31
0.0
  0
LINE
  5
87
330
1E
100
AcDbEntity
  8
0
100
AcDbLine
 10
28.6
 20
33.1826835
 30
0.0
 11
29.3157
 21
33.4160835
 31
0.0
  0
LINE
  5
88
330
1E
100
AcDbEntity
  8
0
100
AcDbLine
 10
30.1
 20
27.3826835
 30
0.0
 11
31.5
 21
27.8826835
 31
0.0
  0
LINE
  5
89
330
1E
100
AcDbEntity
  8
0
100
AcDbLine
 10
28.5
 20
27.0826835
 30
0.0
 11
30.1
 21
27.3826835
 31
0.0
  0
LINE
  5
8A
330
1E
100
AcDbEntity
  8
0
100
AcDbLine
 10
30.584
 20
5.856573500000009
 30
0.0
 11
33.944
 21
6.939883500000009
 31
0.0
  0
LINE
  5
8B
330
1E
100
AcDbEntity
  8
0
100
AcDbLine
 10
27.0
 20
5.000943500000009
 30
0.0
 11
30.6
 21
5.410513500000009
 31
0.0
  0
LINE
  5
8C
330
1E
100
AcDbEntity
  8
0
100
AcDbLine
 10
30.6
 20
0.4228925000000081
 30
0.0
 11
34.0
 21
1.56970350000001
 31
0.0
  0
LINE
  5
8D
330
1E
100
AcDbEntity
  8
0
100
AcDbLine
 10
31.5
 20
27.8826835
 30
0.0
 11
32.86599999999999
 21
28.4692835
 31
0.0
  0
LINE
  5
8E
330
1E
100
AcDbEntity
  8
0
100
AcDbLine
 10
31.772
 20
35.3114835
 30
0.0
 11
32.2433
 21
35.9656835
 31
0.0
  0
LINE
  5
8F
330
1E
100
AcDbEntity
  8
0
100
AcDbLine
 10
31.30079999999999
 20
34.6573835
 30
0.0
 11
31.772
 21
35.3114835
 31
0.0
  0
LINE
  5
90
330
1E
100
AcDbEntity
  8
0
100
AcDbLine
 10
30.6712
 20
34.2106835
 30
0.0
 11
31.30079999999999
 21
34.6573835
 31
0.0
  0
LINE
  5
91
330
1E
100
AcDbEntity
  8
0
100
AcDbLine
 10
30.6
 20
5.410513500000009
 30
0.0
 11
34.0
 21
6.557333500000009
 31
0.0
  0
LINE
  5
92
330
1E
100
AcDbEntity
  8
0
100
AcDbLine
 10
30.6
 20
0.4228925000000081
 30
0.0
 11
34.0
 21
1.56970350000001
 31
0.0
  0
LINE
  5
93
330
1E
100
AcDbEntity
  8
0
100
AcDbLine
 10
23.416
 20
5.856573500000009
 30
0.0
 11
27.0
 21
5.444823500000009
 31
0.0
  0
LINE
  5
94
330
1E
100
AcDbEntity
  8
0
100
AcDbLine
 10
27.0
 20
96.43268349999999
 30
0.0
 11
31.725
 21
97.1826835
 31
0.0
  0
LINE
  5
96
330
1E
100
AcDbEntity
  8
0
100
AcDbLine
 10
27.0
 20
95.98268349999999
 30
0.0
 11
32.4
 21
96.78268349999999
 31
0.0
  0
LINE
  5
97
330
1E
100
AcDbEntity
  8
0
100
AcDbLine
 10
34.0
 20
1.56970350000001
 30
0.0
 11
36.89999999999999
 21
3.371843500000009
 31
0.0
  0
LINE
  5
98
330
1E
100
AcDbEntity
  8
0
100
AcDbLine
 10
33.944
 20
6.939883500000009
 30
0.0
 11
36.912
 21
8.792413500000009
 31
0.0
  0
LINE
  5
99
330
1E
100
AcDbEntity
  8
0
100
AcDbLine
 10
34.0
 20
6.557333500000009
 30
0.0
 11
36.89999999999999
 21
8.359463500000009
 31
0.0
  0
LINE
  5
9A
330
1E
100
AcDbEntity
  8
0
100
AcDbLine
 10
36.89999999999999
 20
8.359463500000009
 30
0.0
 11
39.1
 21
10.7349835
 31
0.0
  0
LINE
  5
9B
330
1E
100
AcDbEntity
  8
0
100
AcDbLine
 10
36.89999999999999
 20
3.371843500000009
 30
0.0
 11
39.1
 21
5.747383500000009
 31
0.0
  0
LINE
  5
9C
330
1E
100
AcDbEntity
  8
0
100
AcDbLine
 10
39.1
 20
5.747383500000009
 30
0.0
 11
40.49999999999999
 21
8.532503500000009
 31
0.0
  0
LINE
  5
9D
330
1E
100
AcDbEntity
  8
0
100
AcDbLine
 10
36.912
 20
8.792413500000009
 30
0.0
 11
39.152
 21
11.2236835
 31
0.0
  0
LINE
  5
9E
330
1E
100
AcDbEntity
  8
0
100
AcDbLine
 10
32.5666
 20
36.6669835
 30
0.0
 11
32.79999999999999
 21
37.3826835
 31
0.0
  0
LINE
  5
9F
330
1E
100
AcDbEntity
  8
0
100
AcDbLine
 10
32.79999999999999
 20
37.3826835
 30
0.0
 11
32.9
 21
38.1826835
 31
0.0
  0
LINE
  5
A0
330
1E
100
AcDbEntity
  8
0
100
AcDbLine
 10
32.9
 20
38.1826835
 30
0.0
 11
33.0
 21
38.9826835
 31
0.0
  0
LINE
  5
A1
330
1E
100
AcDbEntity
  8
0
100
AcDbLine
 10
32.2433
 20
35.9656835
 30
0.0
 11
32.5666
 21
36.6669835
 31
0.0
  0
LINE
  5
A2
330
1E
100
AcDbEntity
  8
0
100
AcDbLine
 10
32.86599999999999
 20
28.4692835
 30
0.0
 11
34.2423
 21
29.3385835
 31
0.0
  0
LINE
  5
A3
330
1E
100
AcDbEntity
  8
0
100
AcDbLine
 10
38.1
 20
34.4826835
 30
0.0
 11
38.6
 21
35.88268349999999
 31
0.0
  0
LINE
  5
A4
330
1E
100
AcDbEntity
  8
0
100
AcDbLine
 10
38.6
 20
35.88268349999999
 30
0.0
 11
38.9
 21
37.4826835
 31
0.0
  0
LINE
  5
A5
330
1E
100
AcDbEntity
  8
0
100
AcDbLine
 10
38.9
 20
37.4826835
 30
0.0
 11
39.0
 21
38.9826835
 31
0.0
  0
LINE
  5
A6
330
1E
100
AcDbEntity
  8
0
100
AcDbLine
 10
37.51339999999999
 20
33.1166835
 30
0.0
 11
38.1
 21
34.4826835
 31
0.0
  0
LINE
  5
A7
330
1E
100
AcDbEntity
  8
0
100
AcDbLine
 10
36.6441
 20
31.7403835
 30
0.0
 11
37.51339999999999
 21
33.1166835
 31
0.0
  0
LINE
  5
A8
330
1E
100
AcDbEntity
  8
0
100
AcDbLine
 10
35.5362
 20
30.3936835
 30
0.0
 11
36.6441
 21
31.7403835
 31
0.0
  0
LINE
  5
A9
330
1E
100
AcDbEntity
  8
0
100
AcDbLine
 10
34.2423
 20
29.3385835
 30
0.0
 11
35.5362
 21
30.3936835
 31
0.0
  0
LINE
  5
AA
330
1E
100
AcDbEntity
  8
0
100
AcDbLine
 10
39.0
 20
38.9826835
 30
0.0
 11
39.0
 21
100.3781753032789
 31
0.0
  0
LINE
  5
AB
330
1E
100
AcDbEntity
  8
0
100
AcDbLine
 10
33.0
 20
38.9826835
 30
0.0
 11
33.0
 21
97.2055095869566
 31
0.0
  0
LINE
  5
AC
330
1E
100
AcDbEntity
  8
0
100
AcDbLine
 10
39.152
 20
11.2236835
 30
0.0
 11
40.496
 21
13.97598349999999
 31
0.0
  0
LINE
  5
AD
330
1E
100
AcDbEntity
  8
0
100
AcDbLine
 10
40.496
 20
13.97598349999999
 30
0.0
 11
41.0
 21
16.9118835
 31
0.0
  0
LINE
  5
AE
330
1E
100
AcDbEntity
  8
0
100
AcDbLine
 10
39.1
 20
10.7349835
 30
0.0
 11
40.49999999999999
 21
13.52008349999999
 31
0.0
  0
LINE
  5
AF
330
1E
100
AcDbEntity
  8
0
100
AcDbLine
 10
41.0
 20
16.9118835
 30
0.0
 11
41.0
 21
18.6115835
 31
0.0
  0
LINE
  5
B0
330
1E
100
AcDbEntity
  8
0
100
AcDbLine
 10
41.0
 20
30.2826835
 30
0.0
 11
41.0
 21
33.5826835
 31
0.0
  0
LINE
  5
B1
330
1E
100
AcDbEntity
  8
0
100
AcDbLine
 10
41.0
 20
30.2826835
 30
0.0
 11
41.0
 21
26.9973835
 31
0.0
  0
LINE
  5
B2
330
1E
100
AcDbEntity
  8
0
100
AcDbLine
 10
41.0
 20
33.5826835
 30
0.0
 11
41.0
 21
36.9826835
 31
0.0
  0
LINE
  5
B3
330
1E
100
AcDbEntity
  8
0
100
AcDbLine
 10
41.0
 20
33.5826835
 30
0.0
 11
41.0
 21
30.2826835
 31
0.0
  0
LINE
  5
B4
330
1E
100
AcDbEntity
  8
0
100
AcDbLine
 10
41.0
 20
26.9973835
 30
0.0
 11
41.0
 21
23.8873835
 31
0.0
  0
LINE
  5
B5
330
1E
100
AcDbEntity
  8
0
100
AcDbLine
 10
41.0
 20
26.9973835
 30
0.0
 11
41.0
 21
30.2826835
 31
0.0
  0
LINE
  5
B6
330
1E
100
AcDbEntity
  8
0
100
AcDbLine
 10
41.0
 20
23.8873835
 30
0.0
 11
41.0
 21
21.20208349999999
 31
0.0
  0
LINE
  5
B7
330
1E
100
AcDbEntity
  8
0
100
AcDbLine
 10
41.0
 20
23.8873835
 30
0.0
 11
41.0
 21
26.9973835
 31
0.0
  0
LINE
  5
B8
330
1E
100
AcDbEntity
  8
0
100
AcDbLine
 10
41.0
 20
21.20208349999999
 30
0.0
 11
41.0
 21
18.6115835
 31
0.0
  0
LINE
  5
B9
330
1E
100
AcDbEntity
  8
0
100
AcDbLine
 10
41.0
 20
21.20208349999999
 30
0.0
 11
41.0
 21
23.8873835
 31
0.0
  0
LINE
  5
BA
330
1E
100
AcDbEntity
  8
0
100
AcDbLine
 10
41.0
 20
18.6115835
 30
0.0
 11
41.0
 21
21.20208349999999
 31
0.0
  0
LINE
  5
BB
330
1E
100
AcDbEntity
  8
0
100
AcDbLine
 10
41.0
 20
18.6115835
 30
0.0
 11
41.0
 21
16.9118835
 31
0.0
  0
LINE
  5
BC
330
1E
100
AcDbEntity
  8
0
100
AcDbLine
 10
40.96222809349519
 20
16.6918546501838
 30
0.0
 11
41.0
 21
16.4690835
 31
0.0
  0
LINE
  5
BD
330
1E
100
AcDbEntity
  8
0
100
AcDbLine
 10
40.96222809349519
 20
16.6918546501838
 30
0.0
 11
41.0
 21
16.4690835
 31
0.0
  0
LINE
  5
BE
330
1E
100
AcDbEntity
  8
0
100
AcDbLine
 10
41.0
 20
16.4690835
 30
0.0
 11
41.0
 21
11.4814835
 31
0.0
  0
LINE
  5
BF
330
1E
100
AcDbEntity
  8
0
100
AcDbLine
 10
41.0
 20
11.4814835
 30
0.0
 11
41.0
 21
16.4690835
 31
0.0
  0
LINE
  5
C0
330
1E
100
AcDbEntity
  8
0
100
AcDbLine
 10
40.49999999999999
 20
13.52008349999999
 30
0.0
 11
41.0
 21
16.4690835
 31
0.0
  0
LINE
  5
C1
330
1E
100
AcDbEntity
  8
0
100
AcDbLine
 10
40.49999999999999
 20
8.532503500000009
 30
0.0
 11
41.0
 21
11.4814835
 31
0.0
  0
LINE
  5
C2
330
1E
100
AcDbEntity
  8
0
100
AcDbLine
 10
41.0
 20
36.9826835
 30
0.0
 11
41.0
 21
101.564501681818
 31
0.0
  0
LINE
  5
C3
330
1E
100
AcDbEntity
  8
0
100
AcDbLine
 10
41.0
 20
36.9826835
 30
0.0
 11
41.0
 21
33.5826835
 31
0.0
  0
LINE
  5
C4
330
1E
100
AcDbEntity
  8
0
100
AcDbLine
 10
41.0
 20
94.60813804545459
 30
0.0
 11
45.7
 21
98.2826835
 31
0.0
  0
LINE
  5
C5
330
1E
100
AcDbEntity
  8
0
100
AcDbLine
 10
41.0
 20
94.0541120714286
 30
0.0
 11
46.0
 21
97.9826835
 31
0.0
  0
LINE
  5
C7
330
1E
100
AcDbEntity
  8
0
100
AcDbLine
 10
21.6
 20
96.78268349999999
 30
0.0
 11
27.0
 21
95.98268349999999
 31
0.0
  0
LINE
  5
C8
330
1E
100
AcDbEntity
  8
0
100
AcDbLine
 10
33.0
 20
97.2055095869566
 30
0.0
 11
33.0
 21
38.9826835
 31
0.0
  0
LINE
  5
C9
330
1E
100
AcDbEntity
  8
0
100
AcDbLine
 10
32.4
 20
96.78268349999999
 30
0.0
 11
33.0
 21
97.0226835
 31
0.0
  0
LINE
  5
CA
330
1E
100
AcDbEntity
  8
0
100
AcDbLine
 10
31.725
 20
97.1826835
 30
0.0
 11
36.825
 21
99.28268349999999
 31
0.0
  0
LINE
  5
CB
330
1E
100
AcDbEntity
  8
0
100
AcDbLine
 10
39.0
 20
100.3781753032789
 30
0.0
 11
39.0
 21
38.9826835
 31
0.0
  0
LINE
  5
CC
330
1E
100
AcDbEntity
  8
0
100
AcDbLine
 10
39.0
 20
100.019047136364
 30
0.0
 11
41.79999999999999
 21
102.1826834999999
 31
0.0
  0
LINE
  5
CD
330
1E
100
AcDbEntity
  8
0
100
AcDbLine
 10
36.825
 20
99.28268349999999
 30
0.0
 11
41.25
 21
102.7326834999999
 31
0.0
  0
LINE
  5
CE
330
1E
100
AcDbEntity
  8
0
100
AcDbLine
 10
41.0
 20
101.564501681818
 30
0.0
 11
41.0
 21
36.9826835
 31
0.0
  0
LINE
  5
CF
330
1E
100
AcDbEntity
  8
0
100
AcDbLine
 10
41.0
 20
100.876016833333
 30
0.0
 11
42.2
 21
101.7826834999999
 31
0.0
  0
LINE
  5
D0
330
1E
100
AcDbEntity
  8
0
100
AcDbLine
 10
41.79999999999999
 20
102.1826834999999
 30
0.0
 11
45.2
 21
106.5826834999999
 31
0.0
  0
LINE
  5
D1
330
1E
100
AcDbEntity
  8
0
100
AcDbLine
 10
42.2
 20
101.7826834999999
 30
0.0
 11
45.6
 21
106.2826834999999
 31
0.0
  0
LINE
  5
D2
330
1E
100
AcDbEntity
  8
0
100
AcDbLine
 10
45.7
 20
98.2826835
 30
0.0
 11
50.0
 21
103.7826834999999
 31
0.0
  0
LINE
  5
D3
330
1E
100
AcDbEntity
  8
0
100
AcDbLine
 10
46.0
 20
97.9826835
 30
0.0
 11
50.4
 21
103.5826834999999
 31
0.0
  0
LINE
  5
D6
330
1E
100
AcDbEntity
  8
0
100
AcDbLine
 10
22.275
 20
97.1826835
 30
0.0
 11
27.0
 21
96.43268349999999
 31
0.0
  0
LINE
  5
D9
330
1E
100
AcDbEntity
  8
0
100
AcDbLine
 10
21.0
 20
97.2055095869566
 30
0.0
 11
21.0
 21
38.9826835
 31
0.0
  0
LINE
  5
DA
330
1E
100
AcDbEntity
  8
0
100
AcDbLine
 10
41.25
 20
102.7326834999999
 30
0.0
 11
44.7
 21
107.1576834999999
 31
0.0
  0
LINE
  5
DB
330
1E
100
AcDbEntity
  8
0
100
AcDbLine
 10
18.1951
 20
103.2246835
 30
0.0
 11
18.4511
 21
103.2596834999999
 31
0.0
  0
LINE
  5
DC
330
1E
100
AcDbEntity
  8
0
100
AcDbLine
 10
18.4511
 20
103.2596834999999
 30
0.0
 11
18.6911
 21
103.3556834999999
 31
0.0
  0
LINE
  5
DD
330
1E
100
AcDbEntity
  8
0
100
AcDbLine
 10
18.6911
 20
103.3556834999999
 30
0.0
 11
18.90309999999999
 21
103.5156834999999
 31
0.0
  0
LINE
  5
DE
330
1E
100
AcDbEntity
  8
0
100
AcDbLine
 10
17.9391
 20
103.2596834999999
 30
0.0
 11
18.1951
 21
103.2246835
 31
0.0
  0
LINE
  5
DF
330
1E
100
AcDbEntity
  8
0
100
AcDbLine
 10
17.6991
 20
103.3556834999999
 30
0.0
 11
17.9391
 21
103.2596834999999
 31
0.0
  0
LINE
  5
E0
330
1E
100
AcDbEntity
  8
0
100
AcDbLine
 10
35.5489
 20
103.2596834999999
 30
0.0
 11
35.8049
 21
103.2246835
 31
0.0
  0
LINE
  5
E1
330
1E
100
AcDbEntity
  8
0
100
AcDbLine
 10
35.3089
 20
103.3556834999999
 30
0.0
 11
35.5489
 21
103.2596834999999
 31
0.0
  0
LINE
  5
E2
330
1E
100
AcDbEntity
  8
0
100
AcDbLine
 10
35.8049
 20
103.2246835
 30
0.0
 11
36.0609
 21
103.2596834999999
 31
0.0
  0
LINE
  5
E3
330
1E
100
AcDbEntity
  8
0
100
AcDbLine
 10
36.0609
 20
103.2596834999999
 30
0.0
 11
36.3009
 21
103.3556834999999
 31
0.0
  0
LINE
  5
E4
330
1E
100
AcDbEntity
  8
0
100
AcDbLine
 10
18.90309999999999
 20
103.5156834999999
 30
0.0
 11
19.06309999999999
 21
103.7276834999999
 31
0.0
  0
LINE
  5
E5
330
1E
100
AcDbEntity
  8
0
100
AcDbLine
 10
19.06309999999999
 20
103.7276834999999
 30
0.0
 11
19.1591
 21
103.9676834999999
 31
0.0
  0
LINE
  5
E6
330
1E
100
AcDbEntity
  8
0
100
AcDbLine
 10
17.4871
 20
103.5156834999999
 30
0.0
 11
17.6991
 21
103.3556834999999
 31
0.0
  0
LINE
  5
E7
330
1E
100
AcDbEntity
  8
0
100
AcDbLine
 10
17.3271
 20
103.7276834999999
 30
0.0
 11
17.4871
 21
103.5156834999999
 31
0.0
  0
LINE
  5
E8
330
1E
100
AcDbEntity
  8
0
100
AcDbLine
 10
35.09689999999999
 20
103.5156834999999
 30
0.0
 11
35.3089
 21
103.3556834999999
 31
0.0
  0
LINE
  5
E9
330
1E
100
AcDbEntity
  8
0
100
AcDbLine
 10
34.9369
 20
103.7276834999999
 30
0.0
 11
35.09689999999999
 21
103.5156834999999
 31
0.0
  0
LINE
  5
EA
330
1E
100
AcDbEntity
  8
0
100
AcDbLine
 10
36.3009
 20
103.3556834999999
 30
0.0
 11
36.5129
 21
103.5156834999999
 31
0.0
  0
LINE
  5
EB
330
1E
100
AcDbEntity
  8
0
100
AcDbLine
 10
36.5129
 20
103.5156834999999
 30
0.0
 11
36.67289999999999
 21
103.7276834999999
 31
0.0
  0
LINE
  5
EC
330
1E
100
AcDbEntity
  8
0
100
AcDbLine
 10
19.1591
 20
103.9676834999999
 30
0.0
 11
19.1951
 21
104.2226835
 31
0.0
  0
LINE
  5
ED
330
1E
100
AcDbEntity
  8
0
100
AcDbLine
 10
17.2311
 20
103.9676834999999
 30
0.0
 11
17.3271
 21
103.7276834999999
 31
0.0
  0
LINE
  5
EE
330
1E
100
AcDbEntity
  8
0
100
AcDbLine
 10
17.3271
 20
104.7176834999999
 30
0.0
 11
17.4871
 21
104.9296835
 31
0.0
  0
LINE
  5
EF
330
1E
100
AcDbEntity
  8
0
100
AcDbLine
 10
17.2311
 20
104.4786835
 30
0.0
 11
17.3271
 21
104.7176834999999
 31
0.0
  0
LINE
  5
F0
330
1E
100
AcDbEntity
  8
0
100
AcDbLine
 10
17.6991
 20
105.0896834999999
 30
0.0
 11
17.9391
 21
105.1856834999999
 31
0.0
  0
LINE
  5
F1
330
1E
100
AcDbEntity
  8
0
100
AcDbLine
 10
17.4871
 20
104.9296835
 30
0.0
 11
17.6991
 21
105.0896834999999
 31
0.0
  0
LINE
  5
F2
330
1E
100
AcDbEntity
  8
0
100
AcDbLine
 10
17.9391
 20
105.1856834999999
 30
0.0
 11
18.1951
 21
105.2216835
 31
0.0
  0
LINE
  5
F3
330
1E
100
AcDbEntity
  8
0
100
AcDbLine
 10
18.1951
 20
105.2216835
 30
0.0
 11
18.4511
 21
105.1856834999999
 31
0.0
  0
LINE
  5
F4
330
1E
100
AcDbEntity
  8
0
100
AcDbLine
 10
18.4511
 20
105.1856834999999
 30
0.0
 11
18.6911
 21
105.0896834999999
 31
0.0
  0
LINE
  5
F5
330
1E
100
AcDbEntity
  8
0
100
AcDbLine
 10
18.6911
 20
105.0896834999999
 30
0.0
 11
18.90309999999999
 21
104.9296835
 31
0.0
  0
LINE
  5
F6
330
1E
100
AcDbEntity
  8
0
100
AcDbLine
 10
18.90309999999999
 20
104.9296835
 30
0.0
 11
19.06309999999999
 21
104.7176834999999
 31
0.0
  0
LINE
  5
F7
330
1E
100
AcDbEntity
  8
0
100
AcDbLine
 10
19.06309999999999
 20
104.7176834999999
 30
0.0
 11
19.1591
 21
104.4786835
 31
0.0
  0
LINE
  5
F8
330
1E
100
AcDbEntity
  8
0
100
AcDbLine
 10
19.1591
 20
104.4786835
 30
0.0
 11
19.1951
 21
104.2226835
 31
0.0
  0
LINE
  5
F9
330
1E
100
AcDbEntity
  8
0
100
AcDbLine
 10
17.1951
 20
104.2226835
 30
0.0
 11
17.2311
 21
103.9676834999999
 31
0.0
  0
LINE
  5
FA
330
1E
100
AcDbEntity
  8
0
100
AcDbLine
 10
17.1951
 20
104.2226835
 30
0.0
 11
17.2311
 21
104.4786835
 31
0.0
  0
LINE
  5
FB
330
1E
100
AcDbEntity
  8
0
100
AcDbLine
 10
36.67289999999999
 20
104.7176834999999
 30
0.0
 11
36.7689
 21
104.4786835
 31
0.0
  0
LINE
  5
FC
330
1E
100
AcDbEntity
  8
0
100
AcDbLine
 10
36.7689
 20
104.4786835
 30
0.0
 11
36.8049
 21
104.2226835
 31
0.0
  0
LINE
  5
FD
330
1E
100
AcDbEntity
  8
0
100
AcDbLine
 10
36.3009
 20
105.0896834999999
 30
0.0
 11
36.5129
 21
104.9296835
 31
0.0
  0
LINE
  5
FE
330
1E
100
AcDbEntity
  8
0
100
AcDbLine
 10
36.5129
 20
104.9296835
 30
0.0
 11
36.67289999999999
 21
104.7176834999999
 31
0.0
  0
LINE
  5
FF
330
1E
100
AcDbEntity
  8
0
100
AcDbLine
 10
35.8049
 20
105.2216835
 30
0.0
 11
36.0609
 21
105.1856834999999
 31
0.0
  0
LINE
  5
100
330
1E
100
AcDbEntity
  8
0
100
AcDbLine
 10
36.0609
 20
105.1856834999999
 30
0.0
 11
36.3009
 21
105.0896834999999
 31
0.0
  0
LINE
  5
101
330
1E
100
AcDbEntity
  8
0
100
AcDbLine
 10
35.5489
 20
105.1856834999999
 30
0.0
 11
35.8049
 21
105.2216835
 31
0.0
  0
LINE
  5
102
330
1E
100
AcDbEntity
  8
0
100
AcDbLine
 10
35.3089
 20
105.0896834999999
 30
0.0
 11
35.5489
 21
105.1856834999999
 31
0.0
  0
LINE
  5
103
330
1E
100
AcDbEntity
  8
0
100
AcDbLine
 10
35.09689999999999
 20
104.9296835
 30
0.0
 11
35.3089
 21
105.0896834999999
 31
0.0
  0
LINE
  5
104
330
1E
100
AcDbEntity
  8
0
100
AcDbLine
 10
34.9369
 20
104.7176834999999
 30
0.0
 11
35.09689999999999
 21
104.9296835
 31
0.0
  0
LINE
  5
105
330
1E
100
AcDbEntity
  8
0
100
AcDbLine
 10
34.8409
 20
104.4786835
 30
0.0
 11
34.9369
 21
104.7176834999999
 31
0.0
  0
LINE
  5
106
330
1E
100
AcDbEntity
  8
0
100
AcDbLine
 10
34.8409
 20
103.9676834999999
 30
0.0
 11
34.9369
 21
103.7276834999999
 31
0.0
  0
LINE
  5
107
330
1E
100
AcDbEntity
  8
0
100
AcDbLine
 10
34.8049
 20
104.2226835
 30
0.0
 11
34.8409
 21
103.9676834999999
 31
0.0
  0
LINE
  5
108
330
1E
100
AcDbEntity
  8
0
100
AcDbLine
 10
34.8049
 20
104.2226835
 30
0.0
 11
34.8409
 21
104.4786835
 31
0.0
  0
LINE
  5
109
330
1E
100
AcDbEntity
  8
0
100
AcDbLine
 10
36.67289999999999
 20
103.7276834999999
 30
0.0
 11
36.7689
 21
103.9676834999999
 31
0.0
  0
LINE
  5
10A
330
1E
100
AcDbEntity
  8
0
100
AcDbLine
 10
36.7689
 20
103.9676834999999
 30
0.0
 11
36.8049
 21
104.2226835
 31
0.0
  0
LINE
  5
10B
330
1E
100
AcDbEntity
  8
0
100
AcDbLine
 10
45.2
 20
106.5826834999999
 30
0.0
 11
47.2
 21
111.5826835
 31
0.0
  0
LINE
  5
10C
330
1E
100
AcDbEntity
  8
0
100
AcDbLine
 10
45.2
 20
106.5826834999999
 30
0.0
 11
47.2
 21
111.5826835
 31
0.0
  0
LINE
  5
10D
330
1E
100
AcDbEntity
  8
0
100
AcDbLine
 10
45.6
 20
106.2826834999999
 30
0.0
 11
47.7
 21
111.4826834999999
 31
0.0
  0
LINE
  5
10E
330
1E
100
AcDbEntity
  8
0
100
AcDbLine
 10
47.2
 20
111.5826835
 30
0.0
 11
48.0
 21
116.9826835
 31
0.0
  0
LINE
  5
10F
330
1E
100
AcDbEntity
  8
0
100
AcDbLine
 10
44.7
 20
107.1576834999999
 30
0.0
 11
46.79999999999999
 21
112.2576835
 31
0.0
  0
LINE
  5
111
330
1E
100
AcDbEntity
  8
0
100
AcDbLine
 10
50.0
 20
103.7826834999999
 30
0.0
 11
52.5
 21
110.1826835
 31
0.0
  0
LINE
  5
112
330
1E
100
AcDbEntity
  8
0
100
AcDbLine
 10
47.7
 20
111.4826834999999
 30
0.0
 11
48.5
 21
116.9826835
 31
0.0
  0
LINE
  5
113
330
1E
100
AcDbEntity
  8
0
100
AcDbLine
 10
52.5
 20
110.1826835
 30
0.0
 11
53.5
 21
116.9826835
 31
0.0
  0
LINE
  5
114
330
1E
100
AcDbEntity
  8
0
100
AcDbLine
 10
53.0
 20
110.0826835
 30
0.0
 11
54.0
 21
116.9826835
 31
0.0
  0
LINE
  5
115
330
1E
100
AcDbEntity
  8
0
100
AcDbLine
 10
50.4
 20
103.5826834999999
 30
0.0
 11
53.0
 21
110.0826835
 31
0.0
  0
LINE
  5
117
330
1E
100
AcDbEntity
  8
0
100
AcDbLine
 10
12.75
 20
102.7326834999999
 30
0.0
 11
17.175
 21
99.28268349999999
 31
0.0
  0
LINE
  5
118
330
1E
100
AcDbEntity
  8
0
100
AcDbLine
 10
9.3
 20
107.1576834999999
 30
0.0
 11
12.75
 21
102.7326834999999
 31
0.0
  0
LINE
  5
11B
330
1E
100
AcDbEntity
  8
0
100
AcDbLine
 10
6.299999999999999
 20
122.4826835
 30
0.0
 11
8.4
 21
127.6826835
 31
0.0
  0
LINE
  5
11C
330
1E
100
AcDbEntity
  8
0
100
AcDbLine
 10
46.79999999999999
 20
112.2576835
 30
0.0
 11
47.54999999999999
 21
116.9826835
 31
0.0
  0
LINE
  5
11D
330
1E
100
AcDbEntity
  8
0
100
AcDbLine
 10
6.799999999999999
 20
122.3826835
 30
0.0
 11
8.8
 21
127.3826834999999
 31
0.0
  0
LINE
  5
11E
330
1E
100
AcDbEntity
  8
0
100
AcDbLine
 10
47.2
 20
122.3826835
 30
0.0
 11
48.0
 21
116.9826835
 31
0.0
  0
LINE
  5
11F
330
1E
100
AcDbEntity
  8
0
100
AcDbLine
 10
44.7
 20
126.8076835
 30
0.0
 11
46.79999999999999
 21
121.7076835
 31
0.0
  0
LINE
  5
120
330
1E
100
AcDbEntity
  8
0
100
AcDbLine
 10
46.79999999999999
 20
121.7076835
 30
0.0
 11
47.54999999999999
 21
116.9826835
 31
0.0
  0
LINE
  5
121
330
1E
100
AcDbEntity
  8
0
100
AcDbLine
 10
47.7
 20
122.4826835
 30
0.0
 11
48.5
 21
116.9826835
 31
0.0
  0
LINE
  5
122
330
1E
100
AcDbEntity
  8
0
100
AcDbLine
 10
52.5
 20
123.7826834999999
 30
0.0
 11
53.5
 21
116.9826835
 31
0.0
  0
LINE
  5
123
330
1E
100
AcDbEntity
  8
0
100
AcDbLine
 10
53.0
 20
123.8826835
 30
0.0
 11
54.0
 21
116.9826835
 31
0.0
  0
LINE
  5
126
330
1E
100
AcDbEntity
  8
0
100
AcDbLine
 10
9.3
 20
126.8076835
 30
0.0
 11
12.75
 21
131.2326835
 31
0.0
  0
LINE
  5
127
330
1E
100
AcDbEntity
  8
0
100
AcDbLine
 10
7.2
 20
121.7076835
 30
0.0
 11
9.3
 21
126.8076835
 31
0.0
  0
LINE
  5
128
330
1E
100
AcDbEntity
  8
0
100
AcDbLine
 10
8.8
 20
127.3826834999999
 30
0.0
 11
12.19999999999999
 21
131.7826834999999
 31
0.0
  0
LINE
  5
129
330
1E
100
AcDbEntity
  8
0
100
AcDbLine
 10
8.8
 20
127.3826834999999
 30
0.0
 11
12.19999999999999
 21
131.7826834999999
 31
0.0
  0
LINE
  5
12A
330
1E
100
AcDbEntity
  8
0
100
AcDbLine
 10
12.19999999999999
 20
131.7826834999999
 30
0.0
 11
16.6
 21
135.1826835
 31
0.0
  0
LINE
  5
12B
330
1E
100
AcDbEntity
  8
0
100
AcDbLine
 10
11.8
 20
132.1826834999999
 30
0.0
 11
16.3
 21
135.5826835
 31
0.0
  0
LINE
  5
12C
330
1E
100
AcDbEntity
  8
0
100
AcDbLine
 10
8.4
 20
127.6826835
 30
0.0
 11
11.8
 21
132.1826834999999
 31
0.0
  0
LINE
  5
12D
330
1E
100
AcDbEntity
  8
0
100
AcDbLine
 10
8.3
 20
135.6826834999999
 30
0.0
 11
13.8
 21
139.9826835
 31
0.0
  0
LINE
  5
12E
330
1E
100
AcDbEntity
  8
0
100
AcDbLine
 10
8.0
 20
135.9826835
 30
0.0
 11
13.6
 21
140.3826834999999
 31
0.0
  0
LINE
  5
12F
330
1E
100
AcDbEntity
  8
0
100
AcDbLine
 10
36.825
 20
134.6826834999999
 30
0.0
 11
41.25
 21
131.2326835
 31
0.0
  0
LINE
  5
130
330
1E
100
AcDbEntity
  8
0
100
AcDbLine
 10
41.25
 20
131.2326835
 30
0.0
 11
44.7
 21
126.8076835
 31
0.0
  0
LINE
  5
131
330
1E
100
AcDbEntity
  8
0
100
AcDbLine
 10
45.6
 20
127.6826835
 30
0.0
 11
47.7
 21
122.4826835
 31
0.0
  0
LINE
  5
132
330
1E
100
AcDbEntity
  8
0
100
AcDbLine
 10
50.0
 20
130.1826834999999
 30
0.0
 11
52.5
 21
123.7826834999999
 31
0.0
  0
LINE
  5
133
330
1E
100
AcDbEntity
  8
0
100
AcDbLine
 10
42.2
 20
132.1826834999999
 30
0.0
 11
45.6
 21
127.6826835
 31
0.0
  0
LINE
  5
134
330
1E
100
AcDbEntity
  8
0
100
AcDbLine
 10
50.4
 20
130.3826834999999
 30
0.0
 11
53.0
 21
123.8826835
 31
0.0
  0
LINE
  5
135
330
1E
100
AcDbEntity
  8
0
100
AcDbLine
 10
41.79999999999999
 20
131.7826834999999
 30
0.0
 11
45.2
 21
127.3826834999999
 31
0.0
  0
LINE
  5
136
330
1E
100
AcDbEntity
  8
0
100
AcDbLine
 10
45.2
 20
127.3826834999999
 30
0.0
 11
47.2
 21
122.3826835
 31
0.0
  0
LINE
  5
139
330
1E
100
AcDbEntity
  8
0
100
AcDbLine
 10
17.175
 20
134.6826834999999
 30
0.0
 11
22.275
 21
136.7826835
 31
0.0
  0
LINE
  5
13A
330
1E
100
AcDbEntity
  8
0
100
AcDbLine
 10
12.75
 20
131.2326835
 30
0.0
 11
17.175
 21
134.6826834999999
 31
0.0
  0
LINE
  5
13B
330
1E
100
AcDbEntity
  8
0
100
AcDbLine
 10
16.6
 20
135.1826835
 30
0.0
 11
21.6
 21
137.1826835
 31
0.0
  0
LINE
  5
13C
330
1E
100
AcDbEntity
  8
0
100
AcDbLine
 10
21.6
 20
137.1826835
 30
0.0
 11
27.0
 21
137.9826835
 31
0.0
  0
LINE
  5
13D
330
1E
100
AcDbEntity
  8
0
100
AcDbLine
 10
21.49999999999999
 20
137.6826834999999
 30
0.0
 11
24.5079337761168
 21
138.1202011401619
 31
0.0
  0
LINE
  5
13E
330
1E
100
AcDbEntity
  8
0
100
AcDbLine
 10
21.49999999999999
 20
137.6826834999999
 30
0.0
 11
24.5079337761168
 21
138.1202011401619
 31
0.0
  0
LINE
  5
13F
330
1E
100
AcDbEntity
  8
0
100
AcDbLine
 10
16.3
 20
135.5826835
 30
0.0
 11
21.49999999999999
 21
137.6826834999999
 31
0.0
  0
LINE
  5
140
330
1E
100
AcDbEntity
  8
0
100
AcDbLine
 10
13.8
 20
139.9826835
 30
0.0
 11
20.2
 21
142.4826835
 31
0.0
  0
LINE
  5
141
330
1E
100
AcDbEntity
  8
0
100
AcDbLine
 10
20.2
 20
142.4826835
 30
0.0
 11
24.5000212932926
 21
143.1150395725429
 31
0.0
  0
LINE
  5
142
330
1E
100
AcDbEntity
  8
0
100
AcDbLine
 10
20.1
 20
142.9826835
 30
0.0
 11
24.5001788976378
 21
143.620390586614
 31
0.0
  0
LINE
  5
143
330
1E
100
AcDbEntity
  8
0
100
AcDbLine
 10
13.6
 20
140.3826834999999
 30
0.0
 11
20.1
 21
142.9826835
 31
0.0
  0
LINE
  5
144
330
1E
100
AcDbEntity
  8
0
100
AcDbLine
 10
37.7
 20
135.5826835
 30
0.0
 11
42.2
 21
132.1826834999999
 31
0.0
  0
LINE
  5
145
330
1E
100
AcDbEntity
  8
0
100
AcDbLine
 10
45.7
 20
135.6826834999999
 30
0.0
 11
50.0
 21
130.1826834999999
 31
0.0
  0
LINE
  5
146
330
1E
100
AcDbEntity
  8
0
100
AcDbLine
 10
46.0
 20
135.9826835
 30
0.0
 11
50.4
 21
130.3826834999999
 31
0.0
  0
LINE
  5
147
330
1E
100
AcDbEntity
  8
0
100
AcDbLine
 10
37.4
 20
135.1826835
 30
0.0
 11
41.79999999999999
 21
131.7826834999999
 31
0.0
  0
LINE
  5
148
330
1E
100
AcDbEntity
  8
0
100
AcDbLine
 10
31.725
 20
136.7826835
 30
0.0
 11
36.825
 21
134.6826834999999
 31
0.0
  0
LINE
  5
149
330
1E
100
AcDbEntity
  8
0
100
AcDbLine
 10
27.0
 20
137.5326834999999
 30
0.0
 11
31.725
 21
136.7826835
 31
0.0
  0
LINE
  5
14A
330
1E
100
AcDbEntity
  8
0
100
AcDbLine
 10
24.68949999999999
 20
140.9926835
 30
0.0
 11
25.2303
 21
140.2906835
 31
0.0
  0
LINE
  5
14B
330
1E
100
AcDbEntity
  8
0
100
AcDbLine
 10
26.0405
 20
139.8206835
 30
0.0
 11
26.99699999999999
 21
139.6546835
 31
0.0
  0
LINE
  5
14C
330
1E
100
AcDbEntity
  8
0
100
AcDbLine
 10
26.99699999999999
 20
139.6546835
 30
0.0
 11
27.954
 21
139.8186834999999
 31
0.0
  0
LINE
  5
14D
330
1E
100
AcDbEntity
  8
0
100
AcDbLine
 10
27.954
 20
139.8186834999999
 30
0.0
 11
28.7658
 21
140.2876834999999
 31
0.0
  0
LINE
  5
14E
330
1E
100
AcDbEntity
  8
0
100
AcDbLine
 10
28.7658
 20
140.2696834999999
 30
0.0
 11
29.3089
 21
140.9716834999999
 31
0.0
  0
LINE
  5
14F
330
1E
100
AcDbEntity
  8
0
100
AcDbLine
 10
27.9539
 20
139.8006834999999
 30
0.0
 11
28.7658
 21
140.2696834999999
 31
0.0
  0
LINE
  5
150
330
1E
100
AcDbEntity
  8
0
100
AcDbLine
 10
26.9969
 20
139.6366835
 30
0.0
 11
27.9539
 21
139.8006834999999
 31
0.0
  0
LINE
  5
151
330
1E
100
AcDbEntity
  8
0
100
AcDbLine
 10
26.0405
 20
139.8026835
 30
0.0
 11
26.9969
 21
139.6366835
 31
0.0
  0
LINE
  5
152
330
1E
100
AcDbEntity
  8
0
100
AcDbLine
 10
28.7658
 20
140.2876834999999
 30
0.0
 11
29.309
 21
140.9896834999999
 31
0.0
  0
LINE
  5
153
330
1E
100
AcDbEntity
  8
0
100
AcDbLine
 10
25.2303
 20
140.2906835
 30
0.0
 11
26.0405
 21
139.8206835
 31
0.0
  0
LINE
  5
154
330
1E
100
AcDbEntity
  8
0
100
AcDbLine
 10
29.309
 20
140.9896834999999
 30
0.0
 11
29.5007
 21
141.8176834999999
 31
0.0
  0
LINE
  5
155
330
1E
100
AcDbEntity
  8
0
100
AcDbLine
 10
29.3089
 20
140.9716834999999
 30
0.0
 11
29.5007
 21
141.8006834999999
 31
0.0
  0
LINE
  5
156
330
1E
100
AcDbEntity
  8
0
100
AcDbLine
 10
25.2303
 20
140.2726834999999
 30
0.0
 11
26.0405
 21
139.8026835
 31
0.0
  0
LINE
  5
157
330
1E
100
AcDbEntity
  8
0
100
AcDbLine
 10
24.68949999999999
 20
140.9756835
 30
0.0
 11
25.2303
 21
140.2726834999999
 31
0.0
  0
LINE
  5
158
330
1E
100
AcDbEntity
  8
0
100
AcDbLine
 10
24.5
 20
143.0136834999999
 30
0.0
 11
24.5
 21
142.5756835
 31
0.0
  0
LINE
  5
159
330
1E
100
AcDbEntity
  8
0
100
AcDbLine
 10
24.5
 20
143.0136834999999
 30
0.0
 11
24.5001
 21
143.4896834999999
 31
0.0
  0
LINE
  5
15A
330
1E
100
AcDbEntity
  8
0
100
AcDbLine
 10
24.5
 20
142.5756835
 30
0.0
 11
24.5002
 21
142.1936834999999
 31
0.0
  0
LINE
  5
15B
330
1E
100
AcDbEntity
  8
0
100
AcDbLine
 10
24.5
 20
142.5756835
 30
0.0
 11
24.5
 21
143.0136834999999
 31
0.0
  0
LINE
  5
15C
330
1E
100
AcDbEntity
  8
0
100
AcDbLine
 10
24.5002
 20
142.1936834999999
 30
0.0
 11
24.5007
 21
141.8216835
 31
0.0
  0
LINE
  5
15D
330
1E
100
AcDbEntity
  8
0
100
AcDbLine
 10
24.5007
 20
141.8216835
 30
0.0
 11
24.68949999999999
 21
140.9926835
 31
0.0
  0
LINE
  5
15E
330
1E
100
AcDbEntity
  8
0
100
AcDbLine
 10
24.5007
 20
141.8046835
 30
0.0
 11
24.5089283201491
 21
137.613635843726
 31
0.0
  0
LINE
  5
15F
330
1E
100
AcDbEntity
  8
0
100
AcDbLine
 10
24.5007
 20
141.8046835
 30
0.0
 11
24.68949999999999
 21
140.9756835
 31
0.0
  0
LINE
  5
160
330
1E
100
AcDbEntity
  8
0
100
AcDbLine
 10
29.5
 20
143.0096835
 30
0.0
 11
29.5
 21
142.5716835
 31
0.0
  0
LINE
  5
161
330
1E
100
AcDbEntity
  8
0
100
AcDbLine
 10
29.5
 20
143.0096835
 30
0.0
 11
29.5001
 21
143.4856834999999
 31
0.0
  0
LINE
  5
162
330
1E
100
AcDbEntity
  8
0
100
AcDbLine
 10
29.5
 20
142.5716835
 30
0.0
 11
29.5002
 21
142.1896835
 31
0.0
  0
LINE
  5
163
330
1E
100
AcDbEntity
  8
0
100
AcDbLine
 10
29.5
 20
142.5716835
 30
0.0
 11
29.5
 21
143.0096835
 31
0.0
  0
LINE
  5
164
330
1E
100
AcDbEntity
  8
0
100
AcDbLine
 10
24.50039999999999
 20
143.9866834999999
 30
0.0
 11
24.5124
 21
153.9866834999999
 31
0.0
  0
LINE
  5
165
330
1E
100
AcDbEntity
  8
0
100
AcDbLine
 10
24.5124
 20
153.9866834999999
 30
0.0
 11
24.7011
 21
153.9866834999999
 31
0.0
  0
LINE
  5
166
330
1E
100
AcDbEntity
  8
0
100
AcDbLine
 10
25.24739999999999
 20
153.9866834999999
 30
0.0
 11
26.0593
 21
153.9856834999999
 31
0.0
  0
LINE
  5
167
330
1E
100
AcDbEntity
  8
0
100
AcDbLine
 10
24.7011
 20
153.9866834999999
 30
0.0
 11
25.2418
 21
153.9866834999999
 31
0.0
  0
LINE
  5
168
330
1E
100
AcDbEntity
  8
0
100
AcDbLine
 10
25.2418
 20
153.9866834999999
 30
0.0
 11
26.0519
 21
153.9856834999999
 31
0.0
  0
LINE
  5
169
330
1E
100
AcDbEntity
  8
0
100
AcDbLine
 10
27.0084
 20
153.9846834999999
 30
0.0
 11
27.9654
 21
153.9836834999999
 31
0.0
  0
LINE
  5
16A
330
1E
100
AcDbEntity
  8
0
100
AcDbLine
 10
27.9654
 20
153.9836834999999
 30
0.0
 11
28.7773
 21
153.9836834999999
 31
0.0
  0
LINE
  5
16B
330
1E
100
AcDbEntity
  8
0
100
AcDbLine
 10
29.32059999999999
 20
153.9826835
 30
0.0
 11
29.5124
 21
153.9826835
 31
0.0
  0
LINE
  5
16C
330
1E
100
AcDbEntity
  8
0
100
AcDbLine
 10
28.7829
 20
153.9836834999999
 30
0.0
 11
29.3236
 21
153.9826835
 31
0.0
  0
LINE
  5
16D
330
1E
100
AcDbEntity
  8
0
100
AcDbLine
 10
28.7773
 20
153.9836834999999
 30
0.0
 11
29.32059999999999
 21
153.9826835
 31
0.0
  0
LINE
  5
16E
330
1E
100
AcDbEntity
  8
0
100
AcDbLine
 10
27.0163
 20
153.9846834999999
 30
0.0
 11
27.9728
 21
153.9836834999999
 31
0.0
  0
LINE
  5
16F
330
1E
100
AcDbEntity
  8
0
100
AcDbLine
 10
26.0593
 20
153.9856834999999
 30
0.0
 11
27.0163
 21
153.9846834999999
 31
0.0
  0
LINE
  5
170
330
1E
100
AcDbEntity
  8
0
100
AcDbLine
 10
26.0519
 20
153.9856834999999
 30
0.0
 11
27.0084
 21
153.9846834999999
 31
0.0
  0
LINE
  5
171
330
1E
100
AcDbEntity
  8
0
100
AcDbLine
 10
26.0519
 20
153.9856834999999
 30
0.0
 11
28.7773
 21
153.9836834999999
 31
0.0
  0
LINE
  5
172
330
1E
100
AcDbEntity
  8
0
100
AcDbLine
 10
29.5001
 20
143.4856834999999
 30
0.0
 11
29.50039999999999
 21
143.9826835
 31
0.0
  0
LINE
  5
173
330
1E
100
AcDbEntity
  8
0
100
AcDbLine
 10
24.5001
 20
143.4896834999999
 30
0.0
 11
24.50039999999999
 21
143.9866834999999
 31
0.0
  0
LINE
  5
174
330
1E
100
AcDbEntity
  8
0
100
AcDbLine
 10
29.5000221322871
 20
143.115033186428
 30
0.0
 11
33.79999999999999
 21
142.4826835
 31
0.0
  0
LINE
  5
175
330
1E
100
AcDbEntity
  8
0
100
AcDbLine
 10
29.50039999999999
 20
143.9826835
 30
0.0
 11
29.5124
 21
153.9826835
 31
0.0
  0
LINE
  5
176
330
1E
100
AcDbEntity
  8
0
100
AcDbLine
 10
29.5002
 20
142.1896835
 30
0.0
 11
29.5007
 21
141.8176834999999
 31
0.0
  0
LINE
  5
177
330
1E
100
AcDbEntity
  8
0
100
AcDbLine
 10
29.5007
 20
141.8006834999999
 30
0.0
 11
29.50895605897619
 21
137.6109863060779
 31
0.0
  0
LINE
  5
178
330
1E
100
AcDbEntity
  8
0
100
AcDbLine
 10
29.5007
 20
141.8006834999999
 30
0.0
 11
29.50895605897619
 21
137.6109863060779
 31
0.0
  0
LINE
  5
179
330
1E
100
AcDbEntity
  8
0
100
AcDbLine
 10
29.50795717424469
 20
138.1178897292009
 30
0.0
 11
32.5
 21
137.6826834999999
 31
0.0
  0
LINE
  5
17A
330
1E
100
AcDbEntity
  8
0
100
AcDbLine
 10
29.5001812806158
 20
143.620338386867
 30
0.0
 11
33.9
 21
142.9826835
 31
0.0
  0
LINE
  5
17C
330
1E
100
AcDbEntity
  8
0
100
AcDbLine
 10
27.0
 20
137.9826835
 30
0.0
 11
32.4
 21
137.1826835
 31
0.0
  0
LINE
  5
17D
330
1E
100
AcDbEntity
  8
0
100
AcDbLine
 10
32.5
 20
137.6826834999999
 30
0.0
 11
37.7
 21
135.5826835
 31
0.0
  0
LINE
  5
17E
330
1E
100
AcDbEntity
  8
0
100
AcDbLine
 10
33.79999999999999
 20
142.4826835
 30
0.0
 11
40.2
 21
139.9826835
 31
0.0
  0
LINE
  5
17F
330
1E
100
AcDbEntity
  8
0
100
AcDbLine
 10
40.2
 20
139.9826835
 30
0.0
 11
45.7
 21
135.6826834999999
 31
0.0
  0
LINE
  5
180
330
1E
100
AcDbEntity
  8
0
100
AcDbLine
 10
33.9
 20
142.9826835
 30
0.0
 11
40.4
 21
140.3826834999999
 31
0.0
  0
LINE
  5
181
330
1E
100
AcDbEntity
  8
0
100
AcDbLine
 10
40.4
 20
140.3826834999999
 30
0.0
 11
46.0
 21
135.9826835
 31
0.0
  0
LINE
  5
182
330
1E
100
AcDbEntity
  8
0
100
AcDbLine
 10
32.4
 20
137.1826835
 30
0.0
 11
37.4
 21
135.1826835
 31
0.0
  0
LINE
  5
184
330
1E
100
AcDbEntity
  8
0
100
AcDbLine
 10
22.275
 20
136.7826835
 30
0.0
 11
27.0
 21
137.5326834999999
 31
0.0
  0
LINE
  5
18A
330
1E
100
AcDbEntity
  8
0
100
AcDbLine
 10
7.2
 20
112.2576835
 30
0.0
 11
9.3
 21
107.1576834999999
 31
0.0
  0
LINE
  5
18B
330
1E
100
AcDbEntity
  8
0
100
AcDbLine
 10
6.45
 20
116.9826835
 30
0.0
 11
7.2
 21
112.2576835
 31
0.0
  0
LINE
  5
18C
330
1E
100
AcDbEntity
  8
0
100
AcDbLine
 10
6.45
 20
116.9826835
 30
0.0
 11
7.2
 21
121.7076835
 31
0.0
  0
LINE
  5
190
330
1E
100
AcDbEntity
  8
0
100
AcDbLine
 10
6.0
 20
116.9826835
 30
0.0
 11
6.799999999999999
 21
111.5826835
 31
0.0
  0
LINE
  5
191
330
1E
100
AcDbEntity
  8
0
100
AcDbLine
 10
6.0
 20
116.9826835
 30
0.0
 11
6.799999999999999
 21
122.3826835
 31
0.0
  0
ENDSEC
  0
SECTION
  2
OBJECTS
  0
DICTIONARY
  5
C
330
0
100
AcDbDictionary
  3
ACAD_GROUP
350
D
  3
ACAD_LAYOUT
350
19
  3
ACAD_MLINESTYLE
350
16
  3
ACAD_PLOTSETTINGS
350
18
  3
ACAD_PLOTSTYLENAME
350
E
  3
ACDBHEADERROUNDTRIPXREC
350
199
  3
ACDBVARIABLEDICTIONARY
350
196
  0
DICTIONARY
  5
1BB
330
1E
100
AcDbDictionary
280
     1
  3
ACAD_LAYOUTSELFREF
360
1BC
  0
DICTIONARY
  5
1B9
330
1A
100
AcDbDictionary
280
     1
  3
ACAD_LAYOUTSELFREF
360
1BA
  0
DICTIONARY
  5
D
102
{ACAD_REACTORS
330
C
102
}
330
C
100
AcDbDictionary
  0
DICTIONARY
  5
19
102
{ACAD_REACTORS
330
C
102
}
330
C
100
AcDbDictionary
  0
DICTIONARY
  5
16
102
{ACAD_REACTORS
330
C
102
}
330
C
100
AcDbDictionary
  3
STANDARD
350
17
  0
DICTIONARY
  5
18
102
{ACAD_REACTORS
330
C
102
}
330
C
100
AcDbDictionary
  0
ACDBDICTIONARYWDFLT
  5
E
102
{ACAD_REACTORS
330
C
102
}
330
C
100
AcDbDictionary
281
     1
  3
Normal
350
F
100
AcDbDictionaryWithDefault
340
F
  0
DICTIONARY
  5
199
102
{ACAD_REACTORS
330
C
102
}
330
C
100
AcDbDictionary
  3
CEPSNTYPE
350
1A3
  3
FINGERPRINTGUID
350
1A4
  3
HYPERLINKBASE
350
19C
  3
INSUNITS
350
1A2
  3
LAYOUTDICT
350
19E
  3
LWETCUNION
350
1A1
  3
PLOTSETDICT
350
19F
  3
PLOTSTYLNAMDICT
350
1A0
  3
PSVPSCALE
350
1A6
  3
PUCSBASE
350
1A9
  3
PUCSORGBACK
350
1AF
  3
PUCSORGBOTTOM
350
1AB
  3
PUCSORGFRONT
350
1AE
  3
PUCSORGLEFT
350
1AC
  3
PUCSORGRIGHT
350
1AD
  3
PUCSORGTOP
350
1AA
  3
PUCSORTHOREF
350
1A7
  3
PUCSORTHOVIEW
350
1A8
  3
STYLESHEET
350
19D
  3
TSTACKALIGN
350
19A
  3
TSTACKSIZE
350
19B
  3
UCSBASE
350
1B2
  3
UCSORGBACK
350
1B8
  3
UCSORGBOTTOM
350
1B4
  3
UCSORGFRONT
350
1B7
  3
UCSORGLEFT
350
1B5
  3
UCSORGRIGHT
350
1B6
  3
UCSORGTOP
350
1B3
  3
UCSORTHOREF
350
1B0
  3
UCSORTHOVIEW
350
1B1
  3
VERSIONGUID
350
1A5
  0
DICTIONARY
  5
196
102
{ACAD_REACTORS
330
C
102
}
330
C
100
AcDbDictionary
  3
DIMASSOC
350
197
  0
XRECORD
  5
1BC
102
{ACAD_REACTORS
330
1BB
102
}
330
1BB
100
AcDbXrecord
340
1E
  0
XRECORD
  5
1BA
102
{ACAD_REACTORS
330
1B9
102
}
330
1B9
100
AcDbXrecord
340
1A
  0
MLINESTYLE
  5
17
102
{ACAD_REACTORS
330
16
102
}
330
16
100
AcDbMlineStyle
  2
STANDARD
 70
     0
  3

 62
   256
 51
90.0
 52
90.0
 71
     2
 49
0.5
 62
   256
  6
BYLAYER
 49
-0.5
 62
   256
  6
BYLAYER
  0
ACDBPLACEHOLDER
  5
F
102
{ACAD_REACTORS
330
E
102
}
330
E
100
AcDbPlaceHolder
280
     0
  0
XRECORD
  5
1A3
102
{ACAD_REACTORS
330
199
102
}
330
199
100
AcDbXrecord
 90
        0
  0
XRECORD
  5
1A4
102
{ACAD_REACTORS
330
199
102
}
330
199
100
AcDbXrecord
  1
{7BD5EB39-A01F-4578-9B95-00ACD1CE13F1}
  0
XRECORD
  5
19C
102
{ACAD_REACTORS
330
199
102
}
330
199
100
AcDbXrecord
  1

  0
XRECORD
  5
1A2
102
{ACAD_REACTORS
330
199
102
}
330
199
100
AcDbXrecord
 90
        0
  0
XRECORD
  5
19E
102
{ACAD_REACTORS
330
199
102
}
330
199
100
AcDbXrecord
340
19
  0
XRECORD
  5
1A1
102
{ACAD_REACTORS
330
199
102
}
330
199
100
AcDbXrecord
 90
    10781
  0
XRECORD
  5
19F
102
{ACAD_REACTORS
330
199
102
}
330
199
100
AcDbXrecord
340
18
  0
XRECORD
  5
1A0
102
{ACAD_REACTORS
330
199
102
}
330
199
100
AcDbXrecord
340
E
  0
XRECORD
  5
1A6
102
{ACAD_REACTORS
330
199
102
}
330
199
100
AcDbXrecord
 40
0.0
  0
XRECORD
  5
1A9
102
{ACAD_REACTORS
330
199
102
}
330
199
100
AcDbXrecord
340
0
  0
XRECORD
  5
1AF
102
{ACAD_REACTORS
330
199
102
}
330
199
100
AcDbXrecord
 10
0.0
 20
0.0
 30
0.0
  0
XRECORD
  5
1AB
102
{ACAD_REACTORS
330
199
102
}
330
199
100
AcDbXrecord
 10
0.0
 20
0.0
 30
0.0
  0
XRECORD
  5
1AE
102
{ACAD_REACTORS
330
199
102
}
330
199
100
AcDbXrecord
 10
0.0
 20
0.0
 30
0.0
  0
XRECORD
  5
1AC
102
{ACAD_REACTORS
330
199
102
}
330
199
100
AcDbXrecord
 10
0.0
 20
0.0
 30
0.0
  0
XRECORD
  5
1AD
102
{ACAD_REACTORS
330
199
102
}
330
199
100
AcDbXrecord
 10
0.0
 20
0.0
 30
0.0
  0
XRECORD
  5
1AA
102
{ACAD_REACTORS
330
199
102
}
330
199
100
AcDbXrecord
 10
0.0
 20
0.0
 30
0.0
  0
XRECORD
  5
1A7
102
{ACAD_REACTORS
330
199
102
}
330
199
100
AcDbXrecord
340
0
  0
XRECORD
  5
1A8
102
{ACAD_REACTORS
330
199
102
}
330
199
100
AcDbXrecord
 70
     0
  0
XRECORD
  5
19D
102
{ACAD_REACTORS
330
199
102
}
330
199
100
AcDbXrecord
  1

  0
XRECORD
  5
19A
102
{ACAD_REACTORS
330
199
102
}
330
199
100
AcDbXrecord
 90
        1
  0
XRECORD
  5
19B
102
{ACAD_REACTORS
330
199
102
}
330
199
100
AcDbXrecord
 90
       70
  0
XRECORD
  5
1B2
102
{ACAD_REACTORS
330
199
102
}
330
199
100
AcDbXrecord
340
0
  0
XRECORD
  5
1B8
102
{ACAD_REACTORS
330
199
102
}
330
199
100
AcDbXrecord
 10
0.0
 20
0.0
 30
0.0
  0
XRECORD
  5
1B4
102
{ACAD_REACTORS
330
199
102
}
330
199
100
AcDbXrecord
 10
0.0
 20
0.0
 30
0.0
  0
XRECORD
  5
1B7
102
{ACAD_REACTORS
330
199
102
}
330
199
100
AcDbXrecord
 10
0.0
 20
0.0
 30
0.0
  0
XRECORD
  5
1B5
102
{ACAD_REACTORS
330
199
102
}
330
199
100
AcDbXrecord
 10
0.0
 20
0.0
 30
0.0
  0
XRECORD
  5
1B6
102
{ACAD_REACTORS
330
199
102
}
330
199
100
AcDbXrecord
 10
0.0
 20
0.0
 30
0.0
  0
XRECORD
  5
1B3
102
{ACAD_REACTORS
330
199
102
}
330
199
100
AcDbXrecord
 10
0.0
 20
0.0
 30
0.0
  0
XRECORD
  5
1B0
102
{ACAD_REACTORS
330
199
102
}
330
199
100
AcDbXrecord
340
0
  0
XRECORD
  5
1B1
102
{ACAD_REACTORS
330
199
102
}
330
199
100
AcDbXrecord
 70
     1
  0
XRECORD
  5
1A5
102
{ACAD_REACTORS
330
199
102
}
330
199
100
AcDbXrecord
  1
{5698D2C8-F346-4A47-847F-506CD78E005C}
  0
DICTIONARYVAR
  5
197
102
{ACAD_REACTORS
330
196
102
}
330
196
100
DictionaryVariables
280
     0
  1
1
  0
ENDSEC
  0
EOF
