  0
SECTION
  2
HEADER
  9
$ACADVER
  1
AC1014
  9
$ACADMAINTVER
 70
     9
  9
$DWGCODEPAGE
  3
ANSI_1252
  9
$INSBASE
 10
0.0
 20
0.0
 30
0.0
  9
$EXTMIN
 10
-0.0000000000000146
 20
-0.000000000000032
 30
0.0
  9
$EXTMAX
 10
124.0
 20
1055.0
 30
0.0
  9
$LIMMIN
 10
0.0
 20
0.0
  9
$LIMMAX
 10
12.0
 20
9.0
  9
$ORTHOMODE
 70
     0
  9
$REGENMODE
 70
     1
  9
$FILLMODE
 70
     1
  9
$QTEXTMODE
 70
     0
  9
$MIRRTEXT
 70
     1
  9
$DRAGMODE
 70
     2
  9
$LTSCALE
 40
1.0
  9
$OSMODE
 70
    37
  9
$ATTMODE
 70
     1
  9
$TEXTSIZE
 40
0.2
  9
$TRACEWID
 40
0.05
  9
$TEXTSTYLE
  7
STANDARD
  9
$CLAYER
  8
0
  9
$CELTYPE
  6
CONTINUOUS
  9
$CECOLOR
 62
   256
  9
$CELTSCALE
 40
1.0
  9
$DELOBJ
 70
     1
  9
$DISPSILH
 70
     0
  9
$DIMSCALE
 40
1.0
  9
$DIMASZ
 40
0.18
  9
$DIMEXO
 40
0.0625
  9
$DIMDLI
 40
0.38
  9
$DIMRND
 40
0.0
  9
$DIMDLE
 40
0.0
  9
$DIMEXE
 40
0.18
  9
$DIMTP
 40
0.0
  9
$DIMTM
 40
0.0
  9
$DIMTXT
 40
0.18
  9
$DIMCEN
 40
0.09
  9
$DIMTSZ
 40
0.0
  9
$DIMTOL
 70
     0
  9
$DIMLIM
 70
     0
  9
$DIMTIH
 70
     1
  9
$DIMTOH
 70
     1
  9
$DIMSE1
 70
     0
  9
$DIMSE2
 70
     0
  9
$DIMTAD
 70
     0
  9
$DIMZIN
 70
     0
  9
$DIMBLK
  1

  9
$DIMASO
 70
     1
  9
$DIMSHO
 70
     1
  9
$DIMPOST
  1

  9
$DIMAPOST
  1

  9
$DIMALT
 70
     0
  9
$DIMALTD
 70
     2
  9
$DIMALTF
 40
25.4
  9
$DIMLFAC
 40
1.0
  9
$DIMTOFL
 70
     0
  9
$DIMTVP
 40
0.0
  9
$DIMTIX
 70
     0
  9
$DIMSOXD
 70
     0
  9
$DIMSAH
 70
     0
  9
$DIMBLK1
  1

  9
$DIMBLK2
  1

  9
$DIMSTYLE
  2
STANDARD
  9
$DIMCLRD
 70
     0
  9
$DIMCLRE
 70
     0
  9
$DIMCLRT
 70
     0
  9
$DIMTFAC
 40
1.0
  9
$DIMGAP
 40
0.09
  9
$DIMJUST
 70
     0
  9
$DIMSD1
 70
     0
  9
$DIMSD2
 70
     0
  9
$DIMTOLJ
 70
     1
  9
$DIMTZIN
 70
     0
  9
$DIMALTZ
 70
     0
  9
$DIMALTTZ
 70
     0
  9
$DIMFIT
 70
     3
  9
$DIMUPT
 70
     0
  9
$DIMUNIT
 70
     2
  9
$DIMDEC
 70
     4
  9
$DIMTDEC
 70
     4
  9
$DIMALTU
 70
     2
  9
$DIMALTTD
 70
     2
  9
$DIMTXSTY
  7
STANDARD
  9
$DIMAUNIT
 70
     0
  9
$LUNITS
 70
     2
  9
$LUPREC
 70
     4
  9
$SKETCHINC
 40
0.1
  9
$FILLETRAD
 40
0.0
  9
$AUNITS
 70
     0
  9
$AUPREC
 70
     0
  9
$MENU
  1
.
  9
$ELEVATION
 40
0.0
  9
$PELEVATION
 40
0.0
  9
$THICKNESS
 40
0.0
  9
$LIMCHECK
 70
     0
  9
$BLIPMODE
 70
     0
  9
$CHAMFERA
 40
0.0
  9
$CHAMFERB
 40
0.0
  9
$CHAMFERC
 40
0.0
  9
$CHAMFERD
 40
0.0
  9
$SKPOLY
 70
     0
  9
$TDCREATE
 40
2454692.680718125
  9
$TDUPDATE
 40
2454692.681137870
  9
$TDINDWG
 40
0.0004197454
  9
$TDUSRTIMER
 40
0.0004197454
  9
$USRTIMER
 70
     1
  9
$ANGBASE
 50
0.0
  9
$ANGDIR
 70
     0
  9
$PDMODE
 70
     0
  9
$PDSIZE
 40
0.0
  9
$PLINEWID
 40
0.0
  9
$COORDS
 70
     1
  9
$SPLFRAME
 70
     0
  9
$SPLINETYPE
 70
     6
  9
$SPLINESEGS
 70
     8
  9
$ATTDIA
 70
     0
  9
$ATTREQ
 70
     1
  9
$HANDLING
 70
 22529
  9
$HANDSEED
  5
198
  9
$SURFTAB1
 70
     6
  9
$SURFTAB2
 70
     6
  9
$SURFTYPE
 70
     6
  9
$SURFU
 70
     6
  9
$SURFV
 70
     6
  9
$UCSNAME
  2

  9
$UCSORG
 10
0.0
 20
0.0
 30
0.0
  9
$UCSXDIR
 10
1.0
 20
0.0
 30
0.0
  9
$UCSYDIR
 10
0.0
 20
1.0
 30
0.0
  9
$PUCSNAME
  2

  9
$PUCSORG
 10
0.0
 20
0.0
 30
0.0
  9
$PUCSXDIR
 10
1.0
 20
0.0
 30
0.0
  9
$PUCSYDIR
 10
0.0
 20
1.0
 30
0.0
  9
$USERI1
 70
     0
  9
$USERI2
 70
     0
  9
$USERI3
 70
     0
  9
$USERI4
 70
     0
  9
$USERI5
 70
     0
  9
$USERR1
 40
0.0
  9
$USERR2
 40
0.0
  9
$USERR3
 40
0.0
  9
$USERR4
 40
0.0
  9
$USERR5
 40
0.0
  9
$WORLDVIEW
 70
     1
  9
$SHADEDGE
 70
     3
  9
$SHADEDIF
 70
    70
  9
$TILEMODE
 70
     1
  9
$MAXACTVP
 70
    64
  9
$PINSBASE
 10
0.0
 20
0.0
 30
0.0
  9
$PLIMCHECK
 70
     0
  9
$PEXTMIN
 10
1.000000000000000E+20
 20
1.000000000000000E+20
 30
1.000000000000000E+20
  9
$PEXTMAX
 10
-1.000000000000000E+20
 20
-1.000000000000000E+20
 30
-1.000000000000000E+20
  9
$PLIMMIN
 10
0.0
 20
0.0
  9
$PLIMMAX
 10
12.0
 20
9.0
  9
$UNITMODE
 70
     0
  9
$VISRETAIN
 70
     1
  9
$PLINEGEN
 70
     0
  9
$PSLTSCALE
 70
     1
  9
$TREEDEPTH
 70
  3020
  9
$PICKSTYLE
 70
     1
  9
$CMLSTYLE
  2
STANDARD
  9
$CMLJUST
 70
     0
  9
$CMLSCALE
 40
1.0
  9
$PROXYGRAPHICS
 70
     1
  9
$MEASUREMENT
 70
     0
  0
ENDSEC
  0
SECTION
  2
CLASSES
  0
CLASS
  1
ACDBDICTIONARYWDFLT
  2
AcDbDictionaryWithDefault
  3
AutoCAD 2000
 90
        0
280
     0
281
     0
  0
CLASS
  1
ACDBPLACEHOLDER
  2
AcDbPlaceHolder
  3
AutoCAD 2000
 90
        0
280
     0
281
     0
  0
CLASS
  1
LAYOUT
  2
AcDbLayout
  3
AutoCAD 2000
 90
        0
280
     0
281
     0
  0
CLASS
  1
DICTIONARYVAR
  2
AcDbDictionaryVar
  3
AutoCAD 2000
 90
        0
280
     0
281
     0
  0
CLASS
  1
LONG_TRANSACTION
  2
AcDbLongTransaction
  3
AutoCAD 2000
 90
        0
280
     0
281
     0
  0
CLASS
  1
LWPOLYLINE
  2
AcDbPolyline
  3
AutoCAD 2000
 90
        0
280
     0
281
     1
  0
CLASS
  1
HATCH
  2
AcDbHatch
  3
AutoCAD 2000
 90
        0
280
     0
281
     1
  0
CLASS
  1
XRECORD
  2
AcDbXrecord
  3
AutoCAD 2000
 90
        0
280
     0
281
     0
  0
ENDSEC
  0
SECTION
  2
TABLES
  0
TABLE
  2
VPORT
  5
8
330
0
100
AcDbSymbolTable
 70
     2
  0
VPORT
  5
173
330
8
100
AcDbSymbolTableRecord
100
AcDbViewportTableRecord
  2
*ACTIVE
 70
     0
 10
0.0
 20
0.0
 11
1.0
 21
1.0
 12
61.99999999999999
 22
527.5
 13
0.0
 23
0.0
 14
1.0
 24
1.0
 15
0.0
 25
0.0
 16
0.0
 26
0.0
 36
1.0
 17
0.0
 27
0.0
 37
0.0
 40
1063.09462915601
 41
2.078104993597951
 42
50.0
 43
0.0
 44
0.0
 50
0.0
 51
0.0
 71
     0
 72
   100
 73
     1
 74
     3
 75
     0
 76
     0
 77
     0
 78
     0
  0
ENDTAB
  0
TABLE
  2
LTYPE
  5
5
330
0
100
AcDbSymbolTable
 70
     1
  0
LTYPE
  5
13
330
5
100
AcDbSymbolTableRecord
100
AcDbLinetypeTableRecord
  2
BYBLOCK
 70
     0
  3

 72
    65
 73
     0
 40
0.0
  0
LTYPE
  5
14
330
5
100
AcDbSymbolTableRecord
100
AcDbLinetypeTableRecord
  2
BYLAYER
 70
     0
  3

 72
    65
 73
     0
 40
0.0
  0
LTYPE
  5
15
330
5
100
AcDbSymbolTableRecord
100
AcDbLinetypeTableRecord
  2
CONTINUOUS
 70
     0
  3
Solid line
 72
    65
 73
     0
 40
0.0
  0
ENDTAB
  0
TABLE
  2
LAYER
  5
2
330
0
100
AcDbSymbolTable
 70
     1
  0
LAYER
  5
10
330
2
100
AcDbSymbolTableRecord
100
AcDbLayerTableRecord
  2
0
 70
     0
 62
     7
  6
CONTINUOUS
  0
ENDTAB
  0
TABLE
  2
STYLE
  5
3
330
0
100
AcDbSymbolTable
 70
     1
  0
STYLE
  5
11
330
3
100
AcDbSymbolTableRecord
100
AcDbTextStyleTableRecord
  2
STANDARD
 70
     0
 40
0.0
 41
1.0
 50
0.0
 71
     0
 42
0.2
  3
txt
  4

  0
ENDTAB
  0
TABLE
  2
VIEW
  5
6
330
0
100
AcDbSymbolTable
 70
     0
  0
ENDTAB
  0
TABLE
  2
UCS
  5
7
330
0
100
AcDbSymbolTable
 70
     0
  0
ENDTAB
  0
TABLE
  2
APPID
  5
9
330
0
100
AcDbSymbolTable
 70
     1
  0
APPID
  5
12
330
9
100
AcDbSymbolTableRecord
100
AcDbRegAppTableRecord
  2
ACAD
 70
     0
  0
ENDTAB
  0
TABLE
  2
DIMSTYLE
  5
A
330
0
100
AcDbSymbolTable
 70
     1
  0
DIMSTYLE
105
16D
330
A
100
AcDbSymbolTableRecord
100
AcDbDimStyleTableRecord
  2
STANDARD
 70
     0
  3

  4

  5

  6

  7

 40
1.0
 41
0.18
 42
0.0625
 43
0.38
 44
0.18
 45
0.0
 46
0.0
 47
0.0
 48
0.0
140
0.18
141
0.09
142
0.0
143
25.4
144
1.0
145
0.0
146
1.0
147
0.09
 71
     0
 72
     0
 73
     1
 74
     1
 75
     0
 76
     0
 77
     0
 78
     0
170
     0
171
     2
172
     0
173
     0
174
     0
175
     0
176
     0
177
     0
178
     0
270
     2
271
     4
272
     4
273
     2
274
     2
340
11
275
     0
280
     0
281
     0
282
     0
283
     1
284
     0
285
     0
286
     0
287
     3
288
     0
  0
ENDTAB
  0
TABLE
  2
BLOCK_RECORD
  5
1
330
0
100
AcDbSymbolTable
 70
     0
  0
BLOCK_RECORD
  5
1E
102
{ACAD_XDICTIONARY
360
196
102
}
330
1
100
AcDbSymbolTableRecord
100
AcDbBlockTableRecord
  2
*MODEL_SPACE
  0
BLOCK_RECORD
  5
1A
102
{ACAD_XDICTIONARY
360
194
102
}
330
1
100
AcDbSymbolTableRecord
100
AcDbBlockTableRecord
  2
*PAPER_SPACE
  0
ENDTAB
  0
ENDSEC
  0
SECTION
  2
BLOCKS
  0
BLOCK
  5
1F
330
1E
100
AcDbEntity
  8
0
100
AcDbBlockBegin
  2
*MODEL_SPACE
 70
     0
 10
0.0
 20
0.0
 30
0.0
  3
*MODEL_SPACE
  1

  0
ENDBLK
  5
20
330
1E
100
AcDbEntity
  8
0
100
AcDbBlockEnd
  0
BLOCK
  5
1B
330
1A
100
AcDbEntity
 67
     1
  8
0
100
AcDbBlockBegin
  2
*PAPER_SPACE
 70
     0
 10
0.0
 20
0.0
 30
0.0
  3
*PAPER_SPACE
  1

  0
ENDBLK
  5
1C
330
1A
100
AcDbEntity
 67
     1
  8
0
100
AcDbBlockEnd
  0
ENDSEC
  0
SECTION
  2
ENTITIES
  0
LINE
  5
22
330
1E
100
AcDbEntity
  8
0
100
AcDbLine
 10
59.54399999999989
 20
0.999999999999969
 30
0.0
 11
60.4429999999999
 21
0.999999999999969
 31
0.0
  0
LINE
  5
23
330
1E
100
AcDbEntity
  8
0
100
AcDbLine
 10
60.4429999999999
 20
0.999999999999969
 30
0.0
 11
62.0389999999999
 21
0.9999999999999678
 31
0.0
  0
LINE
  5
24
330
1E
100
AcDbEntity
  8
0
100
AcDbLine
 10
62.0389999999999
 20
0.9999999999999678
 30
0.0
 11
64.1339999999999
 21
0.9999999999999678
 31
0.0
  0
LINE
  5
25
330
1E
100
AcDbEntity
  8
0
100
AcDbLine
 10
18.352
 20
649.061
 30
0.0
 11
24.552
 21
624.664
 31
0.0
  0
LINE
  5
26
330
1E
100
AcDbEntity
  8
0
100
AcDbLine
 10
24.552
 20
624.664
 30
0.0
 11
29.151
 21
600.457
 31
0.0
  0
LINE
  5
27
330
1E
100
AcDbEntity
  8
0
100
AcDbLine
 10
24.723
 20
656.0999999999999
 30
0.0
 11
26.21899999999989
 21
652.5
 31
0.0
  0
LINE
  5
28
330
1E
100
AcDbEntity
  8
0
100
AcDbLine
 10
21.929
 20
650.0
 30
0.0
 11
25.12199999999999
 21
645.8999999999999
 31
0.0
  0
LINE
  5
29
330
1E
100
AcDbEntity
  8
0
100
AcDbLine
 10
19.93299999999999
 20
654.8
 30
0.0
 11
21.929
 21
650.0
 31
0.0
  0
LINE
  5
2A
330
1E
100
AcDbEntity
  8
0
100
AcDbLine
 10
24.224
 20
660.0
 30
0.0
 11
24.723
 21
663.9
 31
0.0
  0
LINE
  5
2B
330
1E
100
AcDbEntity
  8
0
100
AcDbLine
 10
24.224
 20
660.0
 30
0.0
 11
24.723
 21
656.0999999999999
 31
0.0
  0
LINE
  5
2C
330
1E
100
AcDbEntity
  8
0
100
AcDbLine
 10
25.12199999999999
 20
645.8999999999999
 30
0.0
 11
29.212
 21
642.7
 31
0.0
  0
LINE
  5
2D
330
1E
100
AcDbEntity
  8
0
100
AcDbLine
 10
24.723
 20
663.9
 30
0.0
 11
26.21899999999989
 21
667.4999999999999
 31
0.0
  0
LINE
  5
2E
330
1E
100
AcDbEntity
  8
0
100
AcDbLine
 10
19.93299999999999
 20
665.2000000000001
 30
0.0
 11
21.929
 21
670.0
 31
0.0
  0
LINE
  5
2F
330
1E
100
AcDbEntity
  8
0
100
AcDbLine
 10
19.23499999999999
 20
660.0
 30
0.0
 11
19.93299999999999
 21
665.2000000000001
 31
0.0
  0
LINE
  5
30
330
1E
100
AcDbEntity
  8
0
100
AcDbLine
 10
19.23499999999999
 20
660.0
 30
0.0
 11
19.93299999999999
 21
654.8
 31
0.0
  0
LINE
  5
31
330
1E
100
AcDbEntity
  8
0
100
AcDbLine
 10
10.43071479071769
 20
671.9043012869019
 30
0.0
 11
10.45099999999999
 21
671.8569999999999
 31
0.0
  0
LINE
  5
32
330
1E
100
AcDbEntity
  8
0
100
AcDbLine
 10
10.45099999999999
 20
671.8569999999999
 30
0.0
 11
18.352
 21
649.061
 31
0.0
  0
LINE
  5
33
330
1E
100
AcDbEntity
  8
0
100
AcDbLine
 10
10.43071479071769
 20
671.9043012869019
 30
0.0
 11
10.45099999999999
 21
671.8569999999999
 31
0.0
  0
LINE
  5
34
330
1E
100
AcDbEntity
  8
0
100
AcDbLine
 10
21.929
 20
670.0
 30
0.0
 11
25.12199999999999
 21
674.1
 31
0.0
  0
LINE
  5
35
330
1E
100
AcDbEntity
  8
0
100
AcDbLine
 10
26.21899999999989
 20
652.5
 30
0.0
 11
28.614
 21
649.3999999999999
 31
0.0
  0
LINE
  5
36
330
1E
100
AcDbEntity
  8
0
100
AcDbLine
 10
29.151
 20
600.457
 30
0.0
 11
32.05
 21
578.76
 31
0.0
  0
LINE
  5
37
330
1E
100
AcDbEntity
  8
0
100
AcDbLine
 10
28.614
 20
649.3999999999999
 30
0.0
 11
31.707
 21
647.0
 31
0.0
  0
LINE
  5
38
330
1E
100
AcDbEntity
  8
0
100
AcDbLine
 10
29.212
 20
642.7
 30
0.0
 11
34.00199999999999
 21
640.7
 31
0.0
  0
LINE
  5
39
330
1E
100
AcDbEntity
  8
0
100
AcDbLine
 10
26.21899999999989
 20
667.4999999999999
 30
0.0
 11
28.614
 21
670.6
 31
0.0
  0
LINE
  5
3A
330
1E
100
AcDbEntity
  8
0
100
AcDbLine
 10
28.614
 20
670.6
 30
0.0
 11
31.707
 21
673.0
 31
0.0
  0
LINE
  5
3B
330
1E
100
AcDbEntity
  8
0
100
AcDbLine
 10
25.12199999999999
 20
674.1
 30
0.0
 11
29.212
 21
677.2999999999999
 31
0.0
  0
LINE
  5
3C
330
1E
100
AcDbEntity
  8
0
100
AcDbLine
 10
-0.0000000000000145
 20
690.011
 30
0.0
 11
10.45099999999999
 21
671.8569999999999
 31
0.0
  0
LINE
  5
3D
330
1E
100
AcDbEntity
  8
0
100
AcDbLine
 10
29.212
 20
677.2999999999999
 30
0.0
 11
34.00199999999999
 21
679.2999999999999
 31
0.0
  0
LINE
  5
3E
330
1E
100
AcDbEntity
  8
0
100
AcDbLine
 10
-0.0000000000000145
 20
690.011
 30
0.0
 11
10.43071479071769
 21
671.9043012869019
 31
0.0
  0
LINE
  5
3F
330
1E
100
AcDbEntity
  8
0
100
AcDbLine
 10
-0.0000000000000145
 20
690.011
 30
0.0
 11
10.45099999999999
 21
671.8569999999999
 31
0.0
  0
LINE
  5
40
330
1E
100
AcDbEntity
  8
0
100
AcDbLine
 10
-0.0000000000000145
 20
690.011
 30
0.0
 11
1.46899999999998
 21
690.8610000000001
 31
0.0
  0
LINE
  5
41
330
1E
100
AcDbEntity
  8
0
100
AcDbLine
 10
-0.0000000000000146
 20
690.011
 30
0.0
 11
1.46899999999998
 21
690.8610000000001
 31
0.0
  0
LINE
  5
42
330
1E
100
AcDbEntity
  8
0
100
AcDbLine
 10
1.46899999999998
 20
690.8610000000001
 30
0.0
 11
3.456
 21
692.0110000000001
 31
0.0
  0
LINE
  5
43
330
1E
100
AcDbEntity
  8
0
100
AcDbLine
 10
2.24599999999997
 20
691.3319999999999
 30
0.0
 11
2.316999999999989
 21
691.371
 31
0.0
  0
LINE
  5
44
330
1E
100
AcDbEntity
  8
0
100
AcDbLine
 10
2.316999999999989
 20
691.371
 30
0.0
 11
2.55800000000001
 21
691.503
 31
0.0
  0
LINE
  5
45
330
1E
100
AcDbEntity
  8
0
100
AcDbLine
 10
2.55800000000001
 20
691.503
 30
0.0
 11
2.8999932696344
 21
691.6894370317619
 31
0.0
  0
LINE
  5
46
330
1E
100
AcDbEntity
  8
0
100
AcDbLine
 10
2.24299999999995
 20
691.331
 30
0.0
 11
2.32000000000001
 21
691.3730000000001
 31
0.0
  0
LINE
  5
47
330
1E
100
AcDbEntity
  8
0
100
AcDbLine
 10
2.12699999999999
 20
691.2669999999999
 30
0.0
 11
2.24299999999995
 21
691.331
 31
0.0
  0
LINE
  5
48
330
1E
100
AcDbEntity
  8
0
100
AcDbLine
 10
2.677999999999979
 20
691.561
 30
0.0
 11
4.320000000000009
 21
692.511
 31
0.0
  0
LINE
  5
49
330
1E
100
AcDbEntity
  8
0
100
AcDbLine
 10
3.456
 20
692.0110000000001
 30
0.0
 11
5.78899999999997
 21
693.3610000000001
 31
0.0
  0
LINE
  5
4A
330
1E
100
AcDbEntity
  8
0
100
AcDbLine
 10
1.46899999999998
 20
690.8610000000001
 30
0.0
 11
2.135596937271719
 21
691.246953561696
 31
0.0
  0
LINE
  5
4B
330
1E
100
AcDbEntity
  8
0
100
AcDbLine
 10
1.46899999999998
 20
690.8610000000001
 30
0.0
 11
3.456
 21
692.0110000000001
 31
0.0
  0
LINE
  5
4C
330
1E
100
AcDbEntity
  8
0
100
AcDbLine
 10
1.46899999999998
 20
690.8610000000001
 30
0.0
 11
2.677999999999979
 21
691.561
 31
0.0
  0
LINE
  5
4D
330
1E
100
AcDbEntity
  8
0
100
AcDbLine
 10
5.78899999999997
 20
693.3610000000001
 30
0.0
 11
8.208999999999958
 21
694.761
 31
0.0
  0
LINE
  5
4E
330
1E
100
AcDbEntity
  8
0
100
AcDbLine
 10
4.320000000000009
 20
692.511
 30
0.0
 11
6.22099999999999
 21
693.6110000000001
 31
0.0
  0
LINE
  5
4F
330
1E
100
AcDbEntity
  8
0
100
AcDbLine
 10
8.208999999999958
 20
694.761
 30
0.0
 11
10.196
 21
695.911
 31
0.0
  0
LINE
  5
50
330
1E
100
AcDbEntity
  8
0
100
AcDbLine
 10
10.196
 20
695.911
 30
0.0
 11
10.386099999845
 21
696.0209999999099
 31
0.0
  0
LINE
  5
51
330
1E
100
AcDbEntity
  8
0
100
AcDbLine
 10
10.196
 20
695.911
 30
0.0
 11
10.386099999845
 21
696.0209999999099
 31
0.0
  0
LINE
  5
52
330
1E
100
AcDbEntity
  8
0
100
AcDbLine
 10
10.386099999845
 20
696.0209999999099
 30
0.0
 11
10.62799999999999
 21
696.161
 31
0.0
  0
LINE
  5
53
330
1E
100
AcDbEntity
  8
0
100
AcDbLine
 10
8.208999999999958
 20
694.761
 30
0.0
 11
10.196
 21
695.911
 31
0.0
  0
LINE
  5
54
330
1E
100
AcDbEntity
  8
0
100
AcDbLine
 10
8.208999999999958
 20
694.761
 30
0.0
 11
10.62799999999999
 21
696.161
 31
0.0
  0
LINE
  5
55
330
1E
100
AcDbEntity
  8
0
100
AcDbLine
 10
13.738
 20
697.961
 30
0.0
 11
14.949
 21
698.661
 31
0.0
  0
LINE
  5
56
330
1E
100
AcDbEntity
  8
0
100
AcDbLine
 10
12.961
 20
697.511
 30
0.0
 11
14.949
 21
698.661
 31
0.0
  0
LINE
  5
57
330
1E
100
AcDbEntity
  8
0
100
AcDbLine
 10
15.72599999999999
 20
699.111
 30
0.0
 11
15.985
 21
699.261
 31
0.0
  0
LINE
  5
58
330
1E
100
AcDbEntity
  8
0
100
AcDbLine
 10
14.949
 20
698.661
 30
0.0
 11
15.72599999999999
 21
699.111
 31
0.0
  0
LINE
  5
59
330
1E
100
AcDbEntity
  8
0
100
AcDbLine
 10
14.949
 20
698.661
 30
0.0
 11
16.417
 21
699.5110000000001
 31
0.0
  0
LINE
  5
5A
330
1E
100
AcDbEntity
  8
0
100
AcDbLine
 10
12.2610999998514
 20
697.1059999999139
 30
0.0
 11
13.738
 21
697.961
 31
0.0
  0
LINE
  5
5B
330
1E
100
AcDbEntity
  8
0
100
AcDbLine
 10
17.36799999999999
 20
700.061
 30
0.0
 11
17.713
 21
700.261
 31
0.0
  0
LINE
  5
5C
330
1E
100
AcDbEntity
  8
0
100
AcDbLine
 10
17.713
 20
700.261
 30
0.0
 11
30.6050571022056
 21
677.8816522347409
 31
0.0
  0
LINE
  5
5D
330
1E
100
AcDbEntity
  8
0
100
AcDbLine
 10
16.417
 20
699.5110000000001
 30
0.0
 11
17.36799999999999
 21
700.061
 31
0.0
  0
LINE
  5
5E
330
1E
100
AcDbEntity
  8
0
100
AcDbLine
 10
10.62799999999999
 20
696.161
 30
0.0
 11
12.2610999998514
 21
697.1059999999139
 31
0.0
  0
LINE
  5
5F
330
1E
100
AcDbEntity
  8
0
100
AcDbLine
 10
10.62799999999999
 20
696.161
 30
0.0
 11
12.961
 21
697.511
 31
0.0
  0
LINE
  5
60
330
1E
100
AcDbEntity
  8
0
100
AcDbLine
 10
10.386099999845
 20
696.0209999999099
 30
0.0
 11
10.62799999999999
 21
696.161
 31
0.0
  0
LINE
  5
61
330
1E
100
AcDbEntity
  8
0
100
AcDbLine
 10
6.22099999999999
 20
693.6110000000001
 30
0.0
 11
8.208999999999958
 21
694.761
 31
0.0
  0
LINE
  5
62
330
1E
100
AcDbEntity
  8
0
100
AcDbLine
 10
-0.0000000000000063
 20
690.011
 30
0.0
 11
10.43071479071769
 21
671.9043012869019
 31
0.0
  0
LINE
  5
63
330
1E
100
AcDbEntity
  8
0
100
AcDbLine
 10
33.85099999999999
 20
547.1589999999999
 30
0.0
 11
34.2529999999999
 21
25.2540999999999
 31
0.0
  0
LINE
  5
64
330
1E
100
AcDbEntity
  8
0
100
AcDbLine
 10
33.85099999999999
 20
547.1589999999999
 30
0.0
 11
34.2529999999999
 21
25.2541
 31
0.0
  0
LINE
  5
65
330
1E
100
AcDbEntity
  8
0
100
AcDbLine
 10
37.22699999999989
 20
22.64819999999999
 30
0.0
 11
40.026
 21
21.9455
 31
0.0
  0
LINE
  5
66
330
1E
100
AcDbEntity
  8
0
100
AcDbLine
 10
38.34599999999989
 20
29.1249
 30
0.0
 11
41.2559999999999
 21
29.6301
 31
0.0
  0
LINE
  5
67
330
1E
100
AcDbEntity
  8
0
100
AcDbLine
 10
35.951
 20
28.1728
 30
0.0
 11
38.34599999999989
 21
29.1249
 31
0.0
  0
LINE
  5
68
330
1E
100
AcDbEntity
  8
0
100
AcDbLine
 10
34.5179999999999
 20
26.7991
 30
0.0
 11
35.951
 21
28.1728
 31
0.0
  0
LINE
  5
69
330
1E
100
AcDbEntity
  8
0
100
AcDbLine
 10
35.28699999999989
 20
23.8244
 30
0.0
 11
37.22699999999989
 21
22.64819999999999
 31
0.0
  0
LINE
  5
6A
330
1E
100
AcDbEntity
  8
0
100
AcDbLine
 10
34.2529999999999
 20
25.2541
 30
0.0
 11
35.28699999999989
 21
23.8244
 31
0.0
  0
LINE
  5
6B
330
1E
100
AcDbEntity
  8
0
100
AcDbLine
 10
34.2529999999999
 20
25.2541
 30
0.0
 11
34.5179999999999
 21
26.7991
 31
0.0
  0
LINE
  5
6C
330
1E
100
AcDbEntity
  8
0
100
AcDbLine
 10
32.05
 20
578.76
 30
0.0
 11
33.85099999999999
 21
547.1589999999999
 31
0.0
  0
LINE
  5
6D
330
1E
100
AcDbEntity
  8
0
100
AcDbLine
 10
43.16899999999989
 20
21.8166
 30
0.0
 11
46.0749999999999
 21
22.32489999999999
 31
0.0
  0
LINE
  5
6E
330
1E
100
AcDbEntity
  8
0
100
AcDbLine
 10
44.39899999999989
 20
29.499
 30
0.0
 11
47.19299999999989
 21
28.7952
 31
0.0
  0
LINE
  5
6F
330
1E
100
AcDbEntity
  8
0
100
AcDbLine
 10
41.2559999999999
 20
29.6301
 30
0.0
 11
44.39899999999989
 21
29.499
 31
0.0
  0
LINE
  5
70
330
1E
100
AcDbEntity
  8
0
100
AcDbLine
 10
47.19299999999989
 20
28.7952
 30
0.0
 11
49.12899999999989
 21
27.6191
 31
0.0
  0
LINE
  5
71
330
1E
100
AcDbEntity
  8
0
100
AcDbLine
 10
46.0749999999999
 20
22.32489999999999
 30
0.0
 11
48.467
 21
23.2759
 31
0.0
  0
LINE
  5
72
330
1E
100
AcDbEntity
  8
0
100
AcDbLine
 10
40.026
 20
21.9455
 30
0.0
 11
43.16899999999989
 21
21.8166
 31
0.0
  0
LINE
  5
73
330
1E
100
AcDbEntity
  8
0
100
AcDbLine
 10
49.12899999999989
 20
27.6191
 30
0.0
 11
50.15899999999989
 21
26.1915
 31
0.0
  0
LINE
  5
74
330
1E
100
AcDbEntity
  8
0
100
AcDbLine
 10
49.851
 20
547.163
 30
0.0
 11
50.15899999999989
 21
26.1915
 31
0.0
  0
LINE
  5
75
330
1E
100
AcDbEntity
  8
0
100
AcDbLine
 10
49.851
 20
547.163
 30
0.0
 11
50.15899999999989
 21
26.1915
 31
0.0
  0
LINE
  5
76
330
1E
100
AcDbEntity
  8
0
100
AcDbLine
 10
49.896
 20
24.6497
 30
0.0
 11
50.15899999999989
 21
26.1915
 31
0.0
  0
LINE
  5
77
330
1E
100
AcDbEntity
  8
0
100
AcDbLine
 10
48.467
 20
23.2759
 30
0.0
 11
49.896
 21
24.6497
 31
0.0
  0
LINE
  5
78
330
1E
100
AcDbEntity
  8
0
100
AcDbLine
 10
47.851
 20
581.564
 30
0.0
 11
49.851
 21
547.163
 31
0.0
  0
LINE
  5
79
330
1E
100
AcDbEntity
  8
0
100
AcDbLine
 10
44.151
 20
605.9619999999999
 30
0.0
 11
47.851
 21
581.564
 31
0.0
  0
LINE
  5
7A
330
1E
100
AcDbEntity
  8
0
100
AcDbLine
 10
39.051
 20
631.359
 30
0.0
 11
44.151
 21
605.9619999999999
 31
0.0
  0
LINE
  5
7B
330
1E
100
AcDbEntity
  8
0
100
AcDbLine
 10
31.707
 20
647.0
 30
0.0
 11
35.299
 21
645.5
 31
0.0
  0
LINE
  5
7C
330
1E
100
AcDbEntity
  8
0
100
AcDbLine
 10
36.6756409977011
 20
640.3392542986909
 30
0.0
 11
39.051
 21
631.359
 31
0.0
  0
LINE
  5
7D
330
1E
100
AcDbEntity
  8
0
100
AcDbLine
 10
35.299
 20
645.5
 30
0.0
 11
39.19
 21
645.0
 31
0.0
  0
LINE
  5
7E
330
1E
100
AcDbEntity
  8
0
100
AcDbLine
 10
39.19
 20
645.0
 30
0.0
 11
39.19
 21
640.0
 31
0.0
  0
LINE
  5
7F
330
1E
100
AcDbEntity
  8
0
100
AcDbLine
 10
39.19
 20
645.0
 30
0.0
 11
43.081
 21
645.5
 31
0.0
  0
LINE
  5
80
330
1E
100
AcDbEntity
  8
0
100
AcDbLine
 10
34.00199999999999
 20
640.7
 30
0.0
 11
39.19
 21
640.0
 31
0.0
  0
LINE
  5
81
330
1E
100
AcDbEntity
  8
0
100
AcDbLine
 10
31.707
 20
673.0
 30
0.0
 11
35.299
 21
674.5
 31
0.0
  0
LINE
  5
82
330
1E
100
AcDbEntity
  8
0
100
AcDbLine
 10
35.299
 20
674.5
 30
0.0
 11
39.19
 21
675.0
 31
0.0
  0
LINE
  5
83
330
1E
100
AcDbEntity
  8
0
100
AcDbLine
 10
39.19
 20
675.0
 30
0.0
 11
39.19
 21
680.0
 31
0.0
  0
LINE
  5
84
330
1E
100
AcDbEntity
  8
0
100
AcDbLine
 10
39.19
 20
675.0
 30
0.0
 11
43.081
 21
674.5
 31
0.0
  0
LINE
  5
85
330
1E
100
AcDbEntity
  8
0
100
AcDbLine
 10
34.00199999999999
 20
679.2999999999999
 30
0.0
 11
39.19
 21
680.0
 31
0.0
  0
LINE
  5
86
330
1E
100
AcDbEntity
  8
0
100
AcDbLine
 10
46.673
 20
647.0
 30
0.0
 11
49.76600000000001
 21
649.3999999999999
 31
0.0
  0
LINE
  5
87
330
1E
100
AcDbEntity
  8
0
100
AcDbLine
 10
43.081
 20
645.5
 30
0.0
 11
46.673
 21
647.0
 31
0.0
  0
LINE
  5
88
330
1E
100
AcDbEntity
  8
0
100
AcDbLine
 10
52.161
 20
652.5
 30
0.0
 11
53.658
 21
656.0999999999999
 31
0.0
  0
LINE
  5
89
330
1E
100
AcDbEntity
  8
0
100
AcDbLine
 10
49.76600000000001
 20
649.3999999999999
 30
0.0
 11
52.161
 21
652.5
 31
0.0
  0
LINE
  5
8A
330
1E
100
AcDbEntity
  8
0
100
AcDbLine
 10
53.658
 20
656.0999999999999
 30
0.0
 11
54.157
 21
660.0
 31
0.0
  0
LINE
  5
8B
330
1E
100
AcDbEntity
  8
0
100
AcDbLine
 10
53.658
 20
663.9
 30
0.0
 11
54.157
 21
660.0
 31
0.0
  0
LINE
  5
8C
330
1E
100
AcDbEntity
  8
0
100
AcDbLine
 10
52.161
 20
667.4999999999999
 30
0.0
 11
53.658
 21
663.9
 31
0.0
  0
LINE
  5
8D
330
1E
100
AcDbEntity
  8
0
100
AcDbLine
 10
49.76600000000001
 20
670.6
 30
0.0
 11
52.161
 21
667.4999999999999
 31
0.0
  0
LINE
  5
8E
330
1E
100
AcDbEntity
  8
0
100
AcDbLine
 10
46.673
 20
673.0
 30
0.0
 11
49.76600000000001
 21
670.6
 31
0.0
  0
LINE
  5
8F
330
1E
100
AcDbEntity
  8
0
100
AcDbLine
 10
43.081
 20
674.5
 30
0.0
 11
46.673
 21
673.0
 31
0.0
  0
LINE
  5
90
330
1E
100
AcDbEntity
  8
0
100
AcDbLine
 10
39.19
 20
680.0
 30
0.0
 11
69.123
 21
680.0
 31
0.0
  0
LINE
  5
91
330
1E
100
AcDbEntity
  8
0
100
AcDbLine
 10
39.19
 20
680.0
 30
0.0
 11
39.19
 21
675.0
 31
0.0
  0
LINE
  5
92
330
1E
100
AcDbEntity
  8
0
100
AcDbLine
 10
39.19
 20
640.0
 30
0.0
 11
58.148
 21
640.0
 31
0.0
  0
LINE
  5
93
330
1E
100
AcDbEntity
  8
0
100
AcDbLine
 10
39.19
 20
640.0
 30
0.0
 11
69.123
 21
640.0
 31
0.0
  0
LINE
  5
94
330
1E
100
AcDbEntity
  8
0
100
AcDbLine
 10
39.19
 20
640.0
 30
0.0
 11
39.19
 21
645.0
 31
0.0
  0
LINE
  5
95
330
1E
100
AcDbEntity
  8
0
100
AcDbLine
 10
30.6050571022056
 20
677.8816522347409
 30
0.0
 11
34.00199999999999
 21
679.2999999999999
 31
0.0
  0
LINE
  5
96
330
1E
100
AcDbEntity
  8
0
100
AcDbLine
 10
58.1479999999999
 20
1.99999999999996
 30
0.0
 11
58.1479999999999
 21
79.0
 31
0.0
  0
LINE
  5
97
330
1E
100
AcDbEntity
  8
0
100
AcDbLine
 10
58.5469999999999
 20
1.999999999999969
 30
0.0
 11
59.64399999999989
 21
1.999999999999969
 31
0.0
  0
LINE
  5
98
330
1E
100
AcDbEntity
  8
0
100
AcDbLine
 10
58.5469999999999
 20
79.0
 30
0.0
 11
59.64399999999989
 21
79.0
 31
0.0
  0
LINE
  5
99
330
1E
100
AcDbEntity
  8
0
100
AcDbLine
 10
59.64399999999989
 20
79.0
 30
0.0
 11
61.33999999999989
 21
79.0
 31
0.0
  0
LINE
  5
9A
330
1E
100
AcDbEntity
  8
0
100
AcDbLine
 10
61.33999999999989
 20
79.0
 30
0.0
 11
63.6349999999999
 21
79.0
 31
0.0
  0
LINE
  5
9B
330
1E
100
AcDbEntity
  8
0
100
AcDbLine
 10
59.64399999999989
 20
1.999999999999969
 30
0.0
 11
61.33999999999989
 21
1.999999999999969
 31
0.0
  0
LINE
  5
9C
330
1E
100
AcDbEntity
  8
0
100
AcDbLine
 10
61.33999999999989
 20
1.999999999999969
 30
0.0
 11
63.6349999999999
 21
1.999999999999969
 31
0.0
  0
LINE
  5
9D
330
1E
100
AcDbEntity
  8
0
100
AcDbLine
 10
58.1479999999999
 20
81.0
 30
0.0
 11
58.148
 21
547.5
 31
0.0
  0
LINE
  5
9E
330
1E
100
AcDbEntity
  8
0
100
AcDbLine
 10
59.14499999999989
 20
80.0
 30
0.0
 11
59.54399999999989
 21
80.0
 31
0.0
  0
LINE
  5
9F
330
1E
100
AcDbEntity
  8
0
100
AcDbLine
 10
59.54399999999989
 20
80.0
 30
0.0
 11
60.4429999999999
 21
80.0
 31
0.0
  0
LINE
  5
A0
330
1E
100
AcDbEntity
  8
0
100
AcDbLine
 10
60.4429999999999
 20
80.0
 30
0.0
 11
62.0389999999999
 21
80.0
 31
0.0
  0
LINE
  5
A1
330
1E
100
AcDbEntity
  8
0
100
AcDbLine
 10
58.5469999999999
 20
81.0
 30
0.0
 11
59.64399999999989
 21
81.0
 31
0.0
  0
LINE
  5
A2
330
1E
100
AcDbEntity
  8
0
100
AcDbLine
 10
58.148
 20
640.0
 30
0.0
 11
58.547
 21
640.0
 31
0.0
  0
LINE
  5
A3
330
1E
100
AcDbEntity
  8
0
100
AcDbLine
 10
58.148
 20
547.5
 30
0.0
 11
58.148
 21
640.0
 31
0.0
  0
LINE
  5
A4
330
1E
100
AcDbEntity
  8
0
100
AcDbLine
 10
58.148
 20
680.0
 30
0.0
 11
58.148
 21
974.0
 31
0.0
  0
LINE
  5
A5
330
1E
100
AcDbEntity
  8
0
100
AcDbLine
 10
58.148
 20
974.0
 30
0.0
 11
58.547
 21
974.0
 31
0.0
  0
LINE
  5
A6
330
1E
100
AcDbEntity
  8
0
100
AcDbLine
 10
58.148
 20
974.0
 30
0.0
 11
59.145
 21
975.0
 31
0.0
  0
LINE
  5
A7
330
1E
100
AcDbEntity
  8
0
100
AcDbLine
 10
58.148
 20
976.0
 30
0.0
 11
58.547
 21
976.0
 31
0.0
  0
LINE
  5
A8
330
1E
100
AcDbEntity
  8
0
100
AcDbLine
 10
58.148
 20
976.0
 30
0.0
 11
58.148
 21
1053.0
 31
0.0
  0
LINE
  5
A9
330
1E
100
AcDbEntity
  8
0
100
AcDbLine
 10
58.148
 20
976.0
 30
0.0
 11
59.145
 21
975.0
 31
0.0
  0
LINE
  5
AA
330
1E
100
AcDbEntity
  8
0
100
AcDbLine
 10
58.547
 20
640.0
 30
0.0
 11
59.644
 21
640.0
 31
0.0
  0
LINE
  5
AB
330
1E
100
AcDbEntity
  8
0
100
AcDbLine
 10
58.547
 20
974.0
 30
0.0
 11
59.644
 21
974.0
 31
0.0
  0
LINE
  5
AC
330
1E
100
AcDbEntity
  8
0
100
AcDbLine
 10
59.145
 20
975.0
 30
0.0
 11
59.54399999999999
 21
975.0
 31
0.0
  0
LINE
  5
AD
330
1E
100
AcDbEntity
  8
0
100
AcDbLine
 10
58.547
 20
976.0
 30
0.0
 11
59.644
 21
976.0
 31
0.0
  0
LINE
  5
AE
330
1E
100
AcDbEntity
  8
0
100
AcDbLine
 10
58.148
 20
1053.0
 30
0.0
 11
58.547
 21
1053.0
 31
0.0
  0
LINE
  5
AF
330
1E
100
AcDbEntity
  8
0
100
AcDbLine
 10
58.148
 20
1053.0
 30
0.0
 11
59.145
 21
1054.0
 31
0.0
  0
LINE
  5
B0
330
1E
100
AcDbEntity
  8
0
100
AcDbLine
 10
58.547
 20
1053.0
 30
0.0
 11
59.644
 21
1053.0
 31
0.0
  0
LINE
  5
B1
330
1E
100
AcDbEntity
  8
0
100
AcDbLine
 10
59.644
 20
640.0
 30
0.0
 11
61.34
 21
640.0
 31
0.0
  0
LINE
  5
B2
330
1E
100
AcDbEntity
  8
0
100
AcDbLine
 10
59.644
 20
974.0
 30
0.0
 11
61.34
 21
974.0
 31
0.0
  0
LINE
  5
B3
330
1E
100
AcDbEntity
  8
0
100
AcDbLine
 10
59.54399999999999
 20
975.0
 30
0.0
 11
60.443
 21
975.0
 31
0.0
  0
LINE
  5
B4
330
1E
100
AcDbEntity
  8
0
100
AcDbLine
 10
60.443
 20
975.0
 30
0.0
 11
62.03899999999999
 21
975.0
 31
0.0
  0
LINE
  5
B5
330
1E
100
AcDbEntity
  8
0
100
AcDbLine
 10
59.644
 20
976.0
 30
0.0
 11
61.34
 21
976.0
 31
0.0
  0
LINE
  5
B6
330
1E
100
AcDbEntity
  8
0
100
AcDbLine
 10
59.644
 20
1053.0
 30
0.0
 11
61.34
 21
1053.0
 31
0.0
  0
LINE
  5
B7
330
1E
100
AcDbEntity
  8
0
100
AcDbLine
 10
59.145
 20
1054.0
 30
0.0
 11
59.54399999999999
 21
1054.0
 31
0.0
  0
LINE
  5
B8
330
1E
100
AcDbEntity
  8
0
100
AcDbLine
 10
59.145
 20
1054.0
 30
0.0
 11
62.13899999999999
 21
1054.499999999999
 31
0.0
  0
LINE
  5
B9
330
1E
100
AcDbEntity
  8
0
100
AcDbLine
 10
59.54399999999999
 20
1054.0
 30
0.0
 11
60.443
 21
1054.0
 31
0.0
  0
LINE
  5
BA
330
1E
100
AcDbEntity
  8
0
100
AcDbLine
 10
60.443
 20
1054.0
 30
0.0
 11
62.03899999999999
 21
1054.0
 31
0.0
  0
LINE
  5
BB
330
1E
100
AcDbEntity
  8
0
100
AcDbLine
 10
59.64399999999989
 20
81.0
 30
0.0
 11
61.34
 21
81.0
 31
0.0
  0
LINE
  5
BC
330
1E
100
AcDbEntity
  8
0
100
AcDbLine
 10
61.34
 20
640.0
 30
0.0
 11
63.635
 21
640.0
 31
0.0
  0
LINE
  5
BD
330
1E
100
AcDbEntity
  8
0
100
AcDbLine
 10
61.34
 20
974.0
 30
0.0
 11
63.635
 21
974.0
 31
0.0
  0
LINE
  5
BE
330
1E
100
AcDbEntity
  8
0
100
AcDbLine
 10
61.34
 20
976.0
 30
0.0
 11
63.635
 21
976.0
 31
0.0
  0
LINE
  5
BF
330
1E
100
AcDbEntity
  8
0
100
AcDbLine
 10
62.03899999999999
 20
975.0
 30
0.0
 11
64.134
 21
975.0
 31
0.0
  0
LINE
  5
C0
330
1E
100
AcDbEntity
  8
0
100
AcDbLine
 10
61.34
 20
1053.0
 30
0.0
 11
63.635
 21
1053.0
 31
0.0
  0
LINE
  5
C1
330
1E
100
AcDbEntity
  8
0
100
AcDbLine
 10
62.03899999999999
 20
1054.0
 30
0.0
 11
64.134
 21
1054.0
 31
0.0
  0
LINE
  5
C2
330
1E
100
AcDbEntity
  8
0
100
AcDbLine
 10
61.34
 20
81.0
 30
0.0
 11
63.6349999999999
 21
81.0
 31
0.0
  0
LINE
  5
C3
330
1E
100
AcDbEntity
  8
0
100
AcDbLine
 10
62.0389999999999
 20
80.0
 30
0.0
 11
64.1339999999999
 21
80.0
 31
0.0
  0
LINE
  5
C4
330
1E
100
AcDbEntity
  8
0
100
AcDbLine
 10
58.1479999999999
 20
81.0
 30
0.0
 11
59.14499999999989
 21
80.0
 31
0.0
  0
LINE
  5
C5
330
1E
100
AcDbEntity
  8
0
100
AcDbLine
 10
58.1479999999999
 20
81.0
 30
0.0
 11
58.148
 21
547.5
 31
0.0
  0
LINE
  5
C6
330
1E
100
AcDbEntity
  8
0
100
AcDbLine
 10
58.1479999999999
 20
81.0
 30
0.0
 11
58.5469999999999
 21
81.0
 31
0.0
  0
LINE
  5
C7
330
1E
100
AcDbEntity
  8
0
100
AcDbLine
 10
58.1479999999999
 20
79.0
 30
0.0
 11
59.14499999999989
 21
80.0
 31
0.0
  0
LINE
  5
C8
330
1E
100
AcDbEntity
  8
0
100
AcDbLine
 10
58.1479999999999
 20
79.0
 30
0.0
 11
58.5469999999999
 21
79.0
 31
0.0
  0
LINE
  5
C9
330
1E
100
AcDbEntity
  8
0
100
AcDbLine
 10
58.1479999999999
 20
1.999999999999969
 30
0.0
 11
59.14499999999989
 21
0.999999999999969
 31
0.0
  0
LINE
  5
CA
330
1E
100
AcDbEntity
  8
0
100
AcDbLine
 10
58.1479999999999
 20
1.999999999999969
 30
0.0
 11
58.1479999999999
 21
79.0
 31
0.0
  0
LINE
  5
CB
330
1E
100
AcDbEntity
  8
0
100
AcDbLine
 10
58.1479999999999
 20
1.999999999999969
 30
0.0
 11
58.5469999999999
 21
1.999999999999969
 31
0.0
  0
LINE
  5
CC
330
1E
100
AcDbEntity
  8
0
100
AcDbLine
 10
59.14499999999989
 20
0.999999999999969
 30
0.0
 11
62.13899999999989
 21
0.499999999999968
 31
0.0
  0
LINE
  5
CD
330
1E
100
AcDbEntity
  8
0
100
AcDbLine
 10
59.14499999999989
 20
0.999999999999969
 30
0.0
 11
59.54399999999989
 21
0.999999999999969
 31
0.0
  0
LINE
  5
CE
330
1E
100
AcDbEntity
  8
0
100
AcDbLine
 10
69.12299999999989
 20
-0.000000000000032
 30
0.0
 11
76.107
 21
0.499999999999968
 31
0.0
  0
LINE
  5
CF
330
1E
100
AcDbEntity
  8
0
100
AcDbLine
 10
69.12299999999989
 20
0.9999999999999678
 30
0.0
 11
71.7169999999999
 21
0.9999999999999678
 31
0.0
  0
LINE
  5
D0
330
1E
100
AcDbEntity
  8
0
100
AcDbLine
 10
76.107
 20
0.499999999999968
 30
0.0
 11
79.1009999999999
 21
0.9999999999999669
 31
0.0
  0
LINE
  5
D1
330
1E
100
AcDbEntity
  8
0
100
AcDbLine
 10
79.1009999999999
 20
0.9999999999999669
 30
0.0
 11
80.09799999999989
 21
1.999999999999969
 31
0.0
  0
LINE
  5
D2
330
1E
100
AcDbEntity
  8
0
100
AcDbLine
 10
78.70199999999989
 20
0.9999999999999669
 30
0.0
 11
79.1009999999999
 21
0.9999999999999669
 31
0.0
  0
LINE
  5
D3
330
1E
100
AcDbEntity
  8
0
100
AcDbLine
 10
77.804
 20
0.9999999999999678
 30
0.0
 11
78.70199999999989
 21
0.9999999999999669
 31
0.0
  0
LINE
  5
D4
330
1E
100
AcDbEntity
  8
0
100
AcDbLine
 10
76.20699999999991
 20
0.9999999999999678
 30
0.0
 11
77.804
 21
0.9999999999999678
 31
0.0
  0
LINE
  5
D5
330
1E
100
AcDbEntity
  8
0
100
AcDbLine
 10
74.112
 20
0.9999999999999678
 30
0.0
 11
76.20699999999991
 21
0.9999999999999678
 31
0.0
  0
LINE
  5
D6
330
1E
100
AcDbEntity
  8
0
100
AcDbLine
 10
71.7169999999999
 20
0.9999999999999678
 30
0.0
 11
74.112
 21
0.9999999999999678
 31
0.0
  0
LINE
  5
D7
330
1E
100
AcDbEntity
  8
0
100
AcDbLine
 10
69.12299999999989
 20
-0.000000000000032
 30
0.0
 11
76.107
 21
0.499999999999968
 31
0.0
  0
LINE
  5
D8
330
1E
100
AcDbEntity
  8
0
100
AcDbLine
 10
62.13899999999999
 20
1054.499999999999
 30
0.0
 11
69.123
 21
1055.0
 31
0.0
  0
LINE
  5
D9
330
1E
100
AcDbEntity
  8
0
100
AcDbLine
 10
63.6349999999999
 20
81.0
 30
0.0
 11
66.32899999999999
 21
81.0
 31
0.0
  0
LINE
  5
DA
330
1E
100
AcDbEntity
  8
0
100
AcDbLine
 10
63.635
 20
640.0
 30
0.0
 11
66.32899999999999
 21
640.0
 31
0.0
  0
LINE
  5
DB
330
1E
100
AcDbEntity
  8
0
100
AcDbLine
 10
63.635
 20
974.0
 30
0.0
 11
66.32899999999999
 21
974.0
 31
0.0
  0
LINE
  5
DC
330
1E
100
AcDbEntity
  8
0
100
AcDbLine
 10
63.635
 20
976.0
 30
0.0
 11
66.32899999999999
 21
976.0
 31
0.0
  0
LINE
  5
DD
330
1E
100
AcDbEntity
  8
0
100
AcDbLine
 10
63.635
 20
1053.0
 30
0.0
 11
66.32899999999999
 21
1053.0
 31
0.0
  0
LINE
  5
DE
330
1E
100
AcDbEntity
  8
0
100
AcDbLine
 10
64.1339999999999
 20
80.0
 30
0.0
 11
66.5289999999999
 21
80.0
 31
0.0
  0
LINE
  5
DF
330
1E
100
AcDbEntity
  8
0
100
AcDbLine
 10
63.6349999999999
 20
79.0
 30
0.0
 11
66.32899999999999
 21
79.0
 31
0.0
  0
LINE
  5
E0
330
1E
100
AcDbEntity
  8
0
100
AcDbLine
 10
63.6349999999999
 20
1.999999999999969
 30
0.0
 11
66.32899999999999
 21
1.999999999999969
 31
0.0
  0
LINE
  5
E1
330
1E
100
AcDbEntity
  8
0
100
AcDbLine
 10
80.09799999999989
 20
1.999999999999969
 30
0.0
 11
80.09799999999989
 21
26.0
 31
0.0
  0
LINE
  5
E2
330
1E
100
AcDbEntity
  8
0
100
AcDbLine
 10
79.69899999999999
 20
1.999999999999969
 30
0.0
 11
80.09799999999989
 21
1.999999999999969
 31
0.0
  0
LINE
  5
E3
330
1E
100
AcDbEntity
  8
0
100
AcDbLine
 10
78.602
 20
1.999999999999969
 30
0.0
 11
79.69899999999999
 21
1.999999999999969
 31
0.0
  0
LINE
  5
E4
330
1E
100
AcDbEntity
  8
0
100
AcDbLine
 10
76.9059999999999
 20
1.999999999999969
 30
0.0
 11
78.602
 21
1.999999999999969
 31
0.0
  0
LINE
  5
E5
330
1E
100
AcDbEntity
  8
0
100
AcDbLine
 10
74.61099999999991
 20
1.999999999999969
 30
0.0
 11
76.9059999999999
 21
1.999999999999969
 31
0.0
  0
LINE
  5
E6
330
1E
100
AcDbEntity
  8
0
100
AcDbLine
 10
71.9169999999999
 20
1.999999999999969
 30
0.0
 11
74.61099999999991
 21
1.999999999999969
 31
0.0
  0
LINE
  5
E7
330
1E
100
AcDbEntity
  8
0
100
AcDbLine
 10
69.12299999999989
 20
1.999999999999969
 30
0.0
 11
71.9169999999999
 21
1.999999999999969
 31
0.0
  0
LINE
  5
E8
330
1E
100
AcDbEntity
  8
0
100
AcDbLine
 10
64.134
 20
975.0
 30
0.0
 11
66.52899999999999
 21
975.0
 31
0.0
  0
LINE
  5
E9
330
1E
100
AcDbEntity
  8
0
100
AcDbLine
 10
64.134
 20
1054.0
 30
0.0
 11
66.52899999999999
 21
1054.0
 31
0.0
  0
LINE
  5
EA
330
1E
100
AcDbEntity
  8
0
100
AcDbLine
 10
66.32899999999999
 20
81.0
 30
0.0
 11
69.12299999999989
 21
81.0
 31
0.0
  0
LINE
  5
EB
330
1E
100
AcDbEntity
  8
0
100
AcDbLine
 10
69.12299999999989
 20
80.0
 30
0.0
 11
71.7169999999999
 21
80.0
 31
0.0
  0
LINE
  5
EC
330
1E
100
AcDbEntity
  8
0
100
AcDbLine
 10
76.9059999999999
 20
26.0
 30
0.0
 11
124.0
 21
26.0
 31
0.0
  0
LINE
  5
ED
330
1E
100
AcDbEntity
  8
0
100
AcDbLine
 10
124.0
 20
26.0
 30
0.0
 11
124.0
 21
79.0
 31
0.0
  0
LINE
  5
EE
330
1E
100
AcDbEntity
  8
0
100
AcDbLine
 10
76.9059999999999
 20
79.0
 30
0.0
 11
124.0
 21
79.0
 31
0.0
  0
LINE
  5
EF
330
1E
100
AcDbEntity
  8
0
100
AcDbLine
 10
124.0
 20
79.0
 30
0.0
 11
124.0
 21
26.0
 31
0.0
  0
LINE
  5
F0
330
1E
100
AcDbEntity
  8
0
100
AcDbLine
 10
80.09799999999989
 20
26.0
 30
0.0
 11
80.09799999999989
 21
1.99999999999996
 31
0.0
  0
LINE
  5
F1
330
1E
100
AcDbEntity
  8
0
100
AcDbLine
 10
74.61099999999991
 20
79.0
 30
0.0
 11
76.9059999999999
 21
79.0
 31
0.0
  0
LINE
  5
F2
330
1E
100
AcDbEntity
  8
0
100
AcDbLine
 10
79.1009999999999
 20
80.0
 30
0.0
 11
80.09799999999989
 21
79.0
 31
0.0
  0
LINE
  5
F3
330
1E
100
AcDbEntity
  8
0
100
AcDbLine
 10
79.1009999999999
 20
80.0
 30
0.0
 11
80.09799999999989
 21
81.0
 31
0.0
  0
LINE
  5
F4
330
1E
100
AcDbEntity
  8
0
100
AcDbLine
 10
78.70199999999989
 20
80.0
 30
0.0
 11
79.1009999999999
 21
80.0
 31
0.0
  0
LINE
  5
F5
330
1E
100
AcDbEntity
  8
0
100
AcDbLine
 10
77.804
 20
80.0
 30
0.0
 11
78.70199999999989
 21
80.0
 31
0.0
  0
LINE
  5
F6
330
1E
100
AcDbEntity
  8
0
100
AcDbLine
 10
76.20699999999999
 20
80.0
 30
0.0
 11
77.804
 21
80.0
 31
0.0
  0
LINE
  5
F7
330
1E
100
AcDbEntity
  8
0
100
AcDbLine
 10
74.112
 20
80.0
 30
0.0
 11
76.20699999999999
 21
80.0
 31
0.0
  0
LINE
  5
F8
330
1E
100
AcDbEntity
  8
0
100
AcDbLine
 10
71.7169999999999
 20
80.0
 30
0.0
 11
74.112
 21
80.0
 31
0.0
  0
LINE
  5
F9
330
1E
100
AcDbEntity
  8
0
100
AcDbLine
 10
71.9169999999999
 20
79.0
 30
0.0
 11
74.61099999999991
 21
79.0
 31
0.0
  0
LINE
  5
FA
330
1E
100
AcDbEntity
  8
0
100
AcDbLine
 10
69.12299999999989
 20
79.0
 30
0.0
 11
71.9169999999999
 21
79.0
 31
0.0
  0
LINE
  5
FB
330
1E
100
AcDbEntity
  8
0
100
AcDbLine
 10
66.32899999999999
 20
640.0
 30
0.0
 11
69.123
 21
640.0
 31
0.0
  0
LINE
  5
FC
330
1E
100
AcDbEntity
  8
0
100
AcDbLine
 10
66.32899999999999
 20
974.0
 30
0.0
 11
69.123
 21
974.0
 31
0.0
  0
LINE
  5
FD
330
1E
100
AcDbEntity
  8
0
100
AcDbLine
 10
66.32899999999999
 20
976.0
 30
0.0
 11
69.123
 21
976.0
 31
0.0
  0
LINE
  5
FE
330
1E
100
AcDbEntity
  8
0
100
AcDbLine
 10
66.52899999999999
 20
975.0
 30
0.0
 11
69.123
 21
975.0
 31
0.0
  0
LINE
  5
FF
330
1E
100
AcDbEntity
  8
0
100
AcDbLine
 10
66.32899999999999
 20
1053.0
 30
0.0
 11
69.123
 21
1053.0
 31
0.0
  0
LINE
  5
100
330
1E
100
AcDbEntity
  8
0
100
AcDbLine
 10
66.52899999999999
 20
1054.0
 30
0.0
 11
69.123
 21
1054.0
 31
0.0
  0
LINE
  5
101
330
1E
100
AcDbEntity
  8
0
100
AcDbLine
 10
80.09799999999989
 20
81.0
 30
0.0
 11
80.09799999999989
 21
547.5
 31
0.0
  0
LINE
  5
102
330
1E
100
AcDbEntity
  8
0
100
AcDbLine
 10
80.09799999999989
 20
81.0
 30
0.0
 11
80.09799999999989
 21
547.5
 31
0.0
  0
LINE
  5
103
330
1E
100
AcDbEntity
  8
0
100
AcDbLine
 10
79.69899999999999
 20
81.0
 30
0.0
 11
80.09799999999989
 21
81.0
 31
0.0
  0
LINE
  5
104
330
1E
100
AcDbEntity
  8
0
100
AcDbLine
 10
78.602
 20
81.0
 30
0.0
 11
79.69899999999999
 21
81.0
 31
0.0
  0
LINE
  5
105
330
1E
100
AcDbEntity
  8
0
100
AcDbLine
 10
76.9059999999999
 20
81.0
 30
0.0
 11
78.602
 21
81.0
 31
0.0
  0
LINE
  5
106
330
1E
100
AcDbEntity
  8
0
100
AcDbLine
 10
74.61099999999991
 20
81.0
 30
0.0
 11
76.9059999999999
 21
81.0
 31
0.0
  0
LINE
  5
107
330
1E
100
AcDbEntity
  8
0
100
AcDbLine
 10
69.123
 20
640.0
 30
0.0
 11
73.014
 21
640.0
 31
0.0
  0
LINE
  5
108
330
1E
100
AcDbEntity
  8
0
100
AcDbLine
 10
69.123
 20
640.0
 30
0.0
 11
71.9169999999999
 21
640.0
 31
0.0
  0
LINE
  5
109
330
1E
100
AcDbEntity
  8
0
100
AcDbLine
 10
69.123
 20
680.0
 30
0.0
 11
73.014
 21
680.0
 31
0.0
  0
LINE
  5
10A
330
1E
100
AcDbEntity
  8
0
100
AcDbLine
 10
69.123
 20
974.0
 30
0.0
 11
71.917
 21
974.0
 31
0.0
  0
LINE
  5
10B
330
1E
100
AcDbEntity
  8
0
100
AcDbLine
 10
71.9169999999999
 20
640.0
 30
0.0
 11
74.611
 21
640.0
 31
0.0
  0
LINE
  5
10C
330
1E
100
AcDbEntity
  8
0
100
AcDbLine
 10
71.917
 20
974.0
 30
0.0
 11
74.611
 21
974.0
 31
0.0
  0
LINE
  5
10D
330
1E
100
AcDbEntity
  8
0
100
AcDbLine
 10
71.717
 20
975.0
 30
0.0
 11
74.112
 21
975.0
 31
0.0
  0
LINE
  5
10E
330
1E
100
AcDbEntity
  8
0
100
AcDbLine
 10
69.123
 20
975.0
 30
0.0
 11
71.717
 21
975.0
 31
0.0
  0
LINE
  5
10F
330
1E
100
AcDbEntity
  8
0
100
AcDbLine
 10
73.014
 20
680.0
 30
0.0
 11
76.60600000000001
 21
680.0
 31
0.0
  0
LINE
  5
110
330
1E
100
AcDbEntity
  8
0
100
AcDbLine
 10
73.014
 20
640.0
 30
0.0
 11
76.60600000000001
 21
640.0
 31
0.0
  0
LINE
  5
111
330
1E
100
AcDbEntity
  8
0
100
AcDbLine
 10
74.611
 20
640.0
 30
0.0
 11
76.9059999999999
 21
640.0
 31
0.0
  0
LINE
  5
112
330
1E
100
AcDbEntity
  8
0
100
AcDbLine
 10
76.60600000000001
 20
680.0
 30
0.0
 11
79.69899999999999
 21
680.0
 31
0.0
  0
LINE
  5
113
330
1E
100
AcDbEntity
  8
0
100
AcDbLine
 10
76.9059999999999
 20
640.0
 30
0.0
 11
78.602
 21
640.0
 31
0.0
  0
LINE
  5
114
330
1E
100
AcDbEntity
  8
0
100
AcDbLine
 10
76.60600000000001
 20
640.0
 30
0.0
 11
79.69899999999999
 21
640.0
 31
0.0
  0
LINE
  5
115
330
1E
100
AcDbEntity
  8
0
100
AcDbLine
 10
76.9059999999999
 20
974.0
 30
0.0
 11
78.602
 21
974.0
 31
0.0
  0
LINE
  5
116
330
1E
100
AcDbEntity
  8
0
100
AcDbLine
 10
74.611
 20
974.0
 30
0.0
 11
76.9059999999999
 21
974.0
 31
0.0
  0
LINE
  5
117
330
1E
100
AcDbEntity
  8
0
100
AcDbLine
 10
76.20699999999999
 20
975.0
 30
0.0
 11
77.804
 21
975.0
 31
0.0
  0
LINE
  5
118
330
1E
100
AcDbEntity
  8
0
100
AcDbLine
 10
74.112
 20
975.0
 30
0.0
 11
76.20699999999999
 21
975.0
 31
0.0
  0
LINE
  5
119
330
1E
100
AcDbEntity
  8
0
100
AcDbLine
 10
74.611
 20
976.0
 30
0.0
 11
76.9059999999999
 21
976.0
 31
0.0
  0
LINE
  5
11A
330
1E
100
AcDbEntity
  8
0
100
AcDbLine
 10
71.917
 20
976.0
 30
0.0
 11
74.611
 21
976.0
 31
0.0
  0
LINE
  5
11B
330
1E
100
AcDbEntity
  8
0
100
AcDbLine
 10
69.123
 20
976.0
 30
0.0
 11
71.917
 21
976.0
 31
0.0
  0
LINE
  5
11C
330
1E
100
AcDbEntity
  8
0
100
AcDbLine
 10
78.602
 20
640.0
 30
0.0
 11
79.69899999999999
 21
640.0
 31
0.0
  0
LINE
  5
11D
330
1E
100
AcDbEntity
  8
0
100
AcDbLine
 10
78.602
 20
974.0
 30
0.0
 11
79.69899999999999
 21
974.0
 31
0.0
  0
LINE
  5
11E
330
1E
100
AcDbEntity
  8
0
100
AcDbLine
 10
79.69899999999999
 20
680.0
 30
0.0
 11
82.094
 21
680.0
 31
0.0
  0
LINE
  5
11F
330
1E
100
AcDbEntity
  8
0
100
AcDbLine
 10
79.69899999999999
 20
640.0
 30
0.0
 11
82.094
 21
640.0
 31
0.0
  0
LINE
  5
120
330
1E
100
AcDbEntity
  8
0
100
AcDbLine
 10
79.69899999999999
 20
640.0
 30
0.0
 11
80.09799999999989
 21
640.0
 31
0.0
  0
LINE
  5
121
330
1E
100
AcDbEntity
  8
0
100
AcDbLine
 10
79.69899999999999
 20
974.0
 30
0.0
 11
80.098
 21
974.0
 31
0.0
  0
LINE
  5
122
330
1E
100
AcDbEntity
  8
0
100
AcDbLine
 10
78.702
 20
975.0
 30
0.0
 11
79.10099999999999
 21
975.0
 31
0.0
  0
LINE
  5
123
330
1E
100
AcDbEntity
  8
0
100
AcDbLine
 10
77.804
 20
975.0
 30
0.0
 11
78.702
 21
975.0
 31
0.0
  0
LINE
  5
124
330
1E
100
AcDbEntity
  8
0
100
AcDbLine
 10
80.09799999999989
 20
547.5
 30
0.0
 11
80.09799999999989
 21
640.0
 31
0.0
  0
LINE
  5
125
330
1E
100
AcDbEntity
  8
0
100
AcDbLine
 10
79.69899999999999
 20
976.0
 30
0.0
 11
80.098
 21
976.0
 31
0.0
  0
LINE
  5
126
330
1E
100
AcDbEntity
  8
0
100
AcDbLine
 10
78.602
 20
976.0
 30
0.0
 11
79.69899999999999
 21
976.0
 31
0.0
  0
LINE
  5
127
330
1E
100
AcDbEntity
  8
0
100
AcDbLine
 10
79.10099999999999
 20
975.0
 30
0.0
 11
80.098
 21
976.0
 31
0.0
  0
LINE
  5
128
330
1E
100
AcDbEntity
  8
0
100
AcDbLine
 10
79.10099999999999
 20
975.0
 30
0.0
 11
80.098
 21
974.0
 31
0.0
  0
LINE
  5
129
330
1E
100
AcDbEntity
  8
0
100
AcDbLine
 10
76.9059999999999
 20
976.0
 30
0.0
 11
124.0
 21
976.0
 31
0.0
  0
LINE
  5
12A
330
1E
100
AcDbEntity
  8
0
100
AcDbLine
 10
76.9059999999999
 20
976.0
 30
0.0
 11
78.602
 21
976.0
 31
0.0
  0
LINE
  5
12B
330
1E
100
AcDbEntity
  8
0
100
AcDbLine
 10
69.123
 20
1053.0
 30
0.0
 11
71.917
 21
1053.0
 31
0.0
  0
LINE
  5
12C
330
1E
100
AcDbEntity
  8
0
100
AcDbLine
 10
69.123
 20
1054.0
 30
0.0
 11
71.717
 21
1054.0
 31
0.0
  0
LINE
  5
12D
330
1E
100
AcDbEntity
  8
0
100
AcDbLine
 10
71.917
 20
1053.0
 30
0.0
 11
74.611
 21
1053.0
 31
0.0
  0
LINE
  5
12E
330
1E
100
AcDbEntity
  8
0
100
AcDbLine
 10
76.906
 20
1053.0
 30
0.0
 11
78.602
 21
1053.0
 31
0.0
  0
LINE
  5
12F
330
1E
100
AcDbEntity
  8
0
100
AcDbLine
 10
74.611
 20
1053.0
 30
0.0
 11
76.906
 21
1053.0
 31
0.0
  0
LINE
  5
130
330
1E
100
AcDbEntity
  8
0
100
AcDbLine
 10
78.602
 20
1053.0
 30
0.0
 11
79.69899999999999
 21
1053.0
 31
0.0
  0
LINE
  5
131
330
1E
100
AcDbEntity
  8
0
100
AcDbLine
 10
78.702
 20
1054.0
 30
0.0
 11
79.10099999999999
 21
1054.0
 31
0.0
  0
LINE
  5
132
330
1E
100
AcDbEntity
  8
0
100
AcDbLine
 10
77.804
 20
1054.0
 30
0.0
 11
78.702
 21
1054.0
 31
0.0
  0
LINE
  5
133
330
1E
100
AcDbEntity
  8
0
100
AcDbLine
 10
76.20699999999999
 20
1054.0
 30
0.0
 11
77.804
 21
1054.0
 31
0.0
  0
LINE
  5
134
330
1E
100
AcDbEntity
  8
0
100
AcDbLine
 10
74.112
 20
1054.0
 30
0.0
 11
76.20699999999999
 21
1054.0
 31
0.0
  0
LINE
  5
135
330
1E
100
AcDbEntity
  8
0
100
AcDbLine
 10
71.717
 20
1054.0
 30
0.0
 11
74.112
 21
1054.0
 31
0.0
  0
LINE
  5
136
330
1E
100
AcDbEntity
  8
0
100
AcDbLine
 10
79.69899999999999
 20
1053.0
 30
0.0
 11
80.098
 21
1053.0
 31
0.0
  0
LINE
  5
137
330
1E
100
AcDbEntity
  8
0
100
AcDbLine
 10
79.10099999999999
 20
1054.0
 30
0.0
 11
80.098
 21
1053.0
 31
0.0
  0
LINE
  5
138
330
1E
100
AcDbEntity
  8
0
100
AcDbLine
 10
76.107
 20
1054.499999999999
 30
0.0
 11
79.10099999999999
 21
1054.0
 31
0.0
  0
LINE
  5
139
330
1E
100
AcDbEntity
  8
0
100
AcDbLine
 10
69.123
 20
1055.0
 30
0.0
 11
76.107
 21
1054.499999999999
 31
0.0
  0
LINE
  5
13A
330
1E
100
AcDbEntity
  8
0
100
AcDbLine
 10
76.906
 20
1029.0
 30
0.0
 11
124.0
 21
1029.0
 31
0.0
  0
LINE
  5
13B
330
1E
100
AcDbEntity
  8
0
100
AcDbLine
 10
83.5909999999999
 20
640.0
 30
0.0
 11
84.0899999999999
 21
640.0
 31
0.0
  0
LINE
  5
13C
330
1E
100
AcDbEntity
  8
0
100
AcDbLine
 10
84.0899999999999
 20
640.0
 30
0.0
 11
84.0899999999999
 21
655.080016035278
 31
0.0
  0
LINE
  5
13D
330
1E
100
AcDbEntity
  8
0
100
AcDbLine
 10
84.0899999999999
 20
655.080016035278
 30
0.0
 11
84.0899999999999
 21
640.0
 31
0.0
  0
LINE
  5
13E
330
1E
100
AcDbEntity
  8
0
100
AcDbLine
 10
84.0899999999999
 20
655.0
 30
0.0
 11
87.08299999999999
 21
655.0
 31
0.0
  0
LINE
  5
13F
330
1E
100
AcDbEntity
  8
0
100
AcDbLine
 10
80.098
 20
1029.0
 30
0.0
 11
80.098
 21
1053.0
 31
0.0
  0
LINE
  5
140
330
1E
100
AcDbEntity
  8
0
100
AcDbLine
 10
80.09799999999989
 20
680.0
 30
0.0
 11
80.098
 21
974.0
 31
0.0
  0
LINE
  5
141
330
1E
100
AcDbEntity
  8
0
100
AcDbLine
 10
80.098
 20
1053.0
 30
0.0
 11
80.098
 21
1029.0
 31
0.0
  0
LINE
  5
142
330
1E
100
AcDbEntity
  8
0
100
AcDbLine
 10
83.5909999999999
 20
680.0
 30
0.0
 11
84.0899999999999
 21
680.0
 31
0.0
  0
LINE
  5
143
330
1E
100
AcDbEntity
  8
0
100
AcDbLine
 10
84.0899999999999
 20
680.0
 30
0.0
 11
84.0899999999999
 21
664.880016035278
 31
0.0
  0
LINE
  5
144
330
1E
100
AcDbEntity
  8
0
100
AcDbLine
 10
82.094
 20
680.0
 30
0.0
 11
83.5909999999999
 21
680.0
 31
0.0
  0
LINE
  5
145
330
1E
100
AcDbEntity
  8
0
100
AcDbLine
 10
80.098
 20
976.0
 30
0.0
 11
124.0
 21
976.0
 31
0.0
  0
LINE
  5
146
330
1E
100
AcDbEntity
  8
0
100
AcDbLine
 10
84.0899999999999
 20
665.0
 30
0.0
 11
87.08299999999999
 21
665.0
 31
0.0
  0
LINE
  5
147
330
1E
100
AcDbEntity
  8
0
100
AcDbLine
 10
87.08299999999999
 20
655.0
 30
0.0
 11
87.08299999999999
 21
655.2
 31
0.0
  0
LINE
  5
148
330
1E
100
AcDbEntity
  8
0
100
AcDbLine
 10
87.08299999999999
 20
655.2
 30
0.0
 11
87.08299999999999
 21
655.7
 31
0.0
  0
LINE
  5
149
330
1E
100
AcDbEntity
  8
0
100
AcDbLine
 10
87.08299999999999
 20
655.2
 30
0.0
 11
87.08299999999999
 21
655.0
 31
0.0
  0
LINE
  5
14A
330
1E
100
AcDbEntity
  8
0
100
AcDbLine
 10
87.08299999999999
 20
655.7
 30
0.0
 11
87.08299999999999
 21
656.5
 31
0.0
  0
LINE
  5
14B
330
1E
100
AcDbEntity
  8
0
100
AcDbLine
 10
87.08299999999999
 20
655.7
 30
0.0
 11
87.08299999999999
 21
655.2
 31
0.0
  0
LINE
  5
14C
330
1E
100
AcDbEntity
  8
0
100
AcDbLine
 10
87.08299999999999
 20
656.5
 30
0.0
 11
87.08299999999999
 21
657.5
 31
0.0
  0
LINE
  5
14D
330
1E
100
AcDbEntity
  8
0
100
AcDbLine
 10
87.08299999999999
 20
656.5
 30
0.0
 11
87.08299999999999
 21
655.7
 31
0.0
  0
LINE
  5
14E
330
1E
100
AcDbEntity
  8
0
100
AcDbLine
 10
87.08299999999999
 20
657.5
 30
0.0
 11
87.08299999999999
 21
658.7
 31
0.0
  0
LINE
  5
14F
330
1E
100
AcDbEntity
  8
0
100
AcDbLine
 10
87.08299999999999
 20
657.5
 30
0.0
 11
87.08299999999999
 21
656.5
 31
0.0
  0
LINE
  5
150
330
1E
100
AcDbEntity
  8
0
100
AcDbLine
 10
87.08299999999999
 20
658.7
 30
0.0
 11
87.08299999999999
 21
660.0
 31
0.0
  0
LINE
  5
151
330
1E
100
AcDbEntity
  8
0
100
AcDbLine
 10
87.08299999999999
 20
658.7
 30
0.0
 11
87.08299999999999
 21
657.5
 31
0.0
  0
LINE
  5
152
330
1E
100
AcDbEntity
  8
0
100
AcDbLine
 10
87.08299999999999
 20
665.0
 30
0.0
 11
87.08299999999999
 21
664.7999999999999
 31
0.0
  0
LINE
  5
153
330
1E
100
AcDbEntity
  8
0
100
AcDbLine
 10
87.08299999999999
 20
664.7999999999999
 30
0.0
 11
87.08299999999999
 21
665.0
 31
0.0
  0
LINE
  5
154
330
1E
100
AcDbEntity
  8
0
100
AcDbLine
 10
87.08299999999999
 20
664.7999999999999
 30
0.0
 11
87.08299999999999
 21
664.2999999999999
 31
0.0
  0
LINE
  5
155
330
1E
100
AcDbEntity
  8
0
100
AcDbLine
 10
87.08299999999999
 20
664.2999999999999
 30
0.0
 11
87.08299999999999
 21
664.7999999999999
 31
0.0
  0
LINE
  5
156
330
1E
100
AcDbEntity
  8
0
100
AcDbLine
 10
87.08299999999999
 20
664.2999999999999
 30
0.0
 11
87.08299999999999
 21
663.4999999999999
 31
0.0
  0
LINE
  5
157
330
1E
100
AcDbEntity
  8
0
100
AcDbLine
 10
87.08299999999999
 20
663.4999999999999
 30
0.0
 11
87.08299999999999
 21
664.2999999999999
 31
0.0
  0
LINE
  5
158
330
1E
100
AcDbEntity
  8
0
100
AcDbLine
 10
87.08299999999999
 20
663.4999999999999
 30
0.0
 11
87.08299999999999
 21
662.5
 31
0.0
  0
LINE
  5
159
330
1E
100
AcDbEntity
  8
0
100
AcDbLine
 10
87.08299999999999
 20
662.5
 30
0.0
 11
87.08299999999999
 21
663.4999999999999
 31
0.0
  0
LINE
  5
15A
330
1E
100
AcDbEntity
  8
0
100
AcDbLine
 10
87.08299999999999
 20
662.5
 30
0.0
 11
87.08299999999999
 21
661.2999999999999
 31
0.0
  0
LINE
  5
15B
330
1E
100
AcDbEntity
  8
0
100
AcDbLine
 10
87.08299999999999
 20
661.2999999999999
 30
0.0
 11
87.08299999999999
 21
662.5
 31
0.0
  0
LINE
  5
15C
330
1E
100
AcDbEntity
  8
0
100
AcDbLine
 10
87.08299999999999
 20
661.2999999999999
 30
0.0
 11
87.08299999999999
 21
660.0
 31
0.0
  0
LINE
  5
15D
330
1E
100
AcDbEntity
  8
0
100
AcDbLine
 10
87.08299999999999
 20
660.0
 30
0.0
 11
87.08299999999999
 21
661.2999999999999
 31
0.0
  0
LINE
  5
15E
330
1E
100
AcDbEntity
  8
0
100
AcDbLine
 10
87.08299999999999
 20
660.0
 30
0.0
 11
87.08299999999999
 21
658.7
 31
0.0
  0
LINE
  5
15F
330
1E
100
AcDbEntity
  8
0
100
AcDbLine
 10
124.0
 20
1029.0
 30
0.0
 11
124.0
 21
976.0
 31
0.0
  0
LINE
  5
160
330
1E
100
AcDbEntity
  8
0
100
AcDbLine
 10
124.0
 20
976.0
 30
0.0
 11
124.0
 21
1029.0
 31
0.0
  0
LINE
  5
161
330
1E
100
AcDbEntity
  8
0
100
AcDbLine
 10
84.0899999999999
 20
664.880016035278
 30
0.0
 11
84.0899999999999
 21
680.0
 31
0.0
  0
LINE
  5
162
330
1E
100
AcDbEntity
  8
0
100
AcDbLine
 10
82.094
 20
640.0
 30
0.0
 11
83.5909999999999
 21
640.0
 31
0.0
  0
LINE
  5
163
330
1E
100
AcDbEntity
  8
0
100
AcDbLine
 10
80.09799999999989
 20
640.0
 30
0.0
 11
82.094
 21
640.0
 31
0.0
  0
LINE
  5
164
330
1E
100
AcDbEntity
  8
0
100
AcDbLine
 10
71.9169999999999
 20
81.0
 30
0.0
 11
74.61099999999991
 21
81.0
 31
0.0
  0
LINE
  5
165
330
1E
100
AcDbEntity
  8
0
100
AcDbLine
 10
69.12299999999989
 20
81.0
 30
0.0
 11
71.9169999999999
 21
81.0
 31
0.0
  0
LINE
  5
166
330
1E
100
AcDbEntity
  8
0
100
AcDbLine
 10
66.5289999999999
 20
80.0
 30
0.0
 11
69.12299999999989
 21
80.0
 31
0.0
  0
LINE
  5
167
330
1E
100
AcDbEntity
  8
0
100
AcDbLine
 10
66.32899999999999
 20
79.0
 30
0.0
 11
69.12299999999989
 21
79.0
 31
0.0
  0
LINE
  5
168
330
1E
100
AcDbEntity
  8
0
100
AcDbLine
 10
66.32899999999999
 20
1.999999999999969
 30
0.0
 11
69.12299999999989
 21
1.999999999999969
 31
0.0
  0
LINE
  5
169
330
1E
100
AcDbEntity
  8
0
100
AcDbLine
 10
64.1339999999999
 20
0.9999999999999678
 30
0.0
 11
66.5289999999999
 21
0.9999999999999678
 31
0.0
  0
LINE
  5
16A
330
1E
100
AcDbEntity
  8
0
100
AcDbLine
 10
66.5289999999999
 20
0.9999999999999678
 30
0.0
 11
69.12299999999989
 21
0.9999999999999678
 31
0.0
  0
LINE
  5
16B
330
1E
100
AcDbEntity
  8
0
100
AcDbLine
 10
62.13899999999989
 20
0.499999999999968
 30
0.0
 11
69.12299999999989
 21
-0.000000000000032
 31
0.0
  0
LINE
  5
16C
330
1E
100
AcDbEntity
  8
0
100
AcDbLine
 10
62.13899999999989
 20
0.499999999999968
 30
0.0
 11
69.12299999999989
 21
-0.000000000000032
 31
0.0
  0
ENDSEC
  0
SECTION
  2
OBJECTS
  0
DICTIONARY
  5
C
330
0
100
AcDbDictionary
  3
ACAD_GROUP
350
D
  3
ACAD_LAYOUT
350
19
  3
ACAD_MLINESTYLE
350
16
  3
ACAD_PLOTSETTINGS
350
18
  3
ACAD_PLOTSTYLENAME
350
E
  3
ACDBHEADERROUNDTRIPXREC
350
174
  3
ACDBVARIABLEDICTIONARY
350
171
  0
DICTIONARY
  5
196
330
1E
100
AcDbDictionary
280
     1
  3
ACAD_LAYOUTSELFREF
360
197
  0
DICTIONARY
  5
194
330
1A
100
AcDbDictionary
280
     1
  3
ACAD_LAYOUTSELFREF
360
195
  0
DICTIONARY
  5
D
102
{ACAD_REACTORS
330
C
102
}
330
C
100
AcDbDictionary
  0
DICTIONARY
  5
19
102
{ACAD_REACTORS
330
C
102
}
330
C
100
AcDbDictionary
  0
DICTIONARY
  5
16
102
{ACAD_REACTORS
330
C
102
}
330
C
100
AcDbDictionary
  3
STANDARD
350
17
  0
DICTIONARY
  5
18
102
{ACAD_REACTORS
330
C
102
}
330
C
100
AcDbDictionary
  0
ACDBDICTIONARYWDFLT
  5
E
102
{ACAD_REACTORS
330
C
102
}
330
C
100
AcDbDictionary
281
     1
  3
Normal
350
F
100
AcDbDictionaryWithDefault
340
F
  0
DICTIONARY
  5
174
102
{ACAD_REACTORS
330
C
102
}
330
C
100
AcDbDictionary
  3
CEPSNTYPE
350
17E
  3
FINGERPRINTGUID
350
17F
  3
HYPERLINKBASE
350
177
  3
INSUNITS
350
17D
  3
LAYOUTDICT
350
179
  3
LWETCUNION
350
17C
  3
PLOTSETDICT
350
17A
  3
PLOTSTYLNAMDICT
350
17B
  3
PSVPSCALE
350
181
  3
PUCSBASE
350
184
  3
PUCSORGBACK
350
18A
  3
PUCSORGBOTTOM
350
186
  3
PUCSORGFRONT
350
189
  3
PUCSORGLEFT
350
187
  3
PUCSORGRIGHT
350
188
  3
PUCSORGTOP
350
185
  3
PUCSORTHOREF
350
182
  3
PUCSORTHOVIEW
350
183
  3
STYLESHEET
350
178
  3
TSTACKALIGN
350
175
  3
TSTACKSIZE
350
176
  3
UCSBASE
350
18D
  3
UCSORGBACK
350
193
  3
UCSORGBOTTOM
350
18F
  3
UCSORGFRONT
350
192
  3
UCSORGLEFT
350
190
  3
UCSORGRIGHT
350
191
  3
UCSORGTOP
350
18E
  3
UCSORTHOREF
350
18B
  3
UCSORTHOVIEW
350
18C
  3
VERSIONGUID
350
180
  0
DICTIONARY
  5
171
102
{ACAD_REACTORS
330
C
102
}
330
C
100
AcDbDictionary
  3
DIMASSOC
350
172
  0
XRECORD
  5
197
102
{ACAD_REACTORS
330
196
102
}
330
196
100
AcDbXrecord
340
1E
  0
XRECORD
  5
195
102
{ACAD_REACTORS
330
194
102
}
330
194
100
AcDbXrecord
340
1A
  0
MLINESTYLE
  5
17
102
{ACAD_REACTORS
330
16
102
}
330
16
100
AcDbMlineStyle
  2
STANDARD
 70
     0
  3

 62
   256
 51
90.0
 52
90.0
 71
     2
 49
0.5
 62
   256
  6
BYLAYER
 49
-0.5
 62
   256
  6
BYLAYER
  0
ACDBPLACEHOLDER
  5
F
102
{ACAD_REACTORS
330
E
102
}
330
E
100
AcDbPlaceHolder
280
     0
  0
XRECORD
  5
17E
102
{ACAD_REACTORS
330
174
102
}
330
174
100
AcDbXrecord
 90
        0
  0
XRECORD
  5
17F
102
{ACAD_REACTORS
330
174
102
}
330
174
100
AcDbXrecord
  1
{B699D131-CC27-4686-970D-1EC40B1BC520}
  0
XRECORD
  5
177
102
{ACAD_REACTORS
330
174
102
}
330
174
100
AcDbXrecord
  1

  0
XRECORD
  5
17D
102
{ACAD_REACTORS
330
174
102
}
330
174
100
AcDbXrecord
 90
        0
  0
XRECORD
  5
179
102
{ACAD_REACTORS
330
174
102
}
330
174
100
AcDbXrecord
340
19
  0
XRECORD
  5
17C
102
{ACAD_REACTORS
330
174
102
}
330
174
100
AcDbXrecord
 90
    10781
  0
XRECORD
  5
17A
102
{ACAD_REACTORS
330
174
102
}
330
174
100
AcDbXrecord
340
18
  0
XRECORD
  5
17B
102
{ACAD_REACTORS
330
174
102
}
330
174
100
AcDbXrecord
340
E
  0
XRECORD
  5
181
102
{ACAD_REACTORS
330
174
102
}
330
174
100
AcDbXrecord
 40
0.0
  0
XRECORD
  5
184
102
{ACAD_REACTORS
330
174
102
}
330
174
100
AcDbXrecord
340
0
  0
XRECORD
  5
18A
102
{ACAD_REACTORS
330
174
102
}
330
174
100
AcDbXrecord
 10
0.0
 20
0.0
 30
0.0
  0
XRECORD
  5
186
102
{ACAD_REACTORS
330
174
102
}
330
174
100
AcDbXrecord
 10
0.0
 20
0.0
 30
0.0
  0
XRECORD
  5
189
102
{ACAD_REACTORS
330
174
102
}
330
174
100
AcDbXrecord
 10
0.0
 20
0.0
 30
0.0
  0
XRECORD
  5
187
102
{ACAD_REACTORS
330
174
102
}
330
174
100
AcDbXrecord
 10
0.0
 20
0.0
 30
0.0
  0
XRECORD
  5
188
102
{ACAD_REACTORS
330
174
102
}
330
174
100
AcDbXrecord
 10
0.0
 20
0.0
 30
0.0
  0
XRECORD
  5
185
102
{ACAD_REACTORS
330
174
102
}
330
174
100
AcDbXrecord
 10
0.0
 20
0.0
 30
0.0
  0
XRECORD
  5
182
102
{ACAD_REACTORS
330
174
102
}
330
174
100
AcDbXrecord
340
0
  0
XRECORD
  5
183
102
{ACAD_REACTORS
330
174
102
}
330
174
100
AcDbXrecord
 70
     0
  0
XRECORD
  5
178
102
{ACAD_REACTORS
330
174
102
}
330
174
100
AcDbXrecord
  1

  0
XRECORD
  5
175
102
{ACAD_REACTORS
330
174
102
}
330
174
100
AcDbXrecord
 90
        1
  0
XRECORD
  5
176
102
{ACAD_REACTORS
330
174
102
}
330
174
100
AcDbXrecord
 90
       70
  0
XRECORD
  5
18D
102
{ACAD_REACTORS
330
174
102
}
330
174
100
AcDbXrecord
340
0
  0
XRECORD
  5
193
102
{ACAD_REACTORS
330
174
102
}
330
174
100
AcDbXrecord
 10
0.0
 20
0.0
 30
0.0
  0
XRECORD
  5
18F
102
{ACAD_REACTORS
330
174
102
}
330
174
100
AcDbXrecord
 10
0.0
 20
0.0
 30
0.0
  0
XRECORD
  5
192
102
{ACAD_REACTORS
330
174
102
}
330
174
100
AcDbXrecord
 10
0.0
 20
0.0
 30
0.0
  0
XRECORD
  5
190
102
{ACAD_REACTORS
330
174
102
}
330
174
100
AcDbXrecord
 10
0.0
 20
0.0
 30
0.0
  0
XRECORD
  5
191
102
{ACAD_REACTORS
330
174
102
}
330
174
100
AcDbXrecord
 10
0.0
 20
0.0
 30
0.0
  0
XRECORD
  5
18E
102
{ACAD_REACTORS
330
174
102
}
330
174
100
AcDbXrecord
 10
0.0
 20
0.0
 30
0.0
  0
XRECORD
  5
18B
102
{ACAD_REACTORS
330
174
102
}
330
174
100
AcDbXrecord
340
0
  0
XRECORD
  5
18C
102
{ACAD_REACTORS
330
174
102
}
330
174
100
AcDbXrecord
 70
     1
  0
XRECORD
  5
180
102
{ACAD_REACTORS
330
174
102
}
330
174
100
AcDbXrecord
  1
{80B68B1B-06B2-4444-8E13-EB16F922A79B}
  0
DICTIONARYVAR
  5
172
102
{ACAD_REACTORS
330
171
102
}
330
171
100
DictionaryVariables
280
     0
  1
1
  0
ENDSEC
  0
EOF
