  0
SECTION
  2
HEADER
  9
$ACADVER
  1
AC1014
  9
$ACADMAINTVER
 70
     9
  9
$DWGCODEPAGE
  3
ANSI_1252
  9
$INSBASE
 10
0.0
 20
0.0
 30
0.0
  9
$EXTMIN
 10
-0.0000000000000014
 20
-0.0249999999999844
 30
0.0
  9
$EXTMAX
 10
52.0
 20
280.975
 30
0.0
  9
$LIMMIN
 10
0.0
 20
0.0
  9
$LIMMAX
 10
12.0
 20
9.0
  9
$ORTHOMODE
 70
     0
  9
$REGENMODE
 70
     1
  9
$FILLMODE
 70
     1
  9
$QTEXTMODE
 70
     0
  9
$MIRRTEXT
 70
     1
  9
$DRAGMODE
 70
     2
  9
$LTSCALE
 40
1.0
  9
$OSMODE
 70
    37
  9
$ATTMODE
 70
     1
  9
$TEXTSIZE
 40
0.2
  9
$TRACEWID
 40
0.05
  9
$TEXTSTYLE
  7
STANDARD
  9
$CLAYER
  8
0
  9
$CELTYPE
  6
CONTINUOUS
  9
$CECOLOR
 62
   256
  9
$CELTSCALE
 40
1.0
  9
$DELOBJ
 70
     1
  9
$DISPSILH
 70
     0
  9
$DIMSCALE
 40
1.0
  9
$DIMASZ
 40
0.18
  9
$DIMEXO
 40
0.0625
  9
$DIMDLI
 40
0.38
  9
$DIMRND
 40
0.0
  9
$DIMDLE
 40
0.0
  9
$DIMEXE
 40
0.18
  9
$DIMTP
 40
0.0
  9
$DIMTM
 40
0.0
  9
$DIMTXT
 40
0.18
  9
$DIMCEN
 40
0.09
  9
$DIMTSZ
 40
0.0
  9
$DIMTOL
 70
     0
  9
$DIMLIM
 70
     0
  9
$DIMTIH
 70
     1
  9
$DIMTOH
 70
     1
  9
$DIMSE1
 70
     0
  9
$DIMSE2
 70
     0
  9
$DIMTAD
 70
     0
  9
$DIMZIN
 70
     0
  9
$DIMBLK
  1

  9
$DIMASO
 70
     1
  9
$DIMSHO
 70
     1
  9
$DIMPOST
  1

  9
$DIMAPOST
  1

  9
$DIMALT
 70
     0
  9
$DIMALTD
 70
     2
  9
$DIMALTF
 40
25.4
  9
$DIMLFAC
 40
1.0
  9
$DIMTOFL
 70
     0
  9
$DIMTVP
 40
0.0
  9
$DIMTIX
 70
     0
  9
$DIMSOXD
 70
     0
  9
$DIMSAH
 70
     0
  9
$DIMBLK1
  1

  9
$DIMBLK2
  1

  9
$DIMSTYLE
  2
STANDARD
  9
$DIMCLRD
 70
     0
  9
$DIMCLRE
 70
     0
  9
$DIMCLRT
 70
     0
  9
$DIMTFAC
 40
1.0
  9
$DIMGAP
 40
0.09
  9
$DIMJUST
 70
     0
  9
$DIMSD1
 70
     0
  9
$DIMSD2
 70
     0
  9
$DIMTOLJ
 70
     1
  9
$DIMTZIN
 70
     0
  9
$DIMALTZ
 70
     0
  9
$DIMALTTZ
 70
     0
  9
$DIMFIT
 70
     3
  9
$DIMUPT
 70
     0
  9
$DIMUNIT
 70
     2
  9
$DIMDEC
 70
     4
  9
$DIMTDEC
 70
     4
  9
$DIMALTU
 70
     2
  9
$DIMALTTD
 70
     2
  9
$DIMTXSTY
  7
STANDARD
  9
$DIMAUNIT
 70
     0
  9
$LUNITS
 70
     2
  9
$LUPREC
 70
     4
  9
$SKETCHINC
 40
0.1
  9
$FILLETRAD
 40
0.0
  9
$AUNITS
 70
     0
  9
$AUPREC
 70
     0
  9
$MENU
  1
.
  9
$ELEVATION
 40
0.0
  9
$PELEVATION
 40
0.0
  9
$THICKNESS
 40
0.0
  9
$LIMCHECK
 70
     0
  9
$BLIPMODE
 70
     0
  9
$CHAMFERA
 40
0.0
  9
$CHAMFERB
 40
0.0
  9
$CHAMFERC
 40
0.0
  9
$CHAMFERD
 40
0.0
  9
$SKPOLY
 70
     0
  9
$TDCREATE
 40
2454692.676250532
  9
$TDUPDATE
 40
2454692.680107060
  9
$TDINDWG
 40
0.0038567014
  9
$TDUSRTIMER
 40
0.0038567014
  9
$USRTIMER
 70
     1
  9
$ANGBASE
 50
0.0
  9
$ANGDIR
 70
     0
  9
$PDMODE
 70
     0
  9
$PDSIZE
 40
0.0
  9
$PLINEWID
 40
0.0
  9
$COORDS
 70
     1
  9
$SPLFRAME
 70
     0
  9
$SPLINETYPE
 70
     6
  9
$SPLINESEGS
 70
     8
  9
$ATTDIA
 70
     0
  9
$ATTREQ
 70
     1
  9
$HANDLING
 70
 22529
  9
$HANDSEED
  5
1B6
  9
$SURFTAB1
 70
     6
  9
$SURFTAB2
 70
     6
  9
$SURFTYPE
 70
     6
  9
$SURFU
 70
     6
  9
$SURFV
 70
     6
  9
$UCSNAME
  2

  9
$UCSORG
 10
0.0
 20
0.0
 30
0.0
  9
$UCSXDIR
 10
1.0
 20
0.0
 30
0.0
  9
$UCSYDIR
 10
0.0
 20
1.0
 30
0.0
  9
$PUCSNAME
  2

  9
$PUCSORG
 10
0.0
 20
0.0
 30
0.0
  9
$PUCSXDIR
 10
1.0
 20
0.0
 30
0.0
  9
$PUCSYDIR
 10
0.0
 20
1.0
 30
0.0
  9
$USERI1
 70
     0
  9
$USERI2
 70
     0
  9
$USERI3
 70
     0
  9
$USERI4
 70
     0
  9
$USERI5
 70
     0
  9
$USERR1
 40
0.0
  9
$USERR2
 40
0.0
  9
$USERR3
 40
0.0
  9
$USERR4
 40
0.0
  9
$USERR5
 40
0.0
  9
$WORLDVIEW
 70
     1
  9
$SHADEDGE
 70
     3
  9
$SHADEDIF
 70
    70
  9
$TILEMODE
 70
     1
  9
$MAXACTVP
 70
    64
  9
$PINSBASE
 10
0.0
 20
0.0
 30
0.0
  9
$PLIMCHECK
 70
     0
  9
$PEXTMIN
 10
1.000000000000000E+20
 20
1.000000000000000E+20
 30
1.000000000000000E+20
  9
$PEXTMAX
 10
-1.000000000000000E+20
 20
-1.000000000000000E+20
 30
-1.000000000000000E+20
  9
$PLIMMIN
 10
0.0
 20
0.0
  9
$PLIMMAX
 10
12.0
 20
9.0
  9
$UNITMODE
 70
     0
  9
$VISRETAIN
 70
     1
  9
$PLINEGEN
 70
     0
  9
$PSLTSCALE
 70
     1
  9
$TREEDEPTH
 70
  3020
  9
$PICKSTYLE
 70
     1
  9
$CMLSTYLE
  2
STANDARD
  9
$CMLJUST
 70
     0
  9
$CMLSCALE
 40
1.0
  9
$PROXYGRAPHICS
 70
     1
  9
$MEASUREMENT
 70
     0
  0
ENDSEC
  0
SECTION
  2
CLASSES
  0
CLASS
  1
ACDBDICTIONARYWDFLT
  2
AcDbDictionaryWithDefault
  3
AutoCAD 2000
 90
        0
280
     0
281
     0
  0
CLASS
  1
ACDBPLACEHOLDER
  2
AcDbPlaceHolder
  3
AutoCAD 2000
 90
        0
280
     0
281
     0
  0
CLASS
  1
LAYOUT
  2
AcDbLayout
  3
AutoCAD 2000
 90
        0
280
     0
281
     0
  0
CLASS
  1
DICTIONARYVAR
  2
AcDbDictionaryVar
  3
AutoCAD 2000
 90
        0
280
     0
281
     0
  0
CLASS
  1
LONG_TRANSACTION
  2
AcDbLongTransaction
  3
AutoCAD 2000
 90
        0
280
     0
281
     0
  0
CLASS
  1
LWPOLYLINE
  2
AcDbPolyline
  3
AutoCAD 2000
 90
        0
280
     0
281
     1
  0
CLASS
  1
HATCH
  2
AcDbHatch
  3
AutoCAD 2000
 90
        0
280
     0
281
     1
  0
CLASS
  1
XRECORD
  2
AcDbXrecord
  3
AutoCAD 2000
 90
        0
280
     0
281
     0
  0
ENDSEC
  0
SECTION
  2
TABLES
  0
TABLE
  2
VPORT
  5
8
330
0
100
AcDbSymbolTable
 70
     6
  0
VPORT
  5
191
330
8
100
AcDbSymbolTableRecord
100
AcDbViewportTableRecord
  2
*ACTIVE
 70
     0
 10
0.0
 20
0.0
 11
1.0
 21
1.0
 12
26.0
 22
140.475
 13
0.0
 23
0.0
 14
1.0
 24
1.0
 15
0.0
 25
0.0
 16
0.0
 26
0.0
 36
1.0
 17
0.0
 27
0.0
 37
0.0
 40
283.156010230179
 41
2.078104993597951
 42
50.0
 43
0.0
 44
0.0
 50
0.0
 51
0.0
 71
     0
 72
   100
 73
     1
 74
     3
 75
     0
 76
     0
 77
     0
 78
     0
  0
ENDTAB
  0
TABLE
  2
LTYPE
  5
5
330
0
100
AcDbSymbolTable
 70
     1
  0
LTYPE
  5
13
330
5
100
AcDbSymbolTableRecord
100
AcDbLinetypeTableRecord
  2
BYBLOCK
 70
     0
  3

 72
    65
 73
     0
 40
0.0
  0
LTYPE
  5
14
330
5
100
AcDbSymbolTableRecord
100
AcDbLinetypeTableRecord
  2
BYLAYER
 70
     0
  3

 72
    65
 73
     0
 40
0.0
  0
LTYPE
  5
15
330
5
100
AcDbSymbolTableRecord
100
AcDbLinetypeTableRecord
  2
CONTINUOUS
 70
     0
  3
Solid line
 72
    65
 73
     0
 40
0.0
  0
ENDTAB
  0
TABLE
  2
LAYER
  5
2
330
0
100
AcDbSymbolTable
 70
     1
  0
LAYER
  5
10
330
2
100
AcDbSymbolTableRecord
100
AcDbLayerTableRecord
  2
0
 70
     0
 62
     7
  6
CONTINUOUS
  0
ENDTAB
  0
TABLE
  2
STYLE
  5
3
330
0
100
AcDbSymbolTable
 70
     1
  0
STYLE
  5
11
330
3
100
AcDbSymbolTableRecord
100
AcDbTextStyleTableRecord
  2
STANDARD
 70
     0
 40
0.0
 41
1.0
 50
0.0
 71
     0
 42
0.2
  3
txt
  4

  0
ENDTAB
  0
TABLE
  2
VIEW
  5
6
330
0
100
AcDbSymbolTable
 70
     0
  0
ENDTAB
  0
TABLE
  2
UCS
  5
7
330
0
100
AcDbSymbolTable
 70
     0
  0
ENDTAB
  0
TABLE
  2
APPID
  5
9
330
0
100
AcDbSymbolTable
 70
     1
  0
APPID
  5
12
330
9
100
AcDbSymbolTableRecord
100
AcDbRegAppTableRecord
  2
ACAD
 70
     0
  0
ENDTAB
  0
TABLE
  2
DIMSTYLE
  5
A
330
0
100
AcDbSymbolTable
 70
     1
  0
DIMSTYLE
105
F1
330
A
100
AcDbSymbolTableRecord
100
AcDbDimStyleTableRecord
  2
STANDARD
 70
     0
  3

  4

  5

  6

  7

 40
1.0
 41
0.18
 42
0.0625
 43
0.38
 44
0.18
 45
0.0
 46
0.0
 47
0.0
 48
0.0
140
0.18
141
0.09
142
0.0
143
25.4
144
1.0
145
0.0
146
1.0
147
0.09
 71
     0
 72
     0
 73
     1
 74
     1
 75
     0
 76
     0
 77
     0
 78
     0
170
     0
171
     2
172
     0
173
     0
174
     0
175
     0
176
     0
177
     0
178
     0
270
     2
271
     4
272
     4
273
     2
274
     2
340
11
275
     0
280
     0
281
     0
282
     0
283
     1
284
     0
285
     0
286
     0
287
     3
288
     0
  0
ENDTAB
  0
TABLE
  2
BLOCK_RECORD
  5
1
330
0
100
AcDbSymbolTable
 70
     0
  0
BLOCK_RECORD
  5
1E
102
{ACAD_XDICTIONARY
360
1B4
102
}
330
1
100
AcDbSymbolTableRecord
100
AcDbBlockTableRecord
  2
*MODEL_SPACE
  0
BLOCK_RECORD
  5
1A
102
{ACAD_XDICTIONARY
360
1B2
102
}
330
1
100
AcDbSymbolTableRecord
100
AcDbBlockTableRecord
  2
*PAPER_SPACE
  0
ENDTAB
  0
ENDSEC
  0
SECTION
  2
BLOCKS
  0
BLOCK
  5
1F
330
1E
100
AcDbEntity
  8
0
100
AcDbBlockBegin
  2
*MODEL_SPACE
 70
     0
 10
0.0
 20
0.0
 30
0.0
  3
*MODEL_SPACE
  1

  0
ENDBLK
  5
20
330
1E
100
AcDbEntity
  8
0
100
AcDbBlockEnd
  0
BLOCK
  5
1B
330
1A
100
AcDbEntity
 67
     1
  8
0
100
AcDbBlockBegin
  2
*PAPER_SPACE
 70
     0
 10
0.0
 20
0.0
 30
0.0
  3
*PAPER_SPACE
  1

  0
ENDBLK
  5
1C
330
1A
100
AcDbEntity
 67
     1
  8
0
100
AcDbBlockEnd
  0
ENDSEC
  0
SECTION
  2
ENTITIES
  0
LINE
  5
22
330
1E
100
AcDbEntity
  8
0
100
AcDbLine
 10
-0.0000000000000014
 20
191.8334999999999
 30
0.0
 11
0.5571429999999991
 21
190.5158999999999
 31
0.0
  0
LINE
  5
23
330
1E
100
AcDbEntity
  8
0
100
AcDbLine
 10
-0.0000000000000014
 20
191.8334999999999
 30
0.0
 11
-0.0000000000000014
 21
221.01
 31
0.0
  0
LINE
  5
24
330
1E
100
AcDbEntity
  8
0
100
AcDbLine
 10
-0.0000000000000014
 20
221.01
 30
0.0
 11
-0.0000000000000014
 21
191.8334999999999
 31
0.0
  0
LINE
  5
25
330
1E
100
AcDbEntity
  8
0
100
AcDbLine
 10
-0.0000000000000014
 20
221.01
 30
0.0
 11
0.9285709999999989
 21
221.01
 31
0.0
  0
LINE
  5
26
330
1E
100
AcDbEntity
  8
0
100
AcDbLine
 10
0.5571429999999991
 20
190.5158999999999
 30
0.0
 11
1.85714
 21
189.9511699999999
 31
0.0
  0
LINE
  5
27
330
1E
100
AcDbEntity
  8
0
100
AcDbLine
 10
0.5571429999999991
 20
190.5158999999999
 30
0.0
 11
1.48571
 21
190.5158999999999
 31
0.0
  0
LINE
  5
28
330
1E
100
AcDbEntity
  8
0
100
AcDbLine
 10
0.5571429999999991
 20
190.5158999999999
 30
0.0
 11
1.48571
 21
190.5158999999999
 31
0.0
  0
LINE
  5
29
330
1E
100
AcDbEntity
  8
0
100
AcDbLine
 10
0.5571429999999991
 20
190.5158999999999
 30
0.0
 11
1.85714
 21
189.9511699999999
 31
0.0
  0
LINE
  5
2A
330
1E
100
AcDbEntity
  8
0
100
AcDbLine
 10
0.9285709999999989
 20
221.01
 30
0.0
 11
3.62143
 21
221.01
 31
0.0
  0
LINE
  5
2B
330
1E
100
AcDbEntity
  8
0
100
AcDbLine
 10
0.9999999999999989
 20
222.3819999999999
 30
0.0
 11
0.9999999999999989
 21
222.975
 31
0.0
  0
LINE
  5
2C
330
1E
100
AcDbEntity
  8
0
100
AcDbLine
 10
0.9999999999999989
 20
222.3819999999999
 30
0.0
 11
1.171531493383739
 21
221.01
 31
0.0
  0
LINE
  5
2D
330
1E
100
AcDbEntity
  8
0
100
AcDbLine
 10
0.8999999999999989
 20
223.9749999999999
 30
0.0
 11
3.5
 21
223.9749999999999
 31
0.0
  0
LINE
  5
2E
330
1E
100
AcDbEntity
  8
0
100
AcDbLine
 10
1.85714
 20
189.9511699999999
 30
0.0
 11
6.0
 21
189.760300716528
 31
0.0
  0
LINE
  5
2F
330
1E
100
AcDbEntity
  8
0
100
AcDbLine
 10
1.48571
 20
190.5158999999999
 30
0.0
 11
4.085709999999999
 21
190.5158999999999
 31
0.0
  0
LINE
  5
30
330
1E
100
AcDbEntity
  8
0
100
AcDbLine
 10
1.48571
 20
190.5158999999999
 30
0.0
 11
4.085709999999999
 21
190.5158999999999
 31
0.0
  0
LINE
  5
31
330
1E
100
AcDbEntity
  8
0
100
AcDbLine
 10
1.925929999999999
 20
222.975
 30
0.0
 11
4.33333
 21
222.975
 31
0.0
  0
LINE
  5
32
330
1E
100
AcDbEntity
  8
0
100
AcDbLine
 10
1.9
 20
222.975
 30
0.0
 11
4.299999999999999
 21
222.975
 31
0.0
  0
LINE
  5
33
330
1E
100
AcDbEntity
  8
0
100
AcDbLine
 10
0.9999999999999989
 20
222.975
 30
0.0
 11
1.9
 21
222.975
 31
0.0
  0
LINE
  5
34
330
1E
100
AcDbEntity
  8
0
100
AcDbLine
 10
0.9999999999999989
 20
222.975
 30
0.0
 11
0.9999999999999989
 21
222.3819999999999
 31
0.0
  0
LINE
  5
35
330
1E
100
AcDbEntity
  8
0
100
AcDbLine
 10
0.9999999999999989
 20
222.975
 30
0.0
 11
1.925929999999999
 21
222.975
 31
0.0
  0
LINE
  5
36
330
1E
100
AcDbEntity
  8
0
100
AcDbLine
 10
0.8999999999999989
 20
223.9749999999999
 30
0.0
 11
3.5
 21
223.9749999999999
 31
0.0
  0
LINE
  5
37
330
1E
100
AcDbEntity
  8
0
100
AcDbLine
 10
4.085709999999999
 20
190.5158999999999
 30
0.0
 11
6.0
 21
190.5158999999999
 31
0.0
  0
LINE
  5
38
330
1E
100
AcDbEntity
  8
0
100
AcDbLine
 10
3.62143
 20
221.01
 30
0.0
 11
7.89286
 21
221.01
 31
0.0
  0
LINE
  5
39
330
1E
100
AcDbEntity
  8
0
100
AcDbLine
 10
6.299999999999999
 20
197.9663
 30
0.0
 11
7.2
 21
199.2464999999999
 31
0.0
  0
LINE
  5
3A
330
1E
100
AcDbEntity
  8
0
100
AcDbLine
 10
6.0
 20
196.4891
 30
0.0
 11
6.0
 21
186.9384
 31
0.0
  0
LINE
  5
3B
330
1E
100
AcDbEntity
  8
0
100
AcDbLine
 10
6.0
 20
196.4891
 30
0.0
 11
6.299999999999999
 21
197.9663
 31
0.0
  0
LINE
  5
3C
330
1E
100
AcDbEntity
  8
0
100
AcDbLine
 10
6.0
 20
186.9384
 30
0.0
 11
6.0
 21
196.4891
 31
0.0
  0
LINE
  5
3D
330
1E
100
AcDbEntity
  8
0
100
AcDbLine
 10
6.0
 20
186.9384
 30
0.0
 11
6.299999999999999
 21
185.4611899999999
 31
0.0
  0
LINE
  5
3E
330
1E
100
AcDbEntity
  8
0
100
AcDbLine
 10
4.33333
 20
222.975
 30
0.0
 11
8.314819999999999
 21
222.975
 31
0.0
  0
LINE
  5
3F
330
1E
100
AcDbEntity
  8
0
100
AcDbLine
 10
4.299999999999999
 20
222.975
 30
0.0
 11
8.314819999999999
 21
222.975
 31
0.0
  0
LINE
  5
40
330
1E
100
AcDbEntity
  8
0
100
AcDbLine
 10
3.5
 20
223.9749999999999
 30
0.0
 11
7.599999999999999
 21
223.9749999999999
 31
0.0
  0
LINE
  5
41
330
1E
100
AcDbEntity
  8
0
100
AcDbLine
 10
7.599999999999999
 20
223.9749999999999
 30
0.0
 11
12.0
 21
223.9749999999999
 31
0.0
  0
LINE
  5
42
330
1E
100
AcDbEntity
  8
0
100
AcDbLine
 10
-0.0000000000000014
 20
223.9749999999999
 30
0.0
 11
-0.0000000000000014
 21
254.9749999999999
 31
0.0
  0
LINE
  5
43
330
1E
100
AcDbEntity
  8
0
100
AcDbLine
 10
-0.0000000000000014
 20
223.9749999999999
 30
0.0
 11
0.8999999999999989
 21
223.9749999999999
 31
0.0
  0
LINE
  5
44
330
1E
100
AcDbEntity
  8
0
100
AcDbLine
 10
-0.0000000000000014
 20
223.9749999999999
 30
0.0
 11
0.9999999999999989
 21
222.975
 31
0.0
  0
LINE
  5
45
330
1E
100
AcDbEntity
  8
0
100
AcDbLine
 10
0.8999999999999989
 20
248.275
 30
0.0
 11
3.5
 21
242.0749999999999
 31
0.0
  0
LINE
  5
46
330
1E
100
AcDbEntity
  8
0
100
AcDbLine
 10
0.8999999999999989
 20
261.675
 30
0.0
 11
3.5
 21
267.8749999999999
 31
0.0
  0
LINE
  5
47
330
1E
100
AcDbEntity
  8
0
100
AcDbLine
 10
0.8999999999999989
 20
261.675
 30
0.0
 11
3.5
 21
267.8749999999999
 31
0.0
  0
LINE
  5
48
330
1E
100
AcDbEntity
  8
0
100
AcDbLine
 10
-0.0000000000000014
 20
254.9749999999999
 30
0.0
 11
0.8999999999999989
 21
248.275
 31
0.0
  0
LINE
  5
49
330
1E
100
AcDbEntity
  8
0
100
AcDbLine
 10
-0.0000000000000014
 20
254.9749999999999
 30
0.0
 11
-0.0000000000000014
 21
223.9749999999999
 31
0.0
  0
LINE
  5
4A
330
1E
100
AcDbEntity
  8
0
100
AcDbLine
 10
-0.0000000000000014
 20
254.9749999999999
 30
0.0
 11
0.8999999999999989
 21
261.675
 31
0.0
  0
LINE
  5
4B
330
1E
100
AcDbEntity
  8
0
100
AcDbLine
 10
5.2
 20
242.9749999999999
 30
0.0
 11
9.099999999999999
 21
238.0749999999999
 31
0.0
  0
LINE
  5
4C
330
1E
100
AcDbEntity
  8
0
100
AcDbLine
 10
2.9
 20
248.775
 30
0.0
 11
5.2
 21
242.9749999999999
 31
0.0
  0
LINE
  5
4D
330
1E
100
AcDbEntity
  8
0
100
AcDbLine
 10
2.9
 20
261.175
 30
0.0
 11
5.2
 21
266.975
 31
0.0
  0
LINE
  5
4E
330
1E
100
AcDbEntity
  8
0
100
AcDbLine
 10
5.2
 20
266.975
 30
0.0
 11
9.099999999999999
 21
271.875
 31
0.0
  0
LINE
  5
4F
330
1E
100
AcDbEntity
  8
0
100
AcDbLine
 10
3.5
 20
267.8749999999999
 30
0.0
 11
7.599999999999999
 21
273.375
 31
0.0
  0
LINE
  5
50
330
1E
100
AcDbEntity
  8
0
100
AcDbLine
 10
7.599999999999999
 20
273.375
 30
0.0
 11
13.1
 21
277.475
 31
0.0
  0
LINE
  5
51
330
1E
100
AcDbEntity
  8
0
100
AcDbLine
 10
2.0
 20
254.9749999999999
 30
0.0
 11
2.9
 21
248.775
 31
0.0
  0
LINE
  5
52
330
1E
100
AcDbEntity
  8
0
100
AcDbLine
 10
2.0
 20
254.9749999999999
 30
0.0
 11
2.9
 21
261.175
 31
0.0
  0
LINE
  5
53
330
1E
100
AcDbEntity
  8
0
100
AcDbLine
 10
0.8999999999999989
 20
248.275
 30
0.0
 11
3.5
 21
242.0749999999999
 31
0.0
  0
LINE
  5
54
330
1E
100
AcDbEntity
  8
0
100
AcDbLine
 10
3.5
 20
242.0749999999999
 30
0.0
 11
7.599999999999999
 21
236.5749999999999
 31
0.0
  0
LINE
  5
55
330
1E
100
AcDbEntity
  8
0
100
AcDbLine
 10
7.89286
 20
221.01
 30
0.0
 11
12.0
 21
221.01
 31
0.0
  0
LINE
  5
56
330
1E
100
AcDbEntity
  8
0
100
AcDbLine
 10
7.799999999999999
 20
183.2779699999999
 30
0.0
 11
9.099999999999999
 21
182.5132
 31
0.0
  0
LINE
  5
57
330
1E
100
AcDbEntity
  8
0
100
AcDbLine
 10
8.314819999999999
 20
222.975
 30
0.0
 11
12.0
 21
222.975
 31
0.0
  0
LINE
  5
58
330
1E
100
AcDbEntity
  8
0
100
AcDbLine
 10
12.0
 20
34.475
 30
0.0
 11
12.0
 21
44.375
 31
0.0
  0
LINE
  5
59
330
1E
100
AcDbEntity
  8
0
100
AcDbLine
 10
12.0
 20
34.475
 30
0.0
 11
12.0
 21
25.975
 31
0.0
  0
LINE
  5
5A
330
1E
100
AcDbEntity
  8
0
100
AcDbLine
 10
12.0
 20
44.375
 30
0.0
 11
12.0
 21
54.975
 31
0.0
  0
LINE
  5
5B
330
1E
100
AcDbEntity
  8
0
100
AcDbLine
 10
12.0
 20
44.375
 30
0.0
 11
12.0
 21
34.475
 31
0.0
  0
LINE
  5
5C
330
1E
100
AcDbEntity
  8
0
100
AcDbLine
 10
10.8
 20
181.76651
 30
0.0
 11
12.0
 21
181.498595428571
 31
0.0
  0
LINE
  5
5D
330
1E
100
AcDbEntity
  8
0
100
AcDbLine
 10
9.099999999999999
 20
182.5132
 30
0.0
 11
10.8
 21
181.76651
 31
0.0
  0
LINE
  5
5E
330
1E
100
AcDbEntity
  8
0
100
AcDbLine
 10
12.0
 20
54.975
 30
0.0
 11
12.0
 21
44.375
 31
0.0
  0
LINE
  5
5F
330
1E
100
AcDbEntity
  8
0
100
AcDbLine
 10
12.0
 20
54.975
 30
0.0
 11
12.0
 21
213.9749999999999
 31
0.0
  0
LINE
  5
60
330
1E
100
AcDbEntity
  8
0
100
AcDbLine
 10
12.0
 20
25.975
 30
0.0
 11
12.0
 21
19.475
 31
0.0
  0
LINE
  5
61
330
1E
100
AcDbEntity
  8
0
100
AcDbLine
 10
12.0
 20
25.975
 30
0.0
 11
12.0
 21
34.475
 31
0.0
  0
LINE
  5
62
330
1E
100
AcDbEntity
  8
0
100
AcDbLine
 10
12.0
 20
19.475
 30
0.0
 11
12.0
 21
15.375
 31
0.0
  0
LINE
  5
63
330
1E
100
AcDbEntity
  8
0
100
AcDbLine
 10
12.0
 20
19.475
 30
0.0
 11
12.0
 21
25.975
 31
0.0
  0
LINE
  5
64
330
1E
100
AcDbEntity
  8
0
100
AcDbLine
 10
12.0
 20
15.375
 30
0.0
 11
12.0
 21
13.97499999999999
 31
0.0
  0
LINE
  5
65
330
1E
100
AcDbEntity
  8
0
100
AcDbLine
 10
12.0
 20
15.375
 30
0.0
 11
12.0
 21
19.475
 31
0.0
  0
LINE
  5
66
330
1E
100
AcDbEntity
  8
0
100
AcDbLine
 10
12.0
 20
13.97499999999999
 30
0.0
 11
12.5
 21
10.375
 31
0.0
  0
LINE
  5
67
330
1E
100
AcDbEntity
  8
0
100
AcDbLine
 10
12.0
 20
13.97499999999999
 30
0.0
 11
12.0
 21
15.375
 31
0.0
  0
LINE
  5
68
330
1E
100
AcDbEntity
  8
0
100
AcDbLine
 10
12.0
 20
13.97499999999999
 30
0.0
 11
12.5
 21
10.375
 31
0.0
  0
LINE
  5
69
330
1E
100
AcDbEntity
  8
0
100
AcDbLine
 10
26.0
 20
-0.0249999999999844
 30
0.0
 11
29.6
 21
0.475000000000016
 31
0.0
  0
LINE
  5
6A
330
1E
100
AcDbEntity
  8
0
100
AcDbLine
 10
29.6
 20
0.475000000000016
 30
0.0
 11
33.0
 21
1.875000000000019
 31
0.0
  0
LINE
  5
6B
330
1E
100
AcDbEntity
  8
0
100
AcDbLine
 10
26.0
 20
-0.0249999999999844
 30
0.0
 11
29.6
 21
0.475000000000016
 31
0.0
  0
LINE
  5
6C
330
1E
100
AcDbEntity
  8
0
100
AcDbLine
 10
29.6
 20
0.475000000000016
 30
0.0
 11
33.0
 21
1.875000000000019
 31
0.0
  0
LINE
  5
6D
330
1E
100
AcDbEntity
  8
0
100
AcDbLine
 10
33.0
 20
1.875000000000019
 30
0.0
 11
35.89999999999999
 21
4.07500000000002
 31
0.0
  0
LINE
  5
6E
330
1E
100
AcDbEntity
  8
0
100
AcDbLine
 10
33.0
 20
1.875000000000019
 30
0.0
 11
35.89999999999999
 21
4.07500000000002
 31
0.0
  0
LINE
  5
6F
330
1E
100
AcDbEntity
  8
0
100
AcDbLine
 10
33.0
 20
1.875000000000019
 30
0.0
 11
35.89999999999999
 21
4.07500000000002
 31
0.0
  0
LINE
  5
70
330
1E
100
AcDbEntity
  8
0
100
AcDbLine
 10
35.89999999999999
 20
4.07500000000002
 30
0.0
 11
38.1
 21
6.975000000000009
 31
0.0
  0
LINE
  5
71
330
1E
100
AcDbEntity
  8
0
100
AcDbLine
 10
33.0
 20
1.875000000000019
 30
0.0
 11
35.89999999999999
 21
4.07500000000002
 31
0.0
  0
LINE
  5
72
330
1E
100
AcDbEntity
  8
0
100
AcDbLine
 10
22.39999999999999
 20
0.475000000000016
 30
0.0
 11
26.0
 21
-0.0249999999999844
 31
0.0
  0
LINE
  5
73
330
1E
100
AcDbEntity
  8
0
100
AcDbLine
 10
22.39999999999999
 20
0.475000000000016
 30
0.0
 11
26.0
 21
-0.0249999999999844
 31
0.0
  0
LINE
  5
74
330
1E
100
AcDbEntity
  8
0
100
AcDbLine
 10
19.0
 20
1.875000000000019
 30
0.0
 11
22.39999999999999
 21
0.475000000000016
 31
0.0
  0
LINE
  5
75
330
1E
100
AcDbEntity
  8
0
100
AcDbLine
 10
19.0
 20
1.875000000000019
 30
0.0
 11
22.39999999999999
 21
0.475000000000016
 31
0.0
  0
LINE
  5
76
330
1E
100
AcDbEntity
  8
0
100
AcDbLine
 10
38.1
 20
6.975000000000009
 30
0.0
 11
39.5
 21
10.375
 31
0.0
  0
LINE
  5
77
330
1E
100
AcDbEntity
  8
0
100
AcDbLine
 10
39.5
 20
10.375
 30
0.0
 11
40.0
 21
13.97499999999999
 31
0.0
  0
LINE
  5
78
330
1E
100
AcDbEntity
  8
0
100
AcDbLine
 10
16.1
 20
4.07500000000002
 30
0.0
 11
19.0
 21
1.875000000000019
 31
0.0
  0
LINE
  5
79
330
1E
100
AcDbEntity
  8
0
100
AcDbLine
 10
16.1
 20
4.07500000000002
 30
0.0
 11
19.0
 21
1.875000000000019
 31
0.0
  0
LINE
  5
7A
330
1E
100
AcDbEntity
  8
0
100
AcDbLine
 10
12.5
 20
10.375
 30
0.0
 11
13.9
 21
6.975000000000009
 31
0.0
  0
LINE
  5
7B
330
1E
100
AcDbEntity
  8
0
100
AcDbLine
 10
40.0
 20
181.498595428571
 30
0.0
 11
41.2
 21
181.76651
 31
0.0
  0
LINE
  5
7C
330
1E
100
AcDbEntity
  8
0
100
AcDbLine
 10
40.0
 20
34.475
 30
0.0
 11
40.0
 21
44.375
 31
0.0
  0
LINE
  5
7D
330
1E
100
AcDbEntity
  8
0
100
AcDbLine
 10
40.0
 20
34.475
 30
0.0
 11
40.0
 21
25.975
 31
0.0
  0
LINE
  5
7E
330
1E
100
AcDbEntity
  8
0
100
AcDbLine
 10
40.0
 20
44.375
 30
0.0
 11
40.0
 21
54.975
 31
0.0
  0
LINE
  5
7F
330
1E
100
AcDbEntity
  8
0
100
AcDbLine
 10
40.0
 20
44.375
 30
0.0
 11
40.0
 21
34.475
 31
0.0
  0
LINE
  5
80
330
1E
100
AcDbEntity
  8
0
100
AcDbLine
 10
40.0
 20
25.975
 30
0.0
 11
40.0
 21
19.475
 31
0.0
  0
LINE
  5
81
330
1E
100
AcDbEntity
  8
0
100
AcDbLine
 10
40.0
 20
25.975
 30
0.0
 11
40.0
 21
34.475
 31
0.0
  0
LINE
  5
82
330
1E
100
AcDbEntity
  8
0
100
AcDbLine
 10
40.0
 20
19.475
 30
0.0
 11
40.0
 21
15.375
 31
0.0
  0
LINE
  5
83
330
1E
100
AcDbEntity
  8
0
100
AcDbLine
 10
40.0
 20
19.475
 30
0.0
 11
40.0
 21
25.975
 31
0.0
  0
LINE
  5
84
330
1E
100
AcDbEntity
  8
0
100
AcDbLine
 10
40.0
 20
15.375
 30
0.0
 11
40.0
 21
13.97499999999999
 31
0.0
  0
LINE
  5
85
330
1E
100
AcDbEntity
  8
0
100
AcDbLine
 10
40.0
 20
15.375
 30
0.0
 11
40.0
 21
19.475
 31
0.0
  0
LINE
  5
86
330
1E
100
AcDbEntity
  8
0
100
AcDbLine
 10
40.0
 20
13.97499999999999
 30
0.0
 11
40.0
 21
15.375
 31
0.0
  0
LINE
  5
87
330
1E
100
AcDbEntity
  8
0
100
AcDbLine
 10
40.0
 20
221.01
 30
0.0
 11
44.1071
 21
221.01
 31
0.0
  0
LINE
  5
88
330
1E
100
AcDbEntity
  8
0
100
AcDbLine
 10
40.0
 20
222.975
 30
0.0
 11
43.6
 21
222.975
 31
0.0
  0
LINE
  5
89
330
1E
100
AcDbEntity
  8
0
100
AcDbLine
 10
40.0
 20
222.975
 30
0.0
 11
43.6852
 21
222.975
 31
0.0
  0
LINE
  5
8A
330
1E
100
AcDbEntity
  8
0
100
AcDbLine
 10
40.0
 20
223.9749999999999
 30
0.0
 11
44.4
 21
223.9749999999999
 31
0.0
  0
LINE
  5
8B
330
1E
100
AcDbEntity
  8
0
100
AcDbLine
 10
40.0
 20
224.575
 30
0.0
 11
40.0
 21
213.9749999999999
 31
0.0
  0
LINE
  5
8C
330
1E
100
AcDbEntity
  8
0
100
AcDbLine
 10
40.0
 20
224.575
 30
0.0
 11
40.0
 21
234.4749999999999
 31
0.0
  0
LINE
  5
8D
330
1E
100
AcDbEntity
  8
0
100
AcDbLine
 10
40.0
 20
213.9749999999999
 30
0.0
 11
40.0
 21
54.975
 31
0.0
  0
LINE
  5
8E
330
1E
100
AcDbEntity
  8
0
100
AcDbLine
 10
40.0
 20
213.9749999999999
 30
0.0
 11
40.0
 21
224.575
 31
0.0
  0
LINE
  5
8F
330
1E
100
AcDbEntity
  8
0
100
AcDbLine
 10
41.2
 20
181.76651
 30
0.0
 11
42.9
 21
182.5132
 31
0.0
  0
LINE
  5
90
330
1E
100
AcDbEntity
  8
0
100
AcDbLine
 10
42.9
 20
182.5132
 30
0.0
 11
44.2
 21
183.2779699999999
 31
0.0
  0
LINE
  5
91
330
1E
100
AcDbEntity
  8
0
100
AcDbLine
 10
46.0
 20
189.7602996211189
 30
0.0
 11
50.14289999999999
 21
189.9511699999999
 31
0.0
  0
LINE
  5
92
330
1E
100
AcDbEntity
  8
0
100
AcDbLine
 10
46.0
 20
190.5158999999999
 30
0.0
 11
47.9143
 21
190.5158999999999
 31
0.0
  0
LINE
  5
93
330
1E
100
AcDbEntity
  8
0
100
AcDbLine
 10
46.0
 20
186.9384
 30
0.0
 11
46.0
 21
196.4891
 31
0.0
  0
LINE
  5
94
330
1E
100
AcDbEntity
  8
0
100
AcDbLine
 10
44.1071
 20
221.01
 30
0.0
 11
48.3786
 21
221.01
 31
0.0
  0
LINE
  5
95
330
1E
100
AcDbEntity
  8
0
100
AcDbLine
 10
44.79999999999999
 20
199.2464999999999
 30
0.0
 11
45.7
 21
197.9663
 31
0.0
  0
LINE
  5
96
330
1E
100
AcDbEntity
  8
0
100
AcDbLine
 10
45.7
 20
197.9663
 30
0.0
 11
46.0
 21
196.4891
 31
0.0
  0
LINE
  5
97
330
1E
100
AcDbEntity
  8
0
100
AcDbLine
 10
46.0
 20
196.4891
 30
0.0
 11
46.0
 21
186.9384
 31
0.0
  0
LINE
  5
98
330
1E
100
AcDbEntity
  8
0
100
AcDbLine
 10
45.7
 20
185.4611899999999
 30
0.0
 11
46.0
 21
186.9384
 31
0.0
  0
LINE
  5
99
330
1E
100
AcDbEntity
  8
0
100
AcDbLine
 10
47.9143
 20
190.5158999999999
 30
0.0
 11
50.51429999999999
 21
190.5158999999999
 31
0.0
  0
LINE
  5
9A
330
1E
100
AcDbEntity
  8
0
100
AcDbLine
 10
48.3786
 20
221.01
 30
0.0
 11
51.0714
 21
221.01
 31
0.0
  0
LINE
  5
9B
330
1E
100
AcDbEntity
  8
0
100
AcDbLine
 10
47.6667
 20
222.975
 30
0.0
 11
50.0741
 21
222.975
 31
0.0
  0
LINE
  5
9C
330
1E
100
AcDbEntity
  8
0
100
AcDbLine
 10
50.0741
 20
222.975
 30
0.0
 11
51.0
 21
222.975
 31
0.0
  0
LINE
  5
9D
330
1E
100
AcDbEntity
  8
0
100
AcDbLine
 10
43.6852
 20
222.975
 30
0.0
 11
47.7
 21
222.975
 31
0.0
  0
LINE
  5
9E
330
1E
100
AcDbEntity
  8
0
100
AcDbLine
 10
43.6852
 20
222.975
 30
0.0
 11
47.6667
 21
222.975
 31
0.0
  0
LINE
  5
9F
330
1E
100
AcDbEntity
  8
0
100
AcDbLine
 10
47.7
 20
222.975
 30
0.0
 11
50.1
 21
222.975
 31
0.0
  0
LINE
  5
A0
330
1E
100
AcDbEntity
  8
0
100
AcDbLine
 10
50.14289999999999
 20
189.9511699999999
 30
0.0
 11
51.4429
 21
190.5158999999999
 31
0.0
  0
LINE
  5
A1
330
1E
100
AcDbEntity
  8
0
100
AcDbLine
 10
50.51429999999999
 20
190.5158999999999
 30
0.0
 11
51.4429
 21
190.5158999999999
 31
0.0
  0
LINE
  5
A2
330
1E
100
AcDbEntity
  8
0
100
AcDbLine
 10
51.4429
 20
190.5158999999999
 30
0.0
 11
52.0
 21
191.8334999999999
 31
0.0
  0
LINE
  5
A3
330
1E
100
AcDbEntity
  8
0
100
AcDbLine
 10
52.0
 20
221.01
 30
0.0
 11
52.0
 21
191.8334999999999
 31
0.0
  0
LINE
  5
A4
330
1E
100
AcDbEntity
  8
0
100
AcDbLine
 10
51.0714
 20
221.01
 30
0.0
 11
52.0
 21
221.01
 31
0.0
  0
LINE
  5
A5
330
1E
100
AcDbEntity
  8
0
100
AcDbLine
 10
52.0
 20
191.8334999999999
 30
0.0
 11
52.0
 21
221.01
 31
0.0
  0
LINE
  5
A6
330
1E
100
AcDbEntity
  8
0
100
AcDbLine
 10
50.8284536862004
 20
221.01
 30
0.0
 11
51.0
 21
222.3819999999999
 31
0.0
  0
LINE
  5
A7
330
1E
100
AcDbEntity
  8
0
100
AcDbLine
 10
51.0
 20
222.3819999999999
 30
0.0
 11
51.0
 21
222.975
 31
0.0
  0
LINE
  5
A8
330
1E
100
AcDbEntity
  8
0
100
AcDbLine
 10
50.1
 20
222.975
 30
0.0
 11
51.0
 21
222.975
 31
0.0
  0
LINE
  5
A9
330
1E
100
AcDbEntity
  8
0
100
AcDbLine
 10
51.1
 20
223.9749999999999
 30
0.0
 11
52.0
 21
223.9749999999999
 31
0.0
  0
LINE
  5
AA
330
1E
100
AcDbEntity
  8
0
100
AcDbLine
 10
52.0
 20
223.9749999999999
 30
0.0
 11
52.0
 21
254.9749999999999
 31
0.0
  0
LINE
  5
AB
330
1E
100
AcDbEntity
  8
0
100
AcDbLine
 10
48.5
 20
223.9749999999999
 30
0.0
 11
51.1
 21
223.9749999999999
 31
0.0
  0
LINE
  5
AC
330
1E
100
AcDbEntity
  8
0
100
AcDbLine
 10
44.4
 20
223.9749999999999
 30
0.0
 11
48.5
 21
223.9749999999999
 31
0.0
  0
LINE
  5
AD
330
1E
100
AcDbEntity
  8
0
100
AcDbLine
 10
51.0
 20
222.975
 30
0.0
 11
52.0
 21
223.9749999999999
 31
0.0
  0
LINE
  5
AE
330
1E
100
AcDbEntity
  8
0
100
AcDbLine
 10
51.0
 20
222.975
 30
0.0
 11
51.0
 21
222.3819999999999
 31
0.0
  0
LINE
  5
AF
330
1E
100
AcDbEntity
  8
0
100
AcDbLine
 10
40.0
 20
54.975
 30
0.0
 11
40.0
 21
213.9749999999999
 31
0.0
  0
LINE
  5
B0
330
1E
100
AcDbEntity
  8
0
100
AcDbLine
 10
40.0
 20
54.975
 30
0.0
 11
40.0
 21
44.375
 31
0.0
  0
LINE
  5
B1
330
1E
100
AcDbEntity
  8
0
100
AcDbLine
 10
12.5
 20
10.375
 30
0.0
 11
13.9
 21
6.975000000000019
 31
0.0
  0
LINE
  5
B2
330
1E
100
AcDbEntity
  8
0
100
AcDbLine
 10
12.0
 20
213.9749999999999
 30
0.0
 11
12.0
 21
224.575
 31
0.0
  0
LINE
  5
B3
330
1E
100
AcDbEntity
  8
0
100
AcDbLine
 10
12.0
 20
213.9749999999999
 30
0.0
 11
12.0
 21
54.975
 31
0.0
  0
LINE
  5
B4
330
1E
100
AcDbEntity
  8
0
100
AcDbLine
 10
40.0
 20
233.2949999999999
 30
0.0
 11
44.4
 21
236.5749999999999
 31
0.0
  0
LINE
  5
B5
330
1E
100
AcDbEntity
  8
0
100
AcDbLine
 10
40.0
 20
235.7668367346939
 30
0.0
 11
42.9
 21
238.0749999999999
 31
0.0
  0
LINE
  5
B6
330
1E
100
AcDbEntity
  8
0
100
AcDbLine
 10
44.4
 20
236.5749999999999
 30
0.0
 11
48.5
 21
242.0749999999999
 31
0.0
  0
LINE
  5
B7
330
1E
100
AcDbEntity
  8
0
100
AcDbLine
 10
42.9
 20
238.0749999999999
 30
0.0
 11
46.79999999999999
 21
242.9749999999999
 31
0.0
  0
LINE
  5
B8
330
1E
100
AcDbEntity
  8
0
100
AcDbLine
 10
40.0
 20
234.4749999999999
 30
0.0
 11
40.0
 21
224.575
 31
0.0
  0
LINE
  5
B9
330
1E
100
AcDbEntity
  8
0
100
AcDbLine
 10
40.0
 20
234.4749999999999
 30
0.0
 11
40.0
 21
242.9749999999999
 31
0.0
  0
LINE
  5
BA
330
1E
100
AcDbEntity
  8
0
100
AcDbLine
 10
12.0
 20
234.4749999999999
 30
0.0
 11
12.0
 21
224.575
 31
0.0
  0
LINE
  5
BB
330
1E
100
AcDbEntity
  8
0
100
AcDbLine
 10
12.0
 20
234.4749999999999
 30
0.0
 11
12.0
 21
242.9749999999999
 31
0.0
  0
LINE
  5
BC
330
1E
100
AcDbEntity
  8
0
100
AcDbLine
 10
12.0
 20
224.575
 30
0.0
 11
12.0
 21
213.9749999999999
 31
0.0
  0
LINE
  5
BD
330
1E
100
AcDbEntity
  8
0
100
AcDbLine
 10
12.0
 20
224.575
 30
0.0
 11
12.0
 21
234.4749999999999
 31
0.0
  0
LINE
  5
BE
330
1E
100
AcDbEntity
  8
0
100
AcDbLine
 10
8.4
 20
222.975
 30
0.0
 11
12.0
 21
222.975
 31
0.0
  0
LINE
  5
BF
330
1E
100
AcDbEntity
  8
0
100
AcDbLine
 10
12.0
 20
242.9749999999999
 30
0.0
 11
12.0
 21
249.4749999999999
 31
0.0
  0
LINE
  5
C0
330
1E
100
AcDbEntity
  8
0
100
AcDbLine
 10
12.0
 20
242.9749999999999
 30
0.0
 11
12.0
 21
234.4749999999999
 31
0.0
  0
LINE
  5
C1
330
1E
100
AcDbEntity
  8
0
100
AcDbLine
 10
12.0
 20
249.4749999999999
 30
0.0
 11
12.0
 21
253.5749999999999
 31
0.0
  0
LINE
  5
C2
330
1E
100
AcDbEntity
  8
0
100
AcDbLine
 10
12.0
 20
249.4749999999999
 30
0.0
 11
12.0
 21
242.9749999999999
 31
0.0
  0
LINE
  5
C3
330
1E
100
AcDbEntity
  8
0
100
AcDbLine
 10
12.0
 20
253.5749999999999
 30
0.0
 11
12.0
 21
254.9749999999999
 31
0.0
  0
LINE
  5
C4
330
1E
100
AcDbEntity
  8
0
100
AcDbLine
 10
12.0
 20
253.5749999999999
 30
0.0
 11
12.0
 21
249.4749999999999
 31
0.0
  0
LINE
  5
C5
330
1E
100
AcDbEntity
  8
0
100
AcDbLine
 10
12.0
 20
254.9749999999999
 30
0.0
 11
12.0
 21
253.5749999999999
 31
0.0
  0
LINE
  5
C6
330
1E
100
AcDbEntity
  8
0
100
AcDbLine
 10
12.0
 20
254.9749999999999
 30
0.0
 11
12.5
 21
258.5749999999999
 31
0.0
  0
LINE
  5
C7
330
1E
100
AcDbEntity
  8
0
100
AcDbLine
 10
12.5
 20
258.5749999999999
 30
0.0
 11
13.9
 21
261.975
 31
0.0
  0
LINE
  5
C8
330
1E
100
AcDbEntity
  8
0
100
AcDbLine
 10
13.9
 20
261.975
 30
0.0
 11
16.1
 21
264.875
 31
0.0
  0
LINE
  5
C9
330
1E
100
AcDbEntity
  8
0
100
AcDbLine
 10
9.099999999999999
 20
271.875
 30
0.0
 11
14.0
 21
275.7749999999999
 31
0.0
  0
LINE
  5
CA
330
1E
100
AcDbEntity
  8
0
100
AcDbLine
 10
16.1
 20
264.875
 30
0.0
 11
19.0
 21
267.0749999999999
 31
0.0
  0
LINE
  5
CB
330
1E
100
AcDbEntity
  8
0
100
AcDbLine
 10
19.0
 20
267.0749999999999
 30
0.0
 11
22.39999999999999
 21
268.475
 31
0.0
  0
LINE
  5
CC
330
1E
100
AcDbEntity
  8
0
100
AcDbLine
 10
14.0
 20
275.7749999999999
 30
0.0
 11
19.8
 21
278.0749999999999
 31
0.0
  0
LINE
  5
CD
330
1E
100
AcDbEntity
  8
0
100
AcDbLine
 10
13.1
 20
277.475
 30
0.0
 11
19.3
 21
280.0749999999999
 31
0.0
  0
LINE
  5
CE
330
1E
100
AcDbEntity
  8
0
100
AcDbLine
 10
40.0
 20
242.9749999999999
 30
0.0
 11
40.0
 21
249.4749999999999
 31
0.0
  0
LINE
  5
CF
330
1E
100
AcDbEntity
  8
0
100
AcDbLine
 10
40.0
 20
242.9749999999999
 30
0.0
 11
40.0
 21
234.4749999999999
 31
0.0
  0
LINE
  5
D0
330
1E
100
AcDbEntity
  8
0
100
AcDbLine
 10
40.0
 20
249.4749999999999
 30
0.0
 11
40.0
 21
253.5749999999999
 31
0.0
  0
LINE
  5
D1
330
1E
100
AcDbEntity
  8
0
100
AcDbLine
 10
40.0
 20
249.4749999999999
 30
0.0
 11
40.0
 21
242.9749999999999
 31
0.0
  0
LINE
  5
D2
330
1E
100
AcDbEntity
  8
0
100
AcDbLine
 10
40.0
 20
254.9749999999999
 30
0.0
 11
40.0
 21
253.5749999999999
 31
0.0
  0
LINE
  5
D3
330
1E
100
AcDbEntity
  8
0
100
AcDbLine
 10
48.5
 20
242.0749999999999
 30
0.0
 11
51.1
 21
248.275
 31
0.0
  0
LINE
  5
D4
330
1E
100
AcDbEntity
  8
0
100
AcDbLine
 10
46.79999999999999
 20
242.9749999999999
 30
0.0
 11
49.1
 21
248.775
 31
0.0
  0
LINE
  5
D5
330
1E
100
AcDbEntity
  8
0
100
AcDbLine
 10
51.1
 20
248.275
 30
0.0
 11
52.0
 21
254.9749999999999
 31
0.0
  0
LINE
  5
D6
330
1E
100
AcDbEntity
  8
0
100
AcDbLine
 10
52.0
 20
254.9749999999999
 30
0.0
 11
52.0
 21
223.9749999999999
 31
0.0
  0
LINE
  5
D7
330
1E
100
AcDbEntity
  8
0
100
AcDbLine
 10
49.1
 20
248.775
 30
0.0
 11
50.0
 21
254.9749999999999
 31
0.0
  0
LINE
  5
D8
330
1E
100
AcDbEntity
  8
0
100
AcDbLine
 10
40.0
 20
253.5749999999999
 30
0.0
 11
40.0
 21
254.9749999999999
 31
0.0
  0
LINE
  5
D9
330
1E
100
AcDbEntity
  8
0
100
AcDbLine
 10
40.0
 20
253.5749999999999
 30
0.0
 11
40.0
 21
249.4749999999999
 31
0.0
  0
LINE
  5
DA
330
1E
100
AcDbEntity
  8
0
100
AcDbLine
 10
32.2
 20
278.0749999999999
 30
0.0
 11
38.0
 21
275.7749999999999
 31
0.0
  0
LINE
  5
DB
330
1E
100
AcDbEntity
  8
0
100
AcDbLine
 10
26.0
 20
268.975
 30
0.0
 11
29.6
 21
268.475
 31
0.0
  0
LINE
  5
DC
330
1E
100
AcDbEntity
  8
0
100
AcDbLine
 10
29.6
 20
268.475
 30
0.0
 11
33.0
 21
267.0749999999999
 31
0.0
  0
LINE
  5
DD
330
1E
100
AcDbEntity
  8
0
100
AcDbLine
 10
38.0
 20
275.7749999999999
 30
0.0
 11
42.9
 21
271.875
 31
0.0
  0
LINE
  5
DE
330
1E
100
AcDbEntity
  8
0
100
AcDbLine
 10
33.0
 20
267.0749999999999
 30
0.0
 11
35.89999999999999
 21
264.875
 31
0.0
  0
LINE
  5
DF
330
1E
100
AcDbEntity
  8
0
100
AcDbLine
 10
35.89999999999999
 20
264.875
 30
0.0
 11
38.1
 21
261.975
 31
0.0
  0
LINE
  5
E0
330
1E
100
AcDbEntity
  8
0
100
AcDbLine
 10
42.9
 20
271.875
 30
0.0
 11
46.79999999999999
 21
266.975
 31
0.0
  0
LINE
  5
E1
330
1E
100
AcDbEntity
  8
0
100
AcDbLine
 10
49.1
 20
261.175
 30
0.0
 11
50.0
 21
254.9749999999999
 31
0.0
  0
LINE
  5
E2
330
1E
100
AcDbEntity
  8
0
100
AcDbLine
 10
46.79999999999999
 20
266.975
 30
0.0
 11
49.1
 21
261.175
 31
0.0
  0
LINE
  5
E3
330
1E
100
AcDbEntity
  8
0
100
AcDbLine
 10
51.1
 20
261.675
 30
0.0
 11
52.0
 21
254.9749999999999
 31
0.0
  0
LINE
  5
E4
330
1E
100
AcDbEntity
  8
0
100
AcDbLine
 10
48.5
 20
267.8749999999999
 30
0.0
 11
51.1
 21
261.675
 31
0.0
  0
LINE
  5
E5
330
1E
100
AcDbEntity
  8
0
100
AcDbLine
 10
44.4
 20
273.375
 30
0.0
 11
48.5
 21
267.8749999999999
 31
0.0
  0
LINE
  5
E6
330
1E
100
AcDbEntity
  8
0
100
AcDbLine
 10
38.9
 20
277.475
 30
0.0
 11
44.4
 21
273.375
 31
0.0
  0
LINE
  5
E7
330
1E
100
AcDbEntity
  8
0
100
AcDbLine
 10
38.1
 20
261.975
 30
0.0
 11
39.5
 21
258.5749999999999
 31
0.0
  0
LINE
  5
E8
330
1E
100
AcDbEntity
  8
0
100
AcDbLine
 10
39.5
 20
258.5749999999999
 30
0.0
 11
40.0
 21
254.9749999999999
 31
0.0
  0
LINE
  5
E9
330
1E
100
AcDbEntity
  8
0
100
AcDbLine
 10
22.39999999999999
 20
268.475
 30
0.0
 11
26.0
 21
268.975
 31
0.0
  0
LINE
  5
EA
330
1E
100
AcDbEntity
  8
0
100
AcDbLine
 10
26.0
 20
278.975
 30
0.0
 11
32.2
 21
278.0749999999999
 31
0.0
  0
LINE
  5
EB
330
1E
100
AcDbEntity
  8
0
100
AcDbLine
 10
32.7
 20
280.0749999999999
 30
0.0
 11
38.9
 21
277.475
 31
0.0
  0
LINE
  5
EC
330
1E
100
AcDbEntity
  8
0
100
AcDbLine
 10
26.0
 20
280.975
 30
0.0
 11
32.7
 21
280.0749999999999
 31
0.0
  0
LINE
  5
ED
330
1E
100
AcDbEntity
  8
0
100
AcDbLine
 10
19.8
 20
278.0749999999999
 30
0.0
 11
26.0
 21
278.975
 31
0.0
  0
LINE
  5
EE
330
1E
100
AcDbEntity
  8
0
100
AcDbLine
 10
19.3
 20
280.0749999999999
 30
0.0
 11
26.0
 21
280.975
 31
0.0
  0
LINE
  5
EF
330
1E
100
AcDbEntity
  8
0
100
AcDbLine
 10
9.099999999999999
 20
238.0749999999999
 30
0.0
 11
12.0
 21
235.7668367346939
 31
0.0
  0
LINE
  5
F0
330
1E
100
AcDbEntity
  8
0
100
AcDbLine
 10
7.599999999999999
 20
236.5749999999999
 30
0.0
 11
12.0
 21
233.2949999999999
 31
0.0
  0
LINE
  5
F5
330
1E
100
AcDbEntity
  8
0
100
AcDbLine
 10
7.799999999999999
 20
183.2779699999999
 30
0.0
 11
6.822657220679047
 21
184.285094075171
 31
0.0
  0
LINE
  5
F6
330
1E
100
AcDbEntity
  8
0
100
AcDbLine
 10
6.822657220679047
 20
184.285094075171
 30
0.0
 11
6.299999999999999
 21
185.4611899999999
 31
0.0
  0
LINE
  5
F7
330
1E
100
AcDbEntity
  8
0
100
AcDbLine
 10
44.2
 20
183.2779699999999
 30
0.0
 11
45.21165681398747
 21
184.5709638355592
 31
0.0
  0
LINE
  5
F8
330
1E
100
AcDbEntity
  8
0
100
AcDbLine
 10
45.21165681398747
 20
184.5709638355592
 30
0.0
 11
45.7
 21
185.4611899999999
 31
0.0
  0
LINE
  5
16B
330
1E
100
AcDbEntity
  8
0
100
AcDbLine
 10
16.1
 20
4.07500000000002
 30
0.0
 11
13.9
 21
6.975000000000009
 31
0.0
  0
ENDSEC
  0
SECTION
  2
OBJECTS
  0
DICTIONARY
  5
C
330
0
100
AcDbDictionary
  3
ACAD_GROUP
350
D
  3
ACAD_LAYOUT
350
19
  3
ACAD_MLINESTYLE
350
16
  3
ACAD_PLOTSETTINGS
350
18
  3
ACAD_PLOTSTYLENAME
350
E
  3
ACDBHEADERROUNDTRIPXREC
350
192
  3
ACDBVARIABLEDICTIONARY
350
FA
  0
DICTIONARY
  5
1B4
330
1E
100
AcDbDictionary
280
     1
  3
ACAD_LAYOUTSELFREF
360
1B5
  0
DICTIONARY
  5
1B2
330
1A
100
AcDbDictionary
280
     1
  3
ACAD_LAYOUTSELFREF
360
1B3
  0
DICTIONARY
  5
D
102
{ACAD_REACTORS
330
C
102
}
330
C
100
AcDbDictionary
  0
DICTIONARY
  5
19
102
{ACAD_REACTORS
330
C
102
}
330
C
100
AcDbDictionary
  0
DICTIONARY
  5
16
102
{ACAD_REACTORS
330
C
102
}
330
C
100
AcDbDictionary
  3
STANDARD
350
17
  0
DICTIONARY
  5
18
102
{ACAD_REACTORS
330
C
102
}
330
C
100
AcDbDictionary
  0
ACDBDICTIONARYWDFLT
  5
E
102
{ACAD_REACTORS
330
C
102
}
330
C
100
AcDbDictionary
281
     1
  3
Normal
350
F
100
AcDbDictionaryWithDefault
340
F
  0
DICTIONARY
  5
192
102
{ACAD_REACTORS
330
C
102
}
330
C
100
AcDbDictionary
  3
CEPSNTYPE
350
19C
  3
FINGERPRINTGUID
350
19D
  3
HYPERLINKBASE
350
195
  3
INSUNITS
350
19B
  3
LAYOUTDICT
350
197
  3
LWETCUNION
350
19A
  3
PLOTSETDICT
350
198
  3
PLOTSTYLNAMDICT
350
199
  3
PSVPSCALE
350
19F
  3
PUCSBASE
350
1A2
  3
PUCSORGBACK
350
1A8
  3
PUCSORGBOTTOM
350
1A4
  3
PUCSORGFRONT
350
1A7
  3
PUCSORGLEFT
350
1A5
  3
PUCSORGRIGHT
350
1A6
  3
PUCSORGTOP
350
1A3
  3
PUCSORTHOREF
350
1A0
  3
PUCSORTHOVIEW
350
1A1
  3
STYLESHEET
350
196
  3
TSTACKALIGN
350
193
  3
TSTACKSIZE
350
194
  3
UCSBASE
350
1AB
  3
UCSORGBACK
350
1B1
  3
UCSORGBOTTOM
350
1AD
  3
UCSORGFRONT
350
1B0
  3
UCSORGLEFT
350
1AE
  3
UCSORGRIGHT
350
1AF
  3
UCSORGTOP
350
1AC
  3
UCSORTHOREF
350
1A9
  3
UCSORTHOVIEW
350
1AA
  3
VERSIONGUID
350
19E
  0
DICTIONARY
  5
FA
102
{ACAD_REACTORS
330
C
102
}
330
C
100
AcDbDictionary
  3
DIMASSOC
350
FB
  0
XRECORD
  5
1B5
102
{ACAD_REACTORS
330
1B4
102
}
330
1B4
100
AcDbXrecord
340
1E
  0
XRECORD
  5
1B3
102
{ACAD_REACTORS
330
1B2
102
}
330
1B2
100
AcDbXrecord
340
1A
  0
MLINESTYLE
  5
17
102
{ACAD_REACTORS
330
16
102
}
330
16
100
AcDbMlineStyle
  2
STANDARD
 70
     0
  3

 62
   256
 51
90.0
 52
90.0
 71
     2
 49
0.5
 62
   256
  6
BYLAYER
 49
-0.5
 62
   256
  6
BYLAYER
  0
ACDBPLACEHOLDER
  5
F
102
{ACAD_REACTORS
330
E
102
}
330
E
100
AcDbPlaceHolder
280
     0
  0
XRECORD
  5
19C
102
{ACAD_REACTORS
330
192
102
}
330
192
100
AcDbXrecord
 90
        0
  0
XRECORD
  5
19D
102
{ACAD_REACTORS
330
192
102
}
330
192
100
AcDbXrecord
  1
{3F4557CA-42C5-4928-B251-101ACB290137}
  0
XRECORD
  5
195
102
{ACAD_REACTORS
330
192
102
}
330
192
100
AcDbXrecord
  1

  0
XRECORD
  5
19B
102
{ACAD_REACTORS
330
192
102
}
330
192
100
AcDbXrecord
 90
        0
  0
XRECORD
  5
197
102
{ACAD_REACTORS
330
192
102
}
330
192
100
AcDbXrecord
340
19
  0
XRECORD
  5
19A
102
{ACAD_REACTORS
330
192
102
}
330
192
100
AcDbXrecord
 90
    10781
  0
XRECORD
  5
198
102
{ACAD_REACTORS
330
192
102
}
330
192
100
AcDbXrecord
340
18
  0
XRECORD
  5
199
102
{ACAD_REACTORS
330
192
102
}
330
192
100
AcDbXrecord
340
E
  0
XRECORD
  5
19F
102
{ACAD_REACTORS
330
192
102
}
330
192
100
AcDbXrecord
 40
0.0
  0
XRECORD
  5
1A2
102
{ACAD_REACTORS
330
192
102
}
330
192
100
AcDbXrecord
340
0
  0
XRECORD
  5
1A8
102
{ACAD_REACTORS
330
192
102
}
330
192
100
AcDbXrecord
 10
0.0
 20
0.0
 30
0.0
  0
XRECORD
  5
1A4
102
{ACAD_REACTORS
330
192
102
}
330
192
100
AcDbXrecord
 10
0.0
 20
0.0
 30
0.0
  0
XRECORD
  5
1A7
102
{ACAD_REACTORS
330
192
102
}
330
192
100
AcDbXrecord
 10
0.0
 20
0.0
 30
0.0
  0
XRECORD
  5
1A5
102
{ACAD_REACTORS
330
192
102
}
330
192
100
AcDbXrecord
 10
0.0
 20
0.0
 30
0.0
  0
XRECORD
  5
1A6
102
{ACAD_REACTORS
330
192
102
}
330
192
100
AcDbXrecord
 10
0.0
 20
0.0
 30
0.0
  0
XRECORD
  5
1A3
102
{ACAD_REACTORS
330
192
102
}
330
192
100
AcDbXrecord
 10
0.0
 20
0.0
 30
0.0
  0
XRECORD
  5
1A0
102
{ACAD_REACTORS
330
192
102
}
330
192
100
AcDbXrecord
340
0
  0
XRECORD
  5
1A1
102
{ACAD_REACTORS
330
192
102
}
330
192
100
AcDbXrecord
 70
     0
  0
XRECORD
  5
196
102
{ACAD_REACTORS
330
192
102
}
330
192
100
AcDbXrecord
  1

  0
XRECORD
  5
193
102
{ACAD_REACTORS
330
192
102
}
330
192
100
AcDbXrecord
 90
        1
  0
XRECORD
  5
194
102
{ACAD_REACTORS
330
192
102
}
330
192
100
AcDbXrecord
 90
       70
  0
XRECORD
  5
1AB
102
{ACAD_REACTORS
330
192
102
}
330
192
100
AcDbXrecord
340
0
  0
XRECORD
  5
1B1
102
{ACAD_REACTORS
330
192
102
}
330
192
100
AcDbXrecord
 10
0.0
 20
0.0
 30
0.0
  0
XRECORD
  5
1AD
102
{ACAD_REACTORS
330
192
102
}
330
192
100
AcDbXrecord
 10
0.0
 20
0.0
 30
0.0
  0
XRECORD
  5
1B0
102
{ACAD_REACTORS
330
192
102
}
330
192
100
AcDbXrecord
 10
0.0
 20
0.0
 30
0.0
  0
XRECORD
  5
1AE
102
{ACAD_REACTORS
330
192
102
}
330
192
100
AcDbXrecord
 10
0.0
 20
0.0
 30
0.0
  0
XRECORD
  5
1AF
102
{ACAD_REACTORS
330
192
102
}
330
192
100
AcDbXrecord
 10
0.0
 20
0.0
 30
0.0
  0
XRECORD
  5
1AC
102
{ACAD_REACTORS
330
192
102
}
330
192
100
AcDbXrecord
 10
0.0
 20
0.0
 30
0.0
  0
XRECORD
  5
1A9
102
{ACAD_REACTORS
330
192
102
}
330
192
100
AcDbXrecord
340
0
  0
XRECORD
  5
1AA
102
{ACAD_REACTORS
330
192
102
}
330
192
100
AcDbXrecord
 70
     1
  0
XRECORD
  5
19E
102
{ACAD_REACTORS
330
192
102
}
330
192
100
AcDbXrecord
  1
{FDE1BA0B-0E83-4004-888C-4B44AD9A392C}
  0
DICTIONARYVAR
  5
FB
102
{ACAD_REACTORS
330
FA
102
}
330
FA
100
DictionaryVariables
280
     0
  1
1
  0
ENDSEC
  0
EOF
