  0
SECTION
  2
HEADER
  9
$ACADVER
  1
AC1014
  9
$ACADMAINTVER
 70
     9
  9
$DWGCODEPAGE
  3
ANSI_1252
  9
$INSBASE
 10
0.0
 20
0.0
 30
0.0
  9
$EXTMIN
 10
-0.2306965000000019
 20
-0.0933844999999957
 30
0.0
  9
$EXTMAX
 10
73.23069649999999
 20
220.0933845
 30
0.0
  9
$LIMMIN
 10
0.0
 20
0.0
  9
$LIMMAX
 10
12.0
 20
9.0
  9
$ORTHOMODE
 70
     0
  9
$REGENMODE
 70
     1
  9
$FILLMODE
 70
     1
  9
$QTEXTMODE
 70
     0
  9
$MIRRTEXT
 70
     1
  9
$DRAGMODE
 70
     2
  9
$LTSCALE
 40
1.0
  9
$OSMODE
 70
    37
  9
$ATTMODE
 70
     1
  9
$TEXTSIZE
 40
0.2
  9
$TRACEWID
 40
0.05
  9
$TEXTSTYLE
  7
STANDARD
  9
$CLAYER
  8
0
  9
$CELTYPE
  6
CONTINUOUS
  9
$CECOLOR
 62
   256
  9
$CELTSCALE
 40
1.0
  9
$DELOBJ
 70
     1
  9
$DISPSILH
 70
     0
  9
$DIMSCALE
 40
1.0
  9
$DIMASZ
 40
0.18
  9
$DIMEXO
 40
0.0625
  9
$DIMDLI
 40
0.38
  9
$DIMRND
 40
0.0
  9
$DIMDLE
 40
0.0
  9
$DIMEXE
 40
0.18
  9
$DIMTP
 40
0.0
  9
$DIMTM
 40
0.0
  9
$DIMTXT
 40
0.18
  9
$DIMCEN
 40
0.09
  9
$DIMTSZ
 40
0.0
  9
$DIMTOL
 70
     0
  9
$DIMLIM
 70
     0
  9
$DIMTIH
 70
     1
  9
$DIMTOH
 70
     1
  9
$DIMSE1
 70
     0
  9
$DIMSE2
 70
     0
  9
$DIMTAD
 70
     0
  9
$DIMZIN
 70
     0
  9
$DIMBLK
  1

  9
$DIMASO
 70
     1
  9
$DIMSHO
 70
     1
  9
$DIMPOST
  1

  9
$DIMAPOST
  1

  9
$DIMALT
 70
     0
  9
$DIMALTD
 70
     2
  9
$DIMALTF
 40
25.4
  9
$DIMLFAC
 40
1.0
  9
$DIMTOFL
 70
     0
  9
$DIMTVP
 40
0.0
  9
$DIMTIX
 70
     0
  9
$DIMSOXD
 70
     0
  9
$DIMSAH
 70
     0
  9
$DIMBLK1
  1

  9
$DIMBLK2
  1

  9
$DIMSTYLE
  2
STANDARD
  9
$DIMCLRD
 70
     0
  9
$DIMCLRE
 70
     0
  9
$DIMCLRT
 70
     0
  9
$DIMTFAC
 40
1.0
  9
$DIMGAP
 40
0.09
  9
$DIMJUST
 70
     0
  9
$DIMSD1
 70
     0
  9
$DIMSD2
 70
     0
  9
$DIMTOLJ
 70
     1
  9
$DIMTZIN
 70
     0
  9
$DIMALTZ
 70
     0
  9
$DIMALTTZ
 70
     0
  9
$DIMFIT
 70
     3
  9
$DIMUPT
 70
     0
  9
$DIMUNIT
 70
     2
  9
$DIMDEC
 70
     4
  9
$DIMTDEC
 70
     4
  9
$DIMALTU
 70
     2
  9
$DIMALTTD
 70
     2
  9
$DIMTXSTY
  7
STANDARD
  9
$DIMAUNIT
 70
     0
  9
$LUNITS
 70
     2
  9
$LUPREC
 70
     4
  9
$SKETCHINC
 40
0.1
  9
$FILLETRAD
 40
0.0
  9
$AUNITS
 70
     0
  9
$AUPREC
 70
     0
  9
$MENU
  1
.
  9
$ELEVATION
 40
0.0
  9
$PELEVATION
 40
0.0
  9
$THICKNESS
 40
0.0
  9
$LIMCHECK
 70
     0
  9
$BLIPMODE
 70
     0
  9
$CHAMFERA
 40
0.0
  9
$CHAMFERB
 40
0.0
  9
$CHAMFERC
 40
0.0
  9
$CHAMFERD
 40
0.0
  9
$SKPOLY
 70
     0
  9
$TDCREATE
 40
2454690.749096851
  9
$TDUPDATE
 40
2454690.750883240
  9
$TDINDWG
 40
0.0017863889
  9
$TDUSRTIMER
 40
0.0017863889
  9
$USRTIMER
 70
     1
  9
$ANGBASE
 50
0.0
  9
$ANGDIR
 70
     0
  9
$PDMODE
 70
     0
  9
$PDSIZE
 40
0.0
  9
$PLINEWID
 40
0.0
  9
$COORDS
 70
     1
  9
$SPLFRAME
 70
     0
  9
$SPLINETYPE
 70
     6
  9
$SPLINESEGS
 70
     8
  9
$ATTDIA
 70
     0
  9
$ATTREQ
 70
     1
  9
$HANDLING
 70
 22529
  9
$HANDSEED
  5
225
  9
$SURFTAB1
 70
     6
  9
$SURFTAB2
 70
     6
  9
$SURFTYPE
 70
     6
  9
$SURFU
 70
     6
  9
$SURFV
 70
     6
  9
$UCSNAME
  2

  9
$UCSORG
 10
0.0
 20
0.0
 30
0.0
  9
$UCSXDIR
 10
1.0
 20
0.0
 30
0.0
  9
$UCSYDIR
 10
0.0
 20
1.0
 30
0.0
  9
$PUCSNAME
  2

  9
$PUCSORG
 10
0.0
 20
0.0
 30
0.0
  9
$PUCSXDIR
 10
1.0
 20
0.0
 30
0.0
  9
$PUCSYDIR
 10
0.0
 20
1.0
 30
0.0
  9
$USERI1
 70
     0
  9
$USERI2
 70
     0
  9
$USERI3
 70
     0
  9
$USERI4
 70
     0
  9
$USERI5
 70
     0
  9
$USERR1
 40
0.0
  9
$USERR2
 40
0.0
  9
$USERR3
 40
0.0
  9
$USERR4
 40
0.0
  9
$USERR5
 40
0.0
  9
$WORLDVIEW
 70
     1
  9
$SHADEDGE
 70
     3
  9
$SHADEDIF
 70
    70
  9
$TILEMODE
 70
     1
  9
$MAXACTVP
 70
    64
  9
$PINSBASE
 10
0.0
 20
0.0
 30
0.0
  9
$PLIMCHECK
 70
     0
  9
$PEXTMIN
 10
1.000000000000000E+20
 20
1.000000000000000E+20
 30
1.000000000000000E+20
  9
$PEXTMAX
 10
-1.000000000000000E+20
 20
-1.000000000000000E+20
 30
-1.000000000000000E+20
  9
$PLIMMIN
 10
0.0
 20
0.0
  9
$PLIMMAX
 10
12.0
 20
9.0
  9
$UNITMODE
 70
     0
  9
$VISRETAIN
 70
     1
  9
$PLINEGEN
 70
     0
  9
$PSLTSCALE
 70
     1
  9
$TREEDEPTH
 70
  3020
  9
$PICKSTYLE
 70
     1
  9
$CMLSTYLE
  2
STANDARD
  9
$CMLJUST
 70
     0
  9
$CMLSCALE
 40
1.0
  9
$PROXYGRAPHICS
 70
     1
  9
$MEASUREMENT
 70
     0
  0
ENDSEC
  0
SECTION
  2
CLASSES
  0
CLASS
  1
ACDBDICTIONARYWDFLT
  2
AcDbDictionaryWithDefault
  3
AutoCAD 2000
 90
        0
280
     0
281
     0
  0
CLASS
  1
ACDBPLACEHOLDER
  2
AcDbPlaceHolder
  3
AutoCAD 2000
 90
        0
280
     0
281
     0
  0
CLASS
  1
LAYOUT
  2
AcDbLayout
  3
AutoCAD 2000
 90
        0
280
     0
281
     0
  0
CLASS
  1
DICTIONARYVAR
  2
AcDbDictionaryVar
  3
AutoCAD 2000
 90
        0
280
     0
281
     0
  0
CLASS
  1
LONG_TRANSACTION
  2
AcDbLongTransaction
  3
AutoCAD 2000
 90
        0
280
     0
281
     0
  0
CLASS
  1
LWPOLYLINE
  2
AcDbPolyline
  3
AutoCAD 2000
 90
        0
280
     0
281
     1
  0
CLASS
  1
HATCH
  2
AcDbHatch
  3
AutoCAD 2000
 90
        0
280
     0
281
     1
  0
CLASS
  1
XRECORD
  2
AcDbXrecord
  3
AutoCAD 2000
 90
        0
280
     0
281
     0
  0
ENDSEC
  0
SECTION
  2
TABLES
  0
TABLE
  2
VPORT
  5
8
330
0
100
AcDbSymbolTable
 70
     2
  0
VPORT
  5
200
330
8
100
AcDbSymbolTableRecord
100
AcDbViewportTableRecord
  2
*ACTIVE
 70
     0
 10
0.0
 20
0.0
 11
1.0
 21
1.0
 12
36.5
 22
110.0
 13
0.0
 23
0.0
 14
1.0
 24
1.0
 15
0.0
 25
0.0
 16
0.0
 26
0.0
 36
1.0
 17
0.0
 27
0.0
 37
0.0
 40
221.8761815498721
 41
2.043533930857874
 42
50.0
 43
0.0
 44
0.0
 50
0.0
 51
0.0
 71
     0
 72
   100
 73
     1
 74
     3
 75
     0
 76
     0
 77
     0
 78
     0
  0
ENDTAB
  0
TABLE
  2
LTYPE
  5
5
330
0
100
AcDbSymbolTable
 70
     1
  0
LTYPE
  5
13
330
5
100
AcDbSymbolTableRecord
100
AcDbLinetypeTableRecord
  2
BYBLOCK
 70
     0
  3

 72
    65
 73
     0
 40
0.0
  0
LTYPE
  5
14
330
5
100
AcDbSymbolTableRecord
100
AcDbLinetypeTableRecord
  2
BYLAYER
 70
     0
  3

 72
    65
 73
     0
 40
0.0
  0
LTYPE
  5
15
330
5
100
AcDbSymbolTableRecord
100
AcDbLinetypeTableRecord
  2
CONTINUOUS
 70
     0
  3
Solid line
 72
    65
 73
     0
 40
0.0
  0
ENDTAB
  0
TABLE
  2
LAYER
  5
2
330
0
100
AcDbSymbolTable
 70
     1
  0
LAYER
  5
10
330
2
100
AcDbSymbolTableRecord
100
AcDbLayerTableRecord
  2
0
 70
     0
 62
     7
  6
CONTINUOUS
  0
ENDTAB
  0
TABLE
  2
STYLE
  5
3
330
0
100
AcDbSymbolTable
 70
     1
  0
STYLE
  5
11
330
3
100
AcDbSymbolTableRecord
100
AcDbTextStyleTableRecord
  2
STANDARD
 70
     0
 40
0.0
 41
1.0
 50
0.0
 71
     0
 42
0.2
  3
txt
  4

  0
ENDTAB
  0
TABLE
  2
VIEW
  5
6
330
0
100
AcDbSymbolTable
 70
     0
  0
ENDTAB
  0
TABLE
  2
UCS
  5
7
330
0
100
AcDbSymbolTable
 70
     0
  0
ENDTAB
  0
TABLE
  2
APPID
  5
9
330
0
100
AcDbSymbolTable
 70
     1
  0
APPID
  5
12
330
9
100
AcDbSymbolTableRecord
100
AcDbRegAppTableRecord
  2
ACAD
 70
     0
  0
ENDTAB
  0
TABLE
  2
DIMSTYLE
  5
A
330
0
100
AcDbSymbolTable
 70
     1
  0
DIMSTYLE
105
1FA
330
A
100
AcDbSymbolTableRecord
100
AcDbDimStyleTableRecord
  2
STANDARD
 70
     0
  3

  4

  5

  6

  7

 40
1.0
 41
0.18
 42
0.0625
 43
0.38
 44
0.18
 45
0.0
 46
0.0
 47
0.0
 48
0.0
140
0.18
141
0.09
142
0.0
143
25.4
144
1.0
145
0.0
146
1.0
147
0.09
 71
     0
 72
     0
 73
     1
 74
     1
 75
     0
 76
     0
 77
     0
 78
     0
170
     0
171
     2
172
     0
173
     0
174
     0
175
     0
176
     0
177
     0
178
     0
270
     2
271
     4
272
     4
273
     2
274
     2
340
11
275
     0
280
     0
281
     0
282
     0
283
     1
284
     0
285
     0
286
     0
287
     3
288
     0
  0
ENDTAB
  0
TABLE
  2
BLOCK_RECORD
  5
1
330
0
100
AcDbSymbolTable
 70
     0
  0
BLOCK_RECORD
  5
1E
102
{ACAD_XDICTIONARY
360
223
102
}
330
1
100
AcDbSymbolTableRecord
100
AcDbBlockTableRecord
  2
*MODEL_SPACE
  0
BLOCK_RECORD
  5
1A
102
{ACAD_XDICTIONARY
360
221
102
}
330
1
100
AcDbSymbolTableRecord
100
AcDbBlockTableRecord
  2
*PAPER_SPACE
  0
ENDTAB
  0
ENDSEC
  0
SECTION
  2
BLOCKS
  0
BLOCK
  5
1F
330
1E
100
AcDbEntity
  8
0
100
AcDbBlockBegin
  2
*MODEL_SPACE
 70
     0
 10
0.0
 20
0.0
 30
0.0
  3
*MODEL_SPACE
  1

  0
ENDBLK
  5
20
330
1E
100
AcDbEntity
  8
0
100
AcDbBlockEnd
  0
BLOCK
  5
1B
330
1A
100
AcDbEntity
 67
     1
  8
0
100
AcDbBlockBegin
  2
*PAPER_SPACE
 70
     0
 10
0.0
 20
0.0
 30
0.0
  3
*PAPER_SPACE
  1

  0
ENDBLK
  5
1C
330
1A
100
AcDbEntity
 67
     1
  8
0
100
AcDbBlockEnd
  0
ENDSEC
  0
SECTION
  2
ENTITIES
  0
LINE
  5
22
330
1E
100
AcDbEntity
  8
0
100
AcDbLine
 10
-0.226523500000002
 20
34.34738449999999
 30
0.0
 11
-0.146144500000002
 21
39.55818449999999
 31
0.0
  0
LINE
  5
23
330
1E
100
AcDbEntity
  8
0
100
AcDbLine
 10
-0.2306965000000019
 20
34.06908449999999
 30
0.0
 11
-0.187955500000003
 21
28.61858449999999
 31
0.0
  0
LINE
  5
26
330
1E
100
AcDbEntity
  8
0
100
AcDbLine
 10
-0.2306965000000019
 20
34.06908449999999
 30
0.0
 11
-0.226523500000002
 21
34.34738449999999
 31
0.0
  0
LINE
  5
28
330
1E
100
AcDbEntity
  8
0
100
AcDbLine
 10
-0.146144500000002
 20
39.55818449999999
 30
0.0
 11
0.0652434999999982
 21
45.0800845
 31
0.0
  0
LINE
  5
29
330
1E
100
AcDbEntity
  8
0
100
AcDbLine
 10
-0.189393500000003
 20
28.8488845
 30
0.0
 11
-0.187955500000003
 21
28.61858449999999
 31
0.0
  0
LINE
  5
2A
330
1E
100
AcDbEntity
  8
0
100
AcDbLine
 10
-0.187955500000003
 20
28.61858449999999
 30
0.0
 11
-0.0232615000000031
 21
23.39508449999999
 31
0.0
  0
LINE
  5
2D
330
1E
100
AcDbEntity
  8
0
100
AcDbLine
 10
0.279510499999997
 20
17.8562845
 30
0.0
 11
1.254196499999999
 21
7.3179845
 31
0.0
  0
LINE
  5
2F
330
1E
100
AcDbEntity
  8
0
100
AcDbLine
 10
-0.0232615000000031
 20
23.39508449999999
 30
0.0
 11
0.279510499999997
 21
17.8562845
 31
0.0
  0
LINE
  5
32
330
1E
100
AcDbEntity
  8
0
100
AcDbLine
 10
0.0652434999999982
 20
45.0800845
 30
0.0
 11
0.403792499999999
 21
50.6284845
 31
0.0
  0
LINE
  5
33
330
1E
100
AcDbEntity
  8
0
100
AcDbLine
 10
0.279510499999997
 20
17.8562845
 30
0.0
 11
1.254196499999999
 21
7.3179845
 31
0.0
  0
LINE
  5
35
330
1E
100
AcDbEntity
  8
0
100
AcDbLine
 10
0.439638499999999
 20
51.05198449999999
 30
0.0
 11
0.8700654999999988
 21
56.19748449999999
 31
0.0
  0
LINE
  5
36
330
1E
100
AcDbEntity
  8
0
100
AcDbLine
 10
0.919895499999999
 20
56.66938449999999
 30
0.0
 11
1.4614365
 21
61.7814845
 31
0.0
  0
LINE
  5
37
330
1E
100
AcDbEntity
  8
0
100
AcDbLine
 10
0.8700654999999988
 20
56.19748449999999
 30
0.0
 11
0.9198954999999989
 21
56.66938449999999
 31
0.0
  0
LINE
  5
38
330
1E
100
AcDbEntity
  8
0
100
AcDbLine
 10
0.403792499999999
 20
50.6284845
 30
0.0
 11
0.439638499999999
 21
51.05198449999999
 31
0.0
  0
LINE
  5
3A
330
1E
100
AcDbEntity
  8
0
100
AcDbLine
 10
1.254196499999999
 20
7.3179845
 30
0.0
 11
1.929876499999999
 21
2.147004499999999
 31
0.0
  0
LINE
  5
3B
330
1E
100
AcDbEntity
  8
0
100
AcDbLine
 10
1.254196499999999
 20
7.3179845
 30
0.0
 11
1.929876499999999
 21
2.147004499999999
 31
0.0
  0
LINE
  5
3C
330
1E
100
AcDbEntity
  8
0
100
AcDbLine
 10
2.000126499999999
 20
1.775564499999999
 30
0.0
 11
2.1985865
 21
1.179384499999999
 31
0.0
  0
LINE
  5
3D
330
1E
100
AcDbEntity
  8
0
100
AcDbLine
 10
2.1985865
 20
1.179384499999999
 30
0.0
 11
2.484406499999999
 21
0.6774045000000041
 31
0.0
  0
LINE
  5
43
330
1E
100
AcDbEntity
  8
0
100
AcDbLine
 10
1.929876499999999
 20
2.147004499999999
 30
0.0
 11
2.000126499999999
 21
1.775564499999999
 31
0.0
  0
LINE
  5
45
330
1E
100
AcDbEntity
  8
0
100
AcDbLine
 10
1.4614365
 20
61.7814845
 30
0.0
 11
1.5282765
 21
62.3013845
 31
0.0
  0
LINE
  5
48
330
1E
100
AcDbEntity
  8
0
100
AcDbLine
 10
1.5282765
 20
62.3013845
 30
0.0
 11
3.0202865
 21
72.9696845
 31
0.0
  0
LINE
  5
4A
330
1E
100
AcDbEntity
  8
0
100
AcDbLine
 10
2.484406499999999
 20
0.6774045000000041
 30
0.0
 11
2.84616649999999
 21
0.2888345000000039
 31
0.0
  0
LINE
  5
4E
330
1E
100
AcDbEntity
  8
0
100
AcDbLine
 10
2.84616649999999
 20
0.2888345000000039
 30
0.0
 11
3.271196499999999
 21
0.0282475000000043
 31
0.0
  0
LINE
  5
50
330
1E
100
AcDbEntity
  8
0
100
AcDbLine
 10
3.74175649999999
 20
-0.0933844999999957
 30
0.0
 11
4.24020649999999
 21
-0.0722734999999957
 31
0.0
  0
LINE
  5
51
330
1E
100
AcDbEntity
  8
0
100
AcDbLine
 10
4.24020649999999
 20
-0.0722734999999957
 30
0.0
 11
4.74781649999999
 21
0.0912185000000042
 31
0.0
  0
LINE
  5
52
330
1E
100
AcDbEntity
  8
0
100
AcDbLine
 10
3.271196499999999
 20
0.0282475000000043
 30
0.0
 11
3.74175649999999
 21
-0.0933844999999957
 31
0.0
  0
LINE
  5
53
330
1E
100
AcDbEntity
  8
0
100
AcDbLine
 10
4.24020649999999
 20
-0.0722734999999957
 30
0.0
 11
4.74781649999999
 21
0.0912185000000042
 31
0.0
  0
LINE
  5
54
330
1E
100
AcDbEntity
  8
0
100
AcDbLine
 10
4.74781649999999
 20
0.0912185000000042
 30
0.0
 11
5.24516649999999
 21
0.390284500000004
 31
0.0
  0
LINE
  5
55
330
1E
100
AcDbEntity
  8
0
100
AcDbLine
 10
5.24516649999999
 20
0.390284500000004
 30
0.0
 11
5.712786499999999
 21
0.8140945000000041
 31
0.0
  0
LINE
  5
56
330
1E
100
AcDbEntity
  8
0
100
AcDbLine
 10
5.712786499999999
 20
0.8140945000000041
 30
0.0
 11
6.1327765
 21
1.3460245
 31
0.0
  0
LINE
  5
5A
330
1E
100
AcDbEntity
  8
0
100
AcDbLine
 10
6.1327765
 20
1.3460245
 30
0.0
 11
6.4892165
 21
1.965374499999999
 31
0.0
  0
LINE
  5
5B
330
1E
100
AcDbEntity
  8
0
100
AcDbLine
 10
6.4892165
 20
1.965374499999999
 30
0.0
 11
6.767616499999999
 21
2.648904499999999
 31
0.0
  0
LINE
  5
5C
330
1E
100
AcDbEntity
  8
0
100
AcDbLine
 10
6.767616499999999
 20
2.648904499999999
 30
0.0
 11
6.95776649999999
 21
3.370164499999999
 31
0.0
  0
LINE
  5
69
330
1E
100
AcDbEntity
  8
0
100
AcDbLine
 10
6.95776649999999
 20
3.370164499999999
 30
0.0
 11
7.05319649999999
 21
4.1010745
 31
0.0
  0
LINE
  5
6B
330
1E
100
AcDbEntity
  8
0
100
AcDbLine
 10
7.05319649999999
 20
4.101074500000009
 30
0.0
 11
11.3918902041918
 21
73.0933845
 31
0.0
  0
LINE
  5
6C
330
1E
100
AcDbEntity
  8
0
100
AcDbLine
 10
7.05319649999999
 20
4.1010745
 30
0.0
 11
11.3918902041918
 21
73.0933845
 31
0.0
  0
LINE
  5
73
330
1E
100
AcDbEntity
  8
0
100
AcDbLine
 10
3.126876499999999
 20
73.58388449999999
 30
0.0
 11
3.9865265
 21
78.5616845
 31
0.0
  0
LINE
  5
77
330
1E
100
AcDbEntity
  8
0
100
AcDbLine
 10
11.3918902041918
 20
73.0933845
 30
0.0
 11
48.7306965
 21
73.0933845
 31
0.0
  0
LINE
  5
79
330
1E
100
AcDbEntity
  8
0
100
AcDbLine
 10
3.9865265
 20
78.5616845
 30
0.0
 11
5.0745765
 21
84.14468449999999
 31
0.0
  0
LINE
  5
7A
330
1E
100
AcDbEntity
  8
0
100
AcDbLine
 10
3.0202865
 20
72.9696845
 30
0.0
 11
3.126876499999999
 21
73.58388449999999
 31
0.0
  0
LINE
  5
7F
330
1E
100
AcDbEntity
  8
0
100
AcDbLine
 10
6.230696499999999
 20
89.4633103196721
 30
0.0
 11
6.230696499999999
 21
94.19338449999999
 31
0.0
  0
LINE
  5
81
330
1E
100
AcDbEntity
  8
0
100
AcDbLine
 10
6.230696499999999
 20
94.19338449999999
 30
0.0
 11
6.230696499999999
 21
101.0933845
 31
0.0
  0
LINE
  5
82
330
1E
100
AcDbEntity
  8
0
100
AcDbLine
 10
6.230696499999999
 20
119.8933844999999
 30
0.0
 11
6.230696499999999
 21
124.0933845
 31
0.0
  0
LINE
  5
83
330
1E
100
AcDbEntity
  8
0
100
AcDbLine
 10
6.230696499999999
 20
119.8933844999999
 30
0.0
 11
6.230696499999999
 21
114.2933844999999
 31
0.0
  0
LINE
  5
84
330
1E
100
AcDbEntity
  8
0
100
AcDbLine
 10
6.230696499999999
 20
114.2933844999999
 30
0.0
 11
6.230696499999999
 21
119.8933844999999
 31
0.0
  0
LINE
  5
85
330
1E
100
AcDbEntity
  8
0
100
AcDbLine
 10
6.230696499999999
 20
114.2933844999999
 30
0.0
 11
6.230696499999999
 21
107.9933845
 31
0.0
  0
LINE
  5
86
330
1E
100
AcDbEntity
  8
0
100
AcDbLine
 10
6.230696499999999
 20
126.6933845
 30
0.0
 11
6.230696499999999
 21
127.5933844999999
 31
0.0
  0
LINE
  5
87
330
1E
100
AcDbEntity
  8
0
100
AcDbLine
 10
6.230696499999999
 20
126.6933845
 30
0.0
 11
6.230696499999999
 21
124.0933845
 31
0.0
  0
LINE
  5
88
330
1E
100
AcDbEntity
  8
0
100
AcDbLine
 10
6.230696499999999
 20
124.0933845
 30
0.0
 11
6.230696499999999
 21
126.6933845
 31
0.0
  0
LINE
  5
89
330
1E
100
AcDbEntity
  8
0
100
AcDbLine
 10
6.230696499999999
 20
107.9933845
 30
0.0
 11
6.230696499999999
 21
114.2933844999999
 31
0.0
  0
LINE
  5
8A
330
1E
100
AcDbEntity
  8
0
100
AcDbLine
 10
6.230696499999999
 20
101.0933845
 30
0.0
 11
6.230696499999999
 21
107.9933845
 31
0.0
  0
LINE
  5
8B
330
1E
100
AcDbEntity
  8
0
100
AcDbLine
 10
6.230696499999999
 20
101.0933845
 30
0.0
 11
6.230696499999999
 21
94.19338449999999
 31
0.0
  0
LINE
  5
8C
330
1E
100
AcDbEntity
  8
0
100
AcDbLine
 10
7.730696499999999
 20
129.0933844999999
 30
0.0
 11
43.23069649999999
 21
129.0933844999999
 31
0.0
  0
LINE
  5
8D
330
1E
100
AcDbEntity
  8
0
100
AcDbLine
 10
7.730696499999999
 20
129.0933844999999
 30
0.0
 11
43.23069649999999
 21
129.0933844999999
 31
0.0
  0
LINE
  5
8E
330
1E
100
AcDbEntity
  8
0
100
AcDbLine
 10
7.030696499999999
 20
128.7933844999999
 30
0.0
 11
7.730696499999999
 21
129.0933844999999
 31
0.0
  0
LINE
  5
8F
330
1E
100
AcDbEntity
  8
0
100
AcDbLine
 10
6.530696499999999
 20
128.2933845
 30
0.0
 11
7.030696499999999
 21
128.7933844999999
 31
0.0
  0
LINE
  5
90
330
1E
100
AcDbEntity
  8
0
100
AcDbLine
 10
6.230696499999999
 20
127.5933844999999
 30
0.0
 11
6.530696499999999
 21
128.2933845
 31
0.0
  0
LINE
  5
91
330
1E
100
AcDbEntity
  8
0
100
AcDbLine
 10
6.230696499999999
 20
127.5933844999999
 30
0.0
 11
6.230696499999999
 21
126.6933845
 31
0.0
  0
LINE
  5
92
330
1E
100
AcDbEntity
  8
0
100
AcDbLine
 10
5.2284565
 20
84.85028449999999
 30
0.0
 11
6.230696499999999
 21
89.4631919179257
 31
0.0
  0
LINE
  5
93
330
1E
100
AcDbEntity
  8
0
100
AcDbLine
 10
5.0745765
 20
84.14468449999999
 30
0.0
 11
5.2284565
 21
84.85028449999999
 31
0.0
  0
LINE
  5
96
330
1E
100
AcDbEntity
  8
0
100
AcDbLine
 10
13.2306965
 20
158.0933844999999
 30
0.0
 11
13.2306965
 21
158.6933845
 31
0.0
  0
LINE
  5
97
330
1E
100
AcDbEntity
  8
0
100
AcDbLine
 10
13.2306965
 20
158.0933844999999
 30
0.0
 11
14.2306965
 21
157.0933844999999
 31
0.0
  0
LINE
  5
98
330
1E
100
AcDbEntity
  8
0
100
AcDbLine
 10
13.2306965
 20
163.0933844999999
 30
0.0
 11
13.2306965
 21
160.3933845
 31
0.0
  0
LINE
  5
99
330
1E
100
AcDbEntity
  8
0
100
AcDbLine
 10
13.2306965
 20
163.0933844999999
 30
0.0
 11
13.2306965
 21
166.5933844999999
 31
0.0
  0
LINE
  5
9A
330
1E
100
AcDbEntity
  8
0
100
AcDbLine
 10
13.2306965
 20
158.6933845
 30
0.0
 11
13.2306965
 21
160.3933845
 31
0.0
  0
LINE
  5
9B
330
1E
100
AcDbEntity
  8
0
100
AcDbLine
 10
13.2306965
 20
158.6933845
 30
0.0
 11
13.2306965
 21
158.0933844999999
 31
0.0
  0
LINE
  5
9C
330
1E
100
AcDbEntity
  8
0
100
AcDbLine
 10
13.2306965
 20
160.3933845
 30
0.0
 11
13.2306965
 21
163.0933844999999
 31
0.0
  0
LINE
  5
9D
330
1E
100
AcDbEntity
  8
0
100
AcDbLine
 10
13.2306965
 20
160.3933845
 30
0.0
 11
13.2306965
 21
158.6933845
 31
0.0
  0
LINE
  5
9E
330
1E
100
AcDbEntity
  8
0
100
AcDbLine
 10
13.2306965
 20
166.5933844999999
 30
0.0
 11
13.2306965
 21
170.6933845
 31
0.0
  0
LINE
  5
9F
330
1E
100
AcDbEntity
  8
0
100
AcDbLine
 10
13.2306965
 20
170.6933845
 30
0.0
 11
13.2306965
 21
175.0933844999999
 31
0.0
  0
LINE
  5
A0
330
1E
100
AcDbEntity
  8
0
100
AcDbLine
 10
13.2306965
 20
170.6933845
 30
0.0
 11
13.2306965
 21
166.5933844999999
 31
0.0
  0
LINE
  5
A1
330
1E
100
AcDbEntity
  8
0
100
AcDbLine
 10
13.2306965
 20
192.0933845
 30
0.0
 11
13.2306965
 21
191.4933845
 31
0.0
  0
LINE
  5
A2
330
1E
100
AcDbEntity
  8
0
100
AcDbLine
 10
13.2306965
 20
192.0933845
 30
0.0
 11
14.2306965
 21
193.0933845
 31
0.0
  0
LINE
  5
A3
330
1E
100
AcDbEntity
  8
0
100
AcDbLine
 10
13.2306965
 20
191.4933845
 30
0.0
 11
13.2306965
 21
192.0933845
 31
0.0
  0
LINE
  5
A4
330
1E
100
AcDbEntity
  8
0
100
AcDbLine
 10
13.2306965
 20
191.4933845
 30
0.0
 11
13.2306965
 21
189.7933845
 31
0.0
  0
LINE
  5
A5
330
1E
100
AcDbEntity
  8
0
100
AcDbLine
 10
13.2306965
 20
189.7933845
 30
0.0
 11
13.2306965
 21
191.4933845
 31
0.0
  0
LINE
  5
A6
330
1E
100
AcDbEntity
  8
0
100
AcDbLine
 10
13.2306965
 20
189.7933845
 30
0.0
 11
13.2306965
 21
187.0933844999999
 31
0.0
  0
LINE
  5
A7
330
1E
100
AcDbEntity
  8
0
100
AcDbLine
 10
13.2306965
 20
187.0933844999999
 30
0.0
 11
13.2306965
 21
189.7933845
 31
0.0
  0
LINE
  5
A8
330
1E
100
AcDbEntity
  8
0
100
AcDbLine
 10
13.2306965
 20
187.0933844999999
 30
0.0
 11
13.2306965
 21
183.5933844999999
 31
0.0
  0
LINE
  5
A9
330
1E
100
AcDbEntity
  8
0
100
AcDbLine
 10
13.2306965
 20
183.5933844999999
 30
0.0
 11
13.2306965
 21
187.0933844999999
 31
0.0
  0
LINE
  5
AA
330
1E
100
AcDbEntity
  8
0
100
AcDbLine
 10
13.2306965
 20
183.5933844999999
 30
0.0
 11
13.2306965
 21
179.4933844999999
 31
0.0
  0
LINE
  5
AB
330
1E
100
AcDbEntity
  8
0
100
AcDbLine
 10
13.2306965
 20
179.4933844999999
 30
0.0
 11
13.2306965
 21
183.5933844999999
 31
0.0
  0
LINE
  5
AC
330
1E
100
AcDbEntity
  8
0
100
AcDbLine
 10
13.2306965
 20
179.4933844999999
 30
0.0
 11
13.2306965
 21
175.0933844999999
 31
0.0
  0
LINE
  5
AD
330
1E
100
AcDbEntity
  8
0
100
AcDbLine
 10
14.2306965
 20
157.6933845
 30
0.0
 11
14.2306965
 21
157.0933844999999
 31
0.0
  0
LINE
  5
AE
330
1E
100
AcDbEntity
  8
0
100
AcDbLine
 10
14.2306965
 20
157.6933845
 30
0.0
 11
14.2306965
 21
159.4933844999999
 31
0.0
  0
LINE
  5
AF
330
1E
100
AcDbEntity
  8
0
100
AcDbLine
 10
14.2306965
 20
159.4933844999999
 30
0.0
 11
14.2306965
 21
157.6933845
 31
0.0
  0
LINE
  5
B0
330
1E
100
AcDbEntity
  8
0
100
AcDbLine
 10
14.2306965
 20
159.4933844999999
 30
0.0
 11
14.2306965
 21
162.3933844999999
 31
0.0
  0
LINE
  5
B1
330
1E
100
AcDbEntity
  8
0
100
AcDbLine
 10
14.2306965
 20
162.3933844999999
 30
0.0
 11
14.2306965
 21
166.0933844999999
 31
0.0
  0
LINE
  5
B2
330
1E
100
AcDbEntity
  8
0
100
AcDbLine
 10
14.2306965
 20
162.3933844999999
 30
0.0
 11
14.2306965
 21
159.4933844999999
 31
0.0
  0
LINE
  5
B3
330
1E
100
AcDbEntity
  8
0
100
AcDbLine
 10
15.2306965
 20
157.0933844999999
 30
0.0
 11
15.2306965
 21
157.6933845
 31
0.0
  0
LINE
  5
B4
330
1E
100
AcDbEntity
  8
0
100
AcDbLine
 10
15.2306965
 20
157.6933845
 30
0.0
 11
15.2306965
 21
157.0933844999999
 31
0.0
  0
LINE
  5
B5
330
1E
100
AcDbEntity
  8
0
100
AcDbLine
 10
15.2306965
 20
157.6933845
 30
0.0
 11
15.2306965
 21
159.4933844999999
 31
0.0
  0
LINE
  5
B6
330
1E
100
AcDbEntity
  8
0
100
AcDbLine
 10
15.2306965
 20
160.0933844999999
 30
0.0
 11
47.2306965
 21
160.0933844999999
 31
0.0
  0
LINE
  5
B7
330
1E
100
AcDbEntity
  8
0
100
AcDbLine
 10
15.2306965
 20
159.4933844999999
 30
0.0
 11
15.2306965
 21
157.6933845
 31
0.0
  0
LINE
  5
B8
330
1E
100
AcDbEntity
  8
0
100
AcDbLine
 10
15.2306965
 20
159.4933844999999
 30
0.0
 11
15.2306965
 21
162.3933844999999
 31
0.0
  0
LINE
  5
B9
330
1E
100
AcDbEntity
  8
0
100
AcDbLine
 10
15.2306965
 20
160.0933844999999
 30
0.0
 11
47.2306965
 21
160.0933844999999
 31
0.0
  0
LINE
  5
BA
330
1E
100
AcDbEntity
  8
0
100
AcDbLine
 10
14.2306965
 20
157.0933844999999
 30
0.0
 11
15.2306965
 21
157.0933844999999
 31
0.0
  0
LINE
  5
BB
330
1E
100
AcDbEntity
  8
0
100
AcDbLine
 10
14.2306965
 20
157.0933844999999
 30
0.0
 11
14.2306965
 21
157.6933845
 31
0.0
  0
LINE
  5
BC
330
1E
100
AcDbEntity
  8
0
100
AcDbLine
 10
14.2306965
 20
166.0933844999999
 30
0.0
 11
14.2306965
 21
170.4933845
 31
0.0
  0
LINE
  5
BD
330
1E
100
AcDbEntity
  8
0
100
AcDbLine
 10
14.2306965
 20
192.4933844999999
 30
0.0
 11
14.2306965
 21
190.6933845
 31
0.0
  0
LINE
  5
BE
330
1E
100
AcDbEntity
  8
0
100
AcDbLine
 10
14.2306965
 20
192.4933844999999
 30
0.0
 11
14.2306965
 21
193.0933845
 31
0.0
  0
LINE
  5
BF
330
1E
100
AcDbEntity
  8
0
100
AcDbLine
 10
14.2306965
 20
190.6933845
 30
0.0
 11
14.2306965
 21
187.7933845
 31
0.0
  0
LINE
  5
C0
330
1E
100
AcDbEntity
  8
0
100
AcDbLine
 10
14.2306965
 20
190.6933845
 30
0.0
 11
14.2306965
 21
192.4933844999999
 31
0.0
  0
LINE
  5
C1
330
1E
100
AcDbEntity
  8
0
100
AcDbLine
 10
14.2306965
 20
187.7933845
 30
0.0
 11
14.2306965
 21
184.0933844999999
 31
0.0
  0
LINE
  5
C2
330
1E
100
AcDbEntity
  8
0
100
AcDbLine
 10
14.2306965
 20
187.7933845
 30
0.0
 11
14.2306965
 21
190.6933845
 31
0.0
  0
LINE
  5
C3
330
1E
100
AcDbEntity
  8
0
100
AcDbLine
 10
14.2306965
 20
184.0933844999999
 30
0.0
 11
14.2306965
 21
179.6933845
 31
0.0
  0
LINE
  5
C4
330
1E
100
AcDbEntity
  8
0
100
AcDbLine
 10
14.2306965
 20
184.0933844999999
 30
0.0
 11
14.2306965
 21
187.7933845
 31
0.0
  0
LINE
  5
C5
330
1E
100
AcDbEntity
  8
0
100
AcDbLine
 10
14.2306965
 20
179.6933845
 30
0.0
 11
14.2306965
 21
175.0933844999999
 31
0.0
  0
LINE
  5
C6
330
1E
100
AcDbEntity
  8
0
100
AcDbLine
 10
14.2306965
 20
179.6933845
 30
0.0
 11
14.2306965
 21
184.0933844999999
 31
0.0
  0
LINE
  5
C7
330
1E
100
AcDbEntity
  8
0
100
AcDbLine
 10
14.2306965
 20
170.4933845
 30
0.0
 11
14.2306965
 21
166.0933844999999
 31
0.0
  0
LINE
  5
C8
330
1E
100
AcDbEntity
  8
0
100
AcDbLine
 10
14.2306965
 20
170.4933845
 30
0.0
 11
14.2306965
 21
175.0933844999999
 31
0.0
  0
LINE
  5
C9
330
1E
100
AcDbEntity
  8
0
100
AcDbLine
 10
15.2306965
 20
166.0933844999999
 30
0.0
 11
15.2306965
 21
170.4933845
 31
0.0
  0
LINE
  5
CA
330
1E
100
AcDbEntity
  8
0
100
AcDbLine
 10
15.2306965
 20
170.4933845
 30
0.0
 11
15.2306965
 21
166.0933844999999
 31
0.0
  0
LINE
  5
CB
330
1E
100
AcDbEntity
  8
0
100
AcDbLine
 10
15.2306965
 20
170.4933845
 30
0.0
 11
15.2306965
 21
175.0933844999999
 31
0.0
  0
LINE
  5
CC
330
1E
100
AcDbEntity
  8
0
100
AcDbLine
 10
15.2306965
 20
193.0933845
 30
0.0
 11
15.2306965
 21
192.4933844999999
 31
0.0
  0
LINE
  5
CD
330
1E
100
AcDbEntity
  8
0
100
AcDbLine
 10
15.2306965
 20
192.4933844999999
 30
0.0
 11
15.2306965
 21
190.6933845
 31
0.0
  0
LINE
  5
CE
330
1E
100
AcDbEntity
  8
0
100
AcDbLine
 10
15.2306965
 20
192.4933844999999
 30
0.0
 11
15.2306965
 21
193.0933845
 31
0.0
  0
LINE
  5
CF
330
1E
100
AcDbEntity
  8
0
100
AcDbLine
 10
15.2306965
 20
190.6933845
 30
0.0
 11
15.2306965
 21
187.7933845
 31
0.0
  0
LINE
  5
D0
330
1E
100
AcDbEntity
  8
0
100
AcDbLine
 10
15.2306965
 20
190.6933845
 30
0.0
 11
15.2306965
 21
192.4933844999999
 31
0.0
  0
LINE
  5
D1
330
1E
100
AcDbEntity
  8
0
100
AcDbLine
 10
15.2306965
 20
187.7933845
 30
0.0
 11
15.2306965
 21
184.0933844999999
 31
0.0
  0
LINE
  5
D2
330
1E
100
AcDbEntity
  8
0
100
AcDbLine
 10
15.2306965
 20
187.7933845
 30
0.0
 11
15.2306965
 21
190.6933845
 31
0.0
  0
LINE
  5
D3
330
1E
100
AcDbEntity
  8
0
100
AcDbLine
 10
15.2306965
 20
184.0933844999999
 30
0.0
 11
15.2306965
 21
179.6933845
 31
0.0
  0
LINE
  5
D4
330
1E
100
AcDbEntity
  8
0
100
AcDbLine
 10
15.2306965
 20
184.0933844999999
 30
0.0
 11
15.2306965
 21
187.7933845
 31
0.0
  0
LINE
  5
D5
330
1E
100
AcDbEntity
  8
0
100
AcDbLine
 10
15.2306965
 20
179.6933845
 30
0.0
 11
15.2306965
 21
175.0933844999999
 31
0.0
  0
LINE
  5
D6
330
1E
100
AcDbEntity
  8
0
100
AcDbLine
 10
15.2306965
 20
179.6933845
 30
0.0
 11
15.2306965
 21
184.0933844999999
 31
0.0
  0
LINE
  5
D7
330
1E
100
AcDbEntity
  8
0
100
AcDbLine
 10
15.2306965
 20
175.0933844999999
 30
0.0
 11
15.2306965
 21
170.4933845
 31
0.0
  0
LINE
  5
D8
330
1E
100
AcDbEntity
  8
0
100
AcDbLine
 10
15.2306965
 20
175.0933844999999
 30
0.0
 11
15.2306965
 21
179.6933845
 31
0.0
  0
LINE
  5
D9
330
1E
100
AcDbEntity
  8
0
100
AcDbLine
 10
14.2306965
 20
175.0933844999999
 30
0.0
 11
14.2306965
 21
170.4933845
 31
0.0
  0
LINE
  5
DA
330
1E
100
AcDbEntity
  8
0
100
AcDbLine
 10
14.2306965
 20
175.0933844999999
 30
0.0
 11
14.2306965
 21
179.6933845
 31
0.0
  0
LINE
  5
DB
330
1E
100
AcDbEntity
  8
0
100
AcDbLine
 10
15.2306965
 20
162.3933844999999
 30
0.0
 11
15.2306965
 21
164.4933844999999
 31
0.0
  0
LINE
  5
DC
330
1E
100
AcDbEntity
  8
0
100
AcDbLine
 10
15.2306965
 20
162.3933844999999
 30
0.0
 11
15.2306965
 21
166.0933844999999
 31
0.0
  0
LINE
  5
DD
330
1E
100
AcDbEntity
  8
0
100
AcDbLine
 10
15.2306965
 20
162.3933844999999
 30
0.0
 11
15.2306965
 21
159.4933844999999
 31
0.0
  0
LINE
  5
DE
330
1E
100
AcDbEntity
  8
0
100
AcDbLine
 10
45.5306965
 20
124.0933845
 30
0.0
 11
46.3606965
 21
119.8933844999999
 31
0.0
  0
LINE
  5
DF
330
1E
100
AcDbEntity
  8
0
100
AcDbLine
 10
46.3606965
 20
119.8933844999999
 30
0.0
 11
47.5306965
 21
114.2933844999999
 31
0.0
  0
LINE
  5
E0
330
1E
100
AcDbEntity
  8
0
100
AcDbLine
 10
44.8606965
 20
120.8933845
 30
0.0
 11
46.03069650000001
 21
114.9933844999999
 31
0.0
  0
LINE
  5
E1
330
1E
100
AcDbEntity
  8
0
100
AcDbLine
 10
46.03069650000001
 20
114.9933844999999
 30
0.0
 11
47.2306965
 21
108.2933845
 31
0.0
  0
LINE
  5
E2
330
1E
100
AcDbEntity
  8
0
100
AcDbLine
 10
47.5306965
 20
114.2933844999999
 30
0.0
 11
48.7306965
 21
107.9933845
 31
0.0
  0
LINE
  5
E3
330
1E
100
AcDbEntity
  8
0
100
AcDbLine
 10
47.2306965
 20
108.2933845
 30
0.0
 11
48.7306965
 21
101.0933845
 31
0.0
  0
LINE
  5
E4
330
1E
100
AcDbEntity
  8
0
100
AcDbLine
 10
43.4606965
 20
128.0933844999999
 30
0.0
 11
44.0306965
 21
125.2933845
 31
0.0
  0
LINE
  5
E5
330
1E
100
AcDbEntity
  8
0
100
AcDbLine
 10
44.7306965
 20
127.5933844999999
 30
0.0
 11
44.9606965
 21
126.6933845
 31
0.0
  0
LINE
  5
E6
330
1E
100
AcDbEntity
  8
0
100
AcDbLine
 10
44.0306965
 20
125.2933845
 30
0.0
 11
44.8606965
 21
120.8933845
 31
0.0
  0
LINE
  5
E7
330
1E
100
AcDbEntity
  8
0
100
AcDbLine
 10
43.23069649999999
 20
129.0933844999999
 30
0.0
 11
44.7306965
 21
127.5933844999999
 31
0.0
  0
LINE
  5
E8
330
1E
100
AcDbEntity
  8
0
100
AcDbLine
 10
43.23069649999999
 20
129.0933844999999
 30
0.0
 11
43.4606965
 21
128.0933844999999
 31
0.0
  0
LINE
  5
E9
330
1E
100
AcDbEntity
  8
0
100
AcDbLine
 10
44.9606965
 20
126.6933845
 30
0.0
 11
45.5102663924731
 21
124.1865744641579
 31
0.0
  0
LINE
  5
EA
330
1E
100
AcDbEntity
  8
0
100
AcDbLine
 10
44.9606965
 20
126.6933845
 30
0.0
 11
45.5306965
 21
124.0933845
 31
0.0
  0
LINE
  5
EB
330
1E
100
AcDbEntity
  8
0
100
AcDbLine
 10
45.5102663924731
 20
124.1865744641579
 30
0.0
 11
48.2306965
 21
125.0933845
 31
0.0
  0
LINE
  5
EC
330
1E
100
AcDbEntity
  8
0
100
AcDbLine
 10
48.2306965
 20
125.0933845
 30
0.0
 11
51.2306965
 21
125.5933844999999
 31
0.0
  0
LINE
  5
ED
330
1E
100
AcDbEntity
  8
0
100
AcDbLine
 10
47.2306965
 20
160.5933844999999
 30
0.0
 11
47.2306965
 21
160.0933844999999
 31
0.0
  0
LINE
  5
EE
330
1E
100
AcDbEntity
  8
0
100
AcDbLine
 10
47.2306965
 20
160.5933844999999
 30
0.0
 11
47.2306965
 21
162.0933844999999
 31
0.0
  0
LINE
  5
EF
330
1E
100
AcDbEntity
  8
0
100
AcDbLine
 10
47.2306965
 20
162.0933844999999
 30
0.0
 11
47.2306965
 21
160.5933844999999
 31
0.0
  0
LINE
  5
F0
330
1E
100
AcDbEntity
  8
0
100
AcDbLine
 10
47.2306965
 20
162.0933844999999
 30
0.0
 11
47.2306965
 21
164.4933844999999
 31
0.0
  0
LINE
  5
F1
330
1E
100
AcDbEntity
  8
0
100
AcDbLine
 10
47.2306965
 20
164.4933844999999
 30
0.0
 11
47.2306965
 21
162.0933844999999
 31
0.0
  0
LINE
  5
F2
330
1E
100
AcDbEntity
  8
0
100
AcDbLine
 10
47.2306965
 20
164.4933844999999
 30
0.0
 11
47.2306965
 21
167.5933844999999
 31
0.0
  0
LINE
  5
F3
330
1E
100
AcDbEntity
  8
0
100
AcDbLine
 10
47.2306965
 20
167.5933844999999
 30
0.0
 11
47.2306965
 21
164.4933844999999
 31
0.0
  0
LINE
  5
F4
330
1E
100
AcDbEntity
  8
0
100
AcDbLine
 10
47.2306965
 20
167.5933844999999
 30
0.0
 11
47.2306965
 21
171.1933845
 31
0.0
  0
LINE
  5
F5
330
1E
100
AcDbEntity
  8
0
100
AcDbLine
 10
48.2306965
 20
161.5933844999999
 30
0.0
 11
48.2306965
 21
161.0933844999999
 31
0.0
  0
LINE
  5
F6
330
1E
100
AcDbEntity
  8
0
100
AcDbLine
 10
48.2306965
 20
161.5933844999999
 30
0.0
 11
48.2306965
 21
162.9933845
 31
0.0
  0
LINE
  5
F7
330
1E
100
AcDbEntity
  8
0
100
AcDbLine
 10
48.2306965
 20
162.9933845
 30
0.0
 11
48.2306965
 21
161.5933844999999
 31
0.0
  0
LINE
  5
F8
330
1E
100
AcDbEntity
  8
0
100
AcDbLine
 10
48.2306965
 20
162.9933845
 30
0.0
 11
48.2306965
 21
165.1933845
 31
0.0
  0
LINE
  5
F9
330
1E
100
AcDbEntity
  8
0
100
AcDbLine
 10
48.2306965
 20
165.1933845
 30
0.0
 11
48.2306965
 21
162.9933845
 31
0.0
  0
LINE
  5
FA
330
1E
100
AcDbEntity
  8
0
100
AcDbLine
 10
48.2306965
 20
165.1933845
 30
0.0
 11
48.2306965
 21
168.0933845
 31
0.0
  0
LINE
  5
FB
330
1E
100
AcDbEntity
  8
0
100
AcDbLine
 10
48.2306965
 20
168.0933845
 30
0.0
 11
48.2306965
 21
165.1933845
 31
0.0
  0
LINE
  5
FC
330
1E
100
AcDbEntity
  8
0
100
AcDbLine
 10
48.2306965
 20
168.0933845
 30
0.0
 11
48.2306965
 21
171.4933845
 31
0.0
  0
LINE
  5
FD
330
1E
100
AcDbEntity
  8
0
100
AcDbLine
 10
48.2306965
 20
171.4933845
 30
0.0
 11
48.2306965
 21
168.0933845
 31
0.0
  0
LINE
  5
FE
330
1E
100
AcDbEntity
  8
0
100
AcDbLine
 10
48.2306965
 20
171.4933845
 30
0.0
 11
48.2306965
 21
175.0933844999999
 31
0.0
  0
LINE
  5
FF
330
1E
100
AcDbEntity
  8
0
100
AcDbLine
 10
48.2306965
 20
175.0933844999999
 30
0.0
 11
48.2306965
 21
171.4933845
 31
0.0
  0
LINE
  5
100
330
1E
100
AcDbEntity
  8
0
100
AcDbLine
 10
48.2306965
 20
175.0933844999999
 30
0.0
 11
48.2306965
 21
178.6933845
 31
0.0
  0
LINE
  5
101
330
1E
100
AcDbEntity
  8
0
100
AcDbLine
 10
47.2306965
 20
171.1933845
 30
0.0
 11
47.2306965
 21
167.5933844999999
 31
0.0
  0
LINE
  5
102
330
1E
100
AcDbEntity
  8
0
100
AcDbLine
 10
47.2306965
 20
171.1933845
 30
0.0
 11
47.2306965
 21
175.0933844999999
 31
0.0
  0
LINE
  5
103
330
1E
100
AcDbEntity
  8
0
100
AcDbLine
 10
47.2306965
 20
189.5933844999999
 30
0.0
 11
47.2306965
 21
188.0933844999999
 31
0.0
  0
LINE
  5
104
330
1E
100
AcDbEntity
  8
0
100
AcDbLine
 10
47.2306965
 20
189.5933844999999
 30
0.0
 11
47.2306965
 21
190.0933844999999
 31
0.0
  0
LINE
  5
105
330
1E
100
AcDbEntity
  8
0
100
AcDbLine
 10
47.2306965
 20
188.0933844999999
 30
0.0
 11
47.2306965
 21
185.6933845
 31
0.0
  0
LINE
  5
106
330
1E
100
AcDbEntity
  8
0
100
AcDbLine
 10
47.2306965
 20
188.0933844999999
 30
0.0
 11
47.2306965
 21
189.5933844999999
 31
0.0
  0
LINE
  5
107
330
1E
100
AcDbEntity
  8
0
100
AcDbLine
 10
47.2306965
 20
185.6933845
 30
0.0
 11
47.2306965
 21
182.5933844999999
 31
0.0
  0
LINE
  5
108
330
1E
100
AcDbEntity
  8
0
100
AcDbLine
 10
47.2306965
 20
185.6933845
 30
0.0
 11
47.2306965
 21
188.0933844999999
 31
0.0
  0
LINE
  5
109
330
1E
100
AcDbEntity
  8
0
100
AcDbLine
 10
47.2306965
 20
182.5933844999999
 30
0.0
 11
47.2306965
 21
178.9933845
 31
0.0
  0
LINE
  5
10A
330
1E
100
AcDbEntity
  8
0
100
AcDbLine
 10
47.2306965
 20
182.5933844999999
 30
0.0
 11
47.2306965
 21
185.6933845
 31
0.0
  0
LINE
  5
10B
330
1E
100
AcDbEntity
  8
0
100
AcDbLine
 10
48.2306965
 20
178.6933845
 30
0.0
 11
48.2306965
 21
175.0933844999999
 31
0.0
  0
LINE
  5
10C
330
1E
100
AcDbEntity
  8
0
100
AcDbLine
 10
48.2306965
 20
178.6933845
 30
0.0
 11
48.2306965
 21
182.0933844999999
 31
0.0
  0
LINE
  5
10D
330
1E
100
AcDbEntity
  8
0
100
AcDbLine
 10
47.2306965
 20
178.9933845
 30
0.0
 11
47.2306965
 21
175.0933844999999
 31
0.0
  0
LINE
  5
10E
330
1E
100
AcDbEntity
  8
0
100
AcDbLine
 10
47.2306965
 20
178.9933845
 30
0.0
 11
47.2306965
 21
182.5933844999999
 31
0.0
  0
LINE
  5
10F
330
1E
100
AcDbEntity
  8
0
100
AcDbLine
 10
47.2306965
 20
175.0933844999999
 30
0.0
 11
47.2306965
 21
171.1933845
 31
0.0
  0
LINE
  5
110
330
1E
100
AcDbEntity
  8
0
100
AcDbLine
 10
47.2306965
 20
175.0933844999999
 30
0.0
 11
47.2306965
 21
178.9933845
 31
0.0
  0
LINE
  5
111
330
1E
100
AcDbEntity
  8
0
100
AcDbLine
 10
48.2306965
 20
182.0933844999999
 30
0.0
 11
48.2306965
 21
184.9933844999999
 31
0.0
  0
LINE
  5
112
330
1E
100
AcDbEntity
  8
0
100
AcDbLine
 10
48.2306965
 20
188.5933844999999
 30
0.0
 11
48.2306965
 21
187.1933845
 31
0.0
  0
LINE
  5
113
330
1E
100
AcDbEntity
  8
0
100
AcDbLine
 10
48.2306965
 20
188.5933844999999
 30
0.0
 11
48.2306965
 21
189.0933844999999
 31
0.0
  0
LINE
  5
114
330
1E
100
AcDbEntity
  8
0
100
AcDbLine
 10
48.2306965
 20
187.1933845
 30
0.0
 11
48.2306965
 21
184.9933844999999
 31
0.0
  0
LINE
  5
115
330
1E
100
AcDbEntity
  8
0
100
AcDbLine
 10
48.2306965
 20
187.1933845
 30
0.0
 11
48.2306965
 21
188.5933844999999
 31
0.0
  0
LINE
  5
116
330
1E
100
AcDbEntity
  8
0
100
AcDbLine
 10
48.2306965
 20
184.9933844999999
 30
0.0
 11
48.2306965
 21
182.0933844999999
 31
0.0
  0
LINE
  5
117
330
1E
100
AcDbEntity
  8
0
100
AcDbLine
 10
48.2306965
 20
184.9933844999999
 30
0.0
 11
48.2306965
 21
187.1933845
 31
0.0
  0
LINE
  5
118
330
1E
100
AcDbEntity
  8
0
100
AcDbLine
 10
48.2306965
 20
161.0933844999999
 30
0.0
 11
49.2306965
 21
160.0933844999999
 31
0.0
  0
LINE
  5
119
330
1E
100
AcDbEntity
  8
0
100
AcDbLine
 10
48.2306965
 20
161.0933844999999
 30
0.0
 11
48.2306965
 21
161.5933844999999
 31
0.0
  0
LINE
  5
11A
330
1E
100
AcDbEntity
  8
0
100
AcDbLine
 10
47.2306965
 20
160.0933844999999
 30
0.0
 11
48.2306965
 21
161.0933844999999
 31
0.0
  0
LINE
  5
11B
330
1E
100
AcDbEntity
  8
0
100
AcDbLine
 10
47.2306965
 20
160.0933844999999
 30
0.0
 11
47.2306965
 21
160.5933844999999
 31
0.0
  0
LINE
  5
11C
330
1E
100
AcDbEntity
  8
0
100
AcDbLine
 10
48.7306965
 20
74.09338449999999
 30
0.0
 11
48.7306965
 21
76.8933845
 31
0.0
  0
LINE
  5
11D
330
1E
100
AcDbEntity
  8
0
100
AcDbLine
 10
48.7306965
 20
74.09338449999999
 30
0.0
 11
48.7306965
 21
73.0933845
 31
0.0
  0
LINE
  5
11E
330
1E
100
AcDbEntity
  8
0
100
AcDbLine
 10
48.7306965
 20
76.8933845
 30
0.0
 11
48.7306965
 21
81.2933845
 31
0.0
  0
LINE
  5
11F
330
1E
100
AcDbEntity
  8
0
100
AcDbLine
 10
48.7306965
 20
76.8933845
 30
0.0
 11
48.7306965
 21
74.09338449999999
 31
0.0
  0
LINE
  5
120
330
1E
100
AcDbEntity
  8
0
100
AcDbLine
 10
48.7306965
 20
81.2933845
 30
0.0
 11
48.7306965
 21
87.1933845
 31
0.0
  0
LINE
  5
121
330
1E
100
AcDbEntity
  8
0
100
AcDbLine
 10
48.7306965
 20
81.2933845
 30
0.0
 11
48.7306965
 21
76.8933845
 31
0.0
  0
LINE
  5
122
330
1E
100
AcDbEntity
  8
0
100
AcDbLine
 10
48.7306965
 20
87.1933845
 30
0.0
 11
48.7306965
 21
93.8933845
 31
0.0
  0
LINE
  5
123
330
1E
100
AcDbEntity
  8
0
100
AcDbLine
 10
48.7306965
 20
101.0933845
 30
0.0
 11
48.7306965
 21
93.8933845
 31
0.0
  0
LINE
  5
124
330
1E
100
AcDbEntity
  8
0
100
AcDbLine
 10
48.7306965
 20
93.8933845
 30
0.0
 11
48.7306965
 21
101.0933845
 31
0.0
  0
LINE
  5
125
330
1E
100
AcDbEntity
  8
0
100
AcDbLine
 10
48.7306965
 20
93.8933845
 30
0.0
 11
48.7306965
 21
87.1933845
 31
0.0
  0
LINE
  5
126
330
1E
100
AcDbEntity
  8
0
100
AcDbLine
 10
48.7306965
 20
107.9933845
 30
0.0
 11
50.2306965
 21
101.0933845
 31
0.0
  0
LINE
  5
127
330
1E
100
AcDbEntity
  8
0
100
AcDbLine
 10
48.7306965
 20
73.0933845
 30
0.0
 11
50.2306965
 21
74.5933845
 31
0.0
  0
LINE
  5
128
330
1E
100
AcDbEntity
  8
0
100
AcDbLine
 10
48.7306965
 20
73.0933845
 30
0.0
 11
48.7306965
 21
74.09338449999999
 31
0.0
  0
LINE
  5
129
330
1E
100
AcDbEntity
  8
0
100
AcDbLine
 10
49.2306965
 20
160.5933844999999
 30
0.0
 11
49.2306965
 21
160.0933844999999
 31
0.0
  0
LINE
  5
12A
330
1E
100
AcDbEntity
  8
0
100
AcDbLine
 10
49.2306965
 20
160.5933844999999
 30
0.0
 11
49.2306965
 21
162.0933844999999
 31
0.0
  0
LINE
  5
12B
330
1E
100
AcDbEntity
  8
0
100
AcDbLine
 10
49.2306965
 20
162.0933844999999
 30
0.0
 11
49.2306965
 21
160.5933844999999
 31
0.0
  0
LINE
  5
12C
330
1E
100
AcDbEntity
  8
0
100
AcDbLine
 10
49.2306965
 20
162.0933844999999
 30
0.0
 11
49.2306965
 21
164.4933844999999
 31
0.0
  0
LINE
  5
12D
330
1E
100
AcDbEntity
  8
0
100
AcDbLine
 10
49.2306965
 20
164.4933844999999
 30
0.0
 11
49.2306965
 21
162.0933844999999
 31
0.0
  0
LINE
  5
12E
330
1E
100
AcDbEntity
  8
0
100
AcDbLine
 10
49.2306965
 20
164.4933844999999
 30
0.0
 11
49.2306965
 21
167.5933844999999
 31
0.0
  0
LINE
  5
12F
330
1E
100
AcDbEntity
  8
0
100
AcDbLine
 10
49.2306965
 20
167.5933844999999
 30
0.0
 11
49.2306965
 21
164.4933844999999
 31
0.0
  0
LINE
  5
130
330
1E
100
AcDbEntity
  8
0
100
AcDbLine
 10
49.2306965
 20
167.5933844999999
 30
0.0
 11
49.2306965
 21
171.1933845
 31
0.0
  0
LINE
  5
131
330
1E
100
AcDbEntity
  8
0
100
AcDbLine
 10
49.2306965
 20
171.1933845
 30
0.0
 11
49.2306965
 21
167.5933844999999
 31
0.0
  0
LINE
  5
132
330
1E
100
AcDbEntity
  8
0
100
AcDbLine
 10
49.2306965
 20
171.1933845
 30
0.0
 11
49.2306965
 21
175.0933844999999
 31
0.0
  0
LINE
  5
133
330
1E
100
AcDbEntity
  8
0
100
AcDbLine
 10
49.2306965
 20
189.5933844999999
 30
0.0
 11
49.2306965
 21
188.0933844999999
 31
0.0
  0
LINE
  5
134
330
1E
100
AcDbEntity
  8
0
100
AcDbLine
 10
49.2306965
 20
189.5933844999999
 30
0.0
 11
49.2306965
 21
190.0933844999999
 31
0.0
  0
LINE
  5
135
330
1E
100
AcDbEntity
  8
0
100
AcDbLine
 10
49.2306965
 20
188.0933844999999
 30
0.0
 11
49.2306965
 21
185.6933845
 31
0.0
  0
LINE
  5
136
330
1E
100
AcDbEntity
  8
0
100
AcDbLine
 10
49.2306965
 20
188.0933844999999
 30
0.0
 11
49.2306965
 21
189.5933844999999
 31
0.0
  0
LINE
  5
137
330
1E
100
AcDbEntity
  8
0
100
AcDbLine
 10
49.2306965
 20
185.6933845
 30
0.0
 11
49.2306965
 21
182.5933844999999
 31
0.0
  0
LINE
  5
138
330
1E
100
AcDbEntity
  8
0
100
AcDbLine
 10
49.2306965
 20
185.6933845
 30
0.0
 11
49.2306965
 21
188.0933844999999
 31
0.0
  0
LINE
  5
139
330
1E
100
AcDbEntity
  8
0
100
AcDbLine
 10
49.2306965
 20
182.5933844999999
 30
0.0
 11
49.2306965
 21
178.9933845
 31
0.0
  0
LINE
  5
13A
330
1E
100
AcDbEntity
  8
0
100
AcDbLine
 10
49.2306965
 20
182.5933844999999
 30
0.0
 11
49.2306965
 21
185.6933845
 31
0.0
  0
LINE
  5
13B
330
1E
100
AcDbEntity
  8
0
100
AcDbLine
 10
49.2306965
 20
178.9933845
 30
0.0
 11
49.2306965
 21
175.0933844999999
 31
0.0
  0
LINE
  5
13C
330
1E
100
AcDbEntity
  8
0
100
AcDbLine
 10
49.2306965
 20
178.9933845
 30
0.0
 11
49.2306965
 21
182.5933844999999
 31
0.0
  0
LINE
  5
13D
330
1E
100
AcDbEntity
  8
0
100
AcDbLine
 10
49.2306965
 20
175.0933844999999
 30
0.0
 11
49.2306965
 21
171.1933845
 31
0.0
  0
LINE
  5
13E
330
1E
100
AcDbEntity
  8
0
100
AcDbLine
 10
49.2306965
 20
175.0933844999999
 30
0.0
 11
49.2306965
 21
178.9933845
 31
0.0
  0
LINE
  5
13F
330
1E
100
AcDbEntity
  8
0
100
AcDbLine
 10
61.23069649999999
 20
53.0933845
 30
0.0
 11
61.23069649999999
 21
53.8933845
 31
0.0
  0
LINE
  5
140
330
1E
100
AcDbEntity
  8
0
100
AcDbLine
 10
61.23069649999999
 20
53.0933845
 30
0.0
 11
61.73069649999999
 21
51.6933845
 31
0.0
  0
LINE
  5
141
330
1E
100
AcDbEntity
  8
0
100
AcDbLine
 10
61.73069649999999
 20
51.6933845
 30
0.0
 11
62.83069649999999
 21
50.5933845
 31
0.0
  0
LINE
  5
142
330
1E
100
AcDbEntity
  8
0
100
AcDbLine
 10
62.83069649999999
 20
50.5933845
 30
0.0
 11
64.23069649999999
 21
50.0933845
 31
0.0
  0
LINE
  5
143
330
1E
100
AcDbEntity
  8
0
100
AcDbLine
 10
73.23069649999999
 20
50.0933845
 30
0.0
 11
73.23069649999999
 21
50.9933845
 31
0.0
  0
LINE
  5
144
330
1E
100
AcDbEntity
  8
0
100
AcDbLine
 10
73.23069649999999
 20
53.1933845
 30
0.0
 11
73.23069649999999
 21
50.9933845
 31
0.0
  0
LINE
  5
145
330
1E
100
AcDbEntity
  8
0
100
AcDbLine
 10
73.23069649999999
 20
53.1933845
 30
0.0
 11
73.23069649999999
 21
56.6933845
 31
0.0
  0
LINE
  5
146
330
1E
100
AcDbEntity
  8
0
100
AcDbLine
 10
73.23069649999999
 20
50.9933845
 30
0.0
 11
73.23069649999999
 21
50.0933845
 31
0.0
  0
LINE
  5
147
330
1E
100
AcDbEntity
  8
0
100
AcDbLine
 10
73.23069649999999
 20
50.9933845
 30
0.0
 11
73.23069649999999
 21
53.1933845
 31
0.0
  0
LINE
  5
148
330
1E
100
AcDbEntity
  8
0
100
AcDbLine
 10
64.23069649999999
 20
50.0933845
 30
0.0
 11
73.23069649999999
 21
50.0933845
 31
0.0
  0
LINE
  5
149
330
1E
100
AcDbEntity
  8
0
100
AcDbLine
 10
61.23069649999999
 20
56.0933845
 30
0.0
 11
61.23069649999999
 21
59.49338449999999
 31
0.0
  0
LINE
  5
14A
330
1E
100
AcDbEntity
  8
0
100
AcDbLine
 10
61.23069649999999
 20
70.0933845
 30
0.0
 11
61.23069649999999
 21
76.59338449999999
 31
0.0
  0
LINE
  5
14B
330
1E
100
AcDbEntity
  8
0
100
AcDbLine
 10
61.23069649999999
 20
70.0933845
 30
0.0
 11
61.23069649999999
 21
64.09338449999999
 31
0.0
  0
LINE
  5
14C
330
1E
100
AcDbEntity
  8
0
100
AcDbLine
 10
61.23069649999999
 20
70.0933845
 30
0.0
 11
61.23069649999999
 21
77.19338449999999
 31
0.0
  0
LINE
  5
14D
330
1E
100
AcDbEntity
  8
0
100
AcDbLine
 10
61.23069649999999
 20
59.49338449999999
 30
0.0
 11
61.23069649999999
 21
64.09338449999999
 31
0.0
  0
LINE
  5
14E
330
1E
100
AcDbEntity
  8
0
100
AcDbLine
 10
61.23069649999999
 20
59.49338449999999
 30
0.0
 11
61.23069649999999
 21
53.8933845
 31
0.0
  0
LINE
  5
14F
330
1E
100
AcDbEntity
  8
0
100
AcDbLine
 10
61.23069649999999
 20
64.09338449999999
 30
0.0
 11
61.23069649999999
 21
59.49338449999999
 31
0.0
  0
LINE
  5
150
330
1E
100
AcDbEntity
  8
0
100
AcDbLine
 10
61.23069649999999
 20
64.09338449999999
 30
0.0
 11
61.23069649999999
 21
70.0933845
 31
0.0
  0
LINE
  5
151
330
1E
100
AcDbEntity
  8
0
100
AcDbLine
 10
50.2306965
 20
74.5933845
 30
0.0
 11
50.2306965
 21
75.49338449999999
 31
0.0
  0
LINE
  5
152
330
1E
100
AcDbEntity
  8
0
100
AcDbLine
 10
50.2306965
 20
75.49338449999999
 30
0.0
 11
50.2306965
 21
78.0933845
 31
0.0
  0
LINE
  5
153
330
1E
100
AcDbEntity
  8
0
100
AcDbLine
 10
50.2306965
 20
76.7600511666667
 30
0.0
 11
51.2306965
 21
76.59338449999999
 31
0.0
  0
LINE
  5
154
330
1E
100
AcDbEntity
  8
0
100
AcDbLine
 10
51.2306965
 20
76.59338449999999
 30
0.0
 11
61.23069649999999
 21
76.59338449999999
 31
0.0
  0
LINE
  5
155
330
1E
100
AcDbEntity
  8
0
100
AcDbLine
 10
50.2306965
 20
78.0933845
 30
0.0
 11
50.2306965
 21
82.2933845
 31
0.0
  0
LINE
  5
156
330
1E
100
AcDbEntity
  8
0
100
AcDbLine
 10
61.23069649999999
 20
77.19338449999999
 30
0.0
 11
61.23069649999999
 21
70.0933845
 31
0.0
  0
LINE
  5
157
330
1E
100
AcDbEntity
  8
0
100
AcDbLine
 10
50.2306965
 20
82.2933845
 30
0.0
 11
50.2306965
 21
87.8933845
 31
0.0
  0
LINE
  5
158
330
1E
100
AcDbEntity
  8
0
100
AcDbLine
 10
61.23069649999999
 20
81.2933845
 30
0.0
 11
61.23069649999999
 21
84.09338449999999
 31
0.0
  0
LINE
  5
159
330
1E
100
AcDbEntity
  8
0
100
AcDbLine
 10
61.23069649999999
 20
81.2933845
 30
0.0
 11
61.23069649999999
 21
78.8933845
 31
0.0
  0
LINE
  5
15A
330
1E
100
AcDbEntity
  8
0
100
AcDbLine
 10
61.23069649999999
 20
78.8933845
 30
0.0
 11
61.23069649999999
 21
81.2933845
 31
0.0
  0
LINE
  5
15B
330
1E
100
AcDbEntity
  8
0
100
AcDbLine
 10
61.23069649999999
 20
78.8933845
 30
0.0
 11
61.23069649999999
 21
76.8933845
 31
0.0
  0
LINE
  5
15C
330
1E
100
AcDbEntity
  8
0
100
AcDbLine
 10
61.23069649999999
 20
76.8933845
 30
0.0
 11
61.23069649999999
 21
78.8933845
 31
0.0
  0
LINE
  5
15D
330
1E
100
AcDbEntity
  8
0
100
AcDbLine
 10
61.23069649999999
 20
76.8933845
 30
0.0
 11
61.23069649999999
 21
75.2933845
 31
0.0
  0
LINE
  5
15E
330
1E
100
AcDbEntity
  8
0
100
AcDbLine
 10
61.23069649999999
 20
84.09338449999999
 30
0.0
 11
61.23069649999999
 21
81.2933845
 31
0.0
  0
LINE
  5
15F
330
1E
100
AcDbEntity
  8
0
100
AcDbLine
 10
61.23069649999999
 20
84.09338449999999
 30
0.0
 11
61.23069649999999
 21
87.1933845
 31
0.0
  0
LINE
  5
160
330
1E
100
AcDbEntity
  8
0
100
AcDbLine
 10
50.2306965
 20
87.8933845
 30
0.0
 11
50.2306965
 21
94.19338449999999
 31
0.0
  0
LINE
  5
161
330
1E
100
AcDbEntity
  8
0
100
AcDbLine
 10
61.23069649999999
 20
85.2933845
 30
0.0
 11
61.23069649999999
 21
94.29338450000001
 31
0.0
  0
LINE
  5
162
330
1E
100
AcDbEntity
  8
0
100
AcDbLine
 10
61.23069649999999
 20
87.1933845
 30
0.0
 11
61.23069649999999
 21
84.09338449999999
 31
0.0
  0
LINE
  5
163
330
1E
100
AcDbEntity
  8
0
100
AcDbLine
 10
61.23069649999999
 20
87.1933845
 30
0.0
 11
61.23069649999999
 21
90.3933845
 31
0.0
  0
LINE
  5
164
330
1E
100
AcDbEntity
  8
0
100
AcDbLine
 10
50.2306965
 20
94.19338449999999
 30
0.0
 11
50.2306965
 21
101.0933845
 31
0.0
  0
LINE
  5
165
330
1E
100
AcDbEntity
  8
0
100
AcDbLine
 10
61.23069649999999
 20
94.29338450000001
 30
0.0
 11
61.23069649999999
 21
85.2933845
 31
0.0
  0
LINE
  5
166
330
1E
100
AcDbEntity
  8
0
100
AcDbLine
 10
61.23069649999999
 20
90.3933845
 30
0.0
 11
61.23069649999999
 21
87.1933845
 31
0.0
  0
LINE
  5
167
330
1E
100
AcDbEntity
  8
0
100
AcDbLine
 10
61.23069649999999
 20
90.3933845
 30
0.0
 11
61.23069649999999
 21
93.8933845
 31
0.0
  0
LINE
  5
168
330
1E
100
AcDbEntity
  8
0
100
AcDbLine
 10
61.23069649999999
 20
93.8933845
 30
0.0
 11
61.23069649999999
 21
90.3933845
 31
0.0
  0
LINE
  5
169
330
1E
100
AcDbEntity
  8
0
100
AcDbLine
 10
61.23069649999999
 20
93.8933845
 30
0.0
 11
61.23069649999999
 21
97.49338449999999
 31
0.0
  0
LINE
  5
16A
330
1E
100
AcDbEntity
  8
0
100
AcDbLine
 10
61.23069649999999
 20
103.7933844999999
 30
0.0
 11
61.23069649999999
 21
113.8933844999999
 31
0.0
  0
LINE
  5
16B
330
1E
100
AcDbEntity
  8
0
100
AcDbLine
 10
61.23069649999999
 20
97.49338449999999
 30
0.0
 11
61.23069649999999
 21
93.8933845
 31
0.0
  0
LINE
  5
16C
330
1E
100
AcDbEntity
  8
0
100
AcDbLine
 10
61.23069649999999
 20
97.49338449999999
 30
0.0
 11
61.23069649999999
 21
101.0933845
 31
0.0
  0
LINE
  5
16D
330
1E
100
AcDbEntity
  8
0
100
AcDbLine
 10
61.23069649999999
 20
101.0933845
 30
0.0
 11
61.23069649999999
 21
97.49338449999999
 31
0.0
  0
LINE
  5
16E
330
1E
100
AcDbEntity
  8
0
100
AcDbLine
 10
61.23069649999999
 20
101.0933845
 30
0.0
 11
61.23069649999999
 21
104.6933844999999
 31
0.0
  0
LINE
  5
16F
330
1E
100
AcDbEntity
  8
0
100
AcDbLine
 10
51.2306965
 20
125.5933844999999
 30
0.0
 11
61.23069649999999
 21
125.5933844999999
 31
0.0
  0
LINE
  5
170
330
1E
100
AcDbEntity
  8
0
100
AcDbLine
 10
61.23069649999999
 20
113.8933844999999
 30
0.0
 11
61.23069649999999
 21
103.7933844999999
 31
0.0
  0
LINE
  5
171
330
1E
100
AcDbEntity
  8
0
100
AcDbLine
 10
61.23069649999999
 20
111.7933845
 30
0.0
 11
61.23069649999999
 21
108.2933845
 31
0.0
  0
LINE
  5
172
330
1E
100
AcDbEntity
  8
0
100
AcDbLine
 10
61.23069649999999
 20
111.7933845
 30
0.0
 11
61.23069649999999
 21
113.8933844999999
 31
0.0
  0
LINE
  5
173
330
1E
100
AcDbEntity
  8
0
100
AcDbLine
 10
61.23069649999999
 20
108.2933845
 30
0.0
 11
61.23069649999999
 21
104.6933844999999
 31
0.0
  0
LINE
  5
174
330
1E
100
AcDbEntity
  8
0
100
AcDbLine
 10
61.23069649999999
 20
108.2933845
 30
0.0
 11
61.23069649999999
 21
111.7933845
 31
0.0
  0
LINE
  5
175
330
1E
100
AcDbEntity
  8
0
100
AcDbLine
 10
61.23069649999999
 20
104.6933844999999
 30
0.0
 11
61.23069649999999
 21
101.0933845
 31
0.0
  0
LINE
  5
176
330
1E
100
AcDbEntity
  8
0
100
AcDbLine
 10
61.23069649999999
 20
104.6933844999999
 30
0.0
 11
61.23069649999999
 21
108.2933845
 31
0.0
  0
LINE
  5
177
330
1E
100
AcDbEntity
  8
0
100
AcDbLine
 10
61.23069649999999
 20
76.59338449999999
 30
0.0
 11
61.23069649999999
 21
70.0933845
 31
0.0
  0
LINE
  5
178
330
1E
100
AcDbEntity
  8
0
100
AcDbLine
 10
61.23069649999999
 20
76.59338449999999
 30
0.0
 11
61.23069649999999
 21
75.2933845
 31
0.0
  0
LINE
  5
179
330
1E
100
AcDbEntity
  8
0
100
AcDbLine
 10
61.23069649999999
 20
75.2933845
 30
0.0
 11
61.23069649999999
 21
76.59338449999999
 31
0.0
  0
LINE
  5
17A
330
1E
100
AcDbEntity
  8
0
100
AcDbLine
 10
61.23069649999999
 20
75.2933845
 30
0.0
 11
61.23069649999999
 21
74.09338449999999
 31
0.0
  0
LINE
  5
17B
330
1E
100
AcDbEntity
  8
0
100
AcDbLine
 10
61.23069649999999
 20
75.2933845
 30
0.0
 11
61.23069649999999
 21
76.8933845
 31
0.0
  0
LINE
  5
17C
330
1E
100
AcDbEntity
  8
0
100
AcDbLine
 10
61.23069649999999
 20
74.09338449999999
 30
0.0
 11
61.23069649999999
 21
75.2933845
 31
0.0
  0
LINE
  5
17D
330
1E
100
AcDbEntity
  8
0
100
AcDbLine
 10
61.23069649999999
 20
74.09338449999999
 30
0.0
 11
61.23069649999999
 21
73.39338449999999
 31
0.0
  0
LINE
  5
17E
330
1E
100
AcDbEntity
  8
0
100
AcDbLine
 10
61.23069649999999
 20
73.39338449999999
 30
0.0
 11
61.23069649999999
 21
74.09338449999999
 31
0.0
  0
LINE
  5
17F
330
1E
100
AcDbEntity
  8
0
100
AcDbLine
 10
61.23069649999999
 20
73.39338449999999
 30
0.0
 11
61.23069649999999
 21
73.0933845
 31
0.0
  0
LINE
  5
180
330
1E
100
AcDbEntity
  8
0
100
AcDbLine
 10
61.23069649999999
 20
113.8933844999999
 30
0.0
 11
61.23069649999999
 21
156.2933845
 31
0.0
  0
LINE
  5
181
330
1E
100
AcDbEntity
  8
0
100
AcDbLine
 10
61.23069649999999
 20
124.3933844999999
 30
0.0
 11
61.23069649999999
 21
125.2933845
 31
0.0
  0
LINE
  5
182
330
1E
100
AcDbEntity
  8
0
100
AcDbLine
 10
61.23069649999999
 20
125.2933845
 30
0.0
 11
61.23069649999999
 21
124.3933844999999
 31
0.0
  0
LINE
  5
183
330
1E
100
AcDbEntity
  8
0
100
AcDbLine
 10
61.23069649999999
 20
125.2933845
 30
0.0
 11
61.23069649999999
 21
126.8933845
 31
0.0
  0
LINE
  5
184
330
1E
100
AcDbEntity
  8
0
100
AcDbLine
 10
61.23069649999999
 20
125.5933844999999
 30
0.0
 11
61.23069649999999
 21
126.8933845
 31
0.0
  0
LINE
  5
185
330
1E
100
AcDbEntity
  8
0
100
AcDbLine
 10
61.23069649999999
 20
126.8933845
 30
0.0
 11
61.23069649999999
 21
125.5933844999999
 31
0.0
  0
LINE
  5
186
330
1E
100
AcDbEntity
  8
0
100
AcDbLine
 10
61.23069649999999
 20
126.8933845
 30
0.0
 11
61.23069649999999
 21
128.0933844999999
 31
0.0
  0
LINE
  5
187
330
1E
100
AcDbEntity
  8
0
100
AcDbLine
 10
61.23069649999999
 20
126.8933845
 30
0.0
 11
61.23069649999999
 21
125.2933845
 31
0.0
  0
LINE
  5
188
330
1E
100
AcDbEntity
  8
0
100
AcDbLine
 10
61.23069649999999
 20
128.0933844999999
 30
0.0
 11
61.23069649999999
 21
126.8933845
 31
0.0
  0
LINE
  5
189
330
1E
100
AcDbEntity
  8
0
100
AcDbLine
 10
61.23069649999999
 20
128.0933844999999
 30
0.0
 11
61.23069649999999
 21
128.7933844999999
 31
0.0
  0
LINE
  5
18A
330
1E
100
AcDbEntity
  8
0
100
AcDbLine
 10
73.23069649999999
 20
83.39338449999999
 30
0.0
 11
73.23069649999999
 21
75.0933845
 31
0.0
  0
LINE
  5
18B
330
1E
100
AcDbEntity
  8
0
100
AcDbLine
 10
73.23069649999999
 20
83.39338449999999
 30
0.0
 11
73.23069649999999
 21
92.7933845
 31
0.0
  0
LINE
  5
18C
330
1E
100
AcDbEntity
  8
0
100
AcDbLine
 10
73.23069649999999
 20
92.7933845
 30
0.0
 11
73.23069649999999
 21
83.39338449999999
 31
0.0
  0
LINE
  5
18D
330
1E
100
AcDbEntity
  8
0
100
AcDbLine
 10
73.23069649999999
 20
92.7933845
 30
0.0
 11
73.23069649999999
 21
102.5933844999999
 31
0.0
  0
LINE
  5
18E
330
1E
100
AcDbEntity
  8
0
100
AcDbLine
 10
73.23069649999999
 20
102.5933844999999
 30
0.0
 11
73.23069649999999
 21
92.7933845
 31
0.0
  0
LINE
  5
18F
330
1E
100
AcDbEntity
  8
0
100
AcDbLine
 10
73.23069649999999
 20
102.5933844999999
 30
0.0
 11
73.23069649999999
 21
113.1933845
 31
0.0
  0
LINE
  5
190
330
1E
100
AcDbEntity
  8
0
100
AcDbLine
 10
73.23069649999999
 20
113.1933845
 30
0.0
 11
73.23069649999999
 21
102.5933844999999
 31
0.0
  0
LINE
  5
191
330
1E
100
AcDbEntity
  8
0
100
AcDbLine
 10
73.23069649999999
 20
113.1933845
 30
0.0
 11
73.23069649999999
 21
123.9933844999999
 31
0.0
  0
LINE
  5
192
330
1E
100
AcDbEntity
  8
0
100
AcDbLine
 10
73.23069649999999
 20
123.9933844999999
 30
0.0
 11
73.23069649999999
 21
113.1933845
 31
0.0
  0
LINE
  5
193
330
1E
100
AcDbEntity
  8
0
100
AcDbLine
 10
73.23069649999999
 20
123.9933844999999
 30
0.0
 11
73.23069649999999
 21
135.0933844999999
 31
0.0
  0
LINE
  5
194
330
1E
100
AcDbEntity
  8
0
100
AcDbLine
 10
73.23069649999999
 20
75.0933845
 30
0.0
 11
73.23069649999999
 21
67.7933845
 31
0.0
  0
LINE
  5
195
330
1E
100
AcDbEntity
  8
0
100
AcDbLine
 10
73.23069649999999
 20
75.0933845
 30
0.0
 11
73.23069649999999
 21
83.39338449999999
 31
0.0
  0
LINE
  5
196
330
1E
100
AcDbEntity
  8
0
100
AcDbLine
 10
73.23069649999999
 20
67.7933845
 30
0.0
 11
73.23069649999999
 21
61.4933845
 31
0.0
  0
LINE
  5
197
330
1E
100
AcDbEntity
  8
0
100
AcDbLine
 10
73.23069649999999
 20
67.7933845
 30
0.0
 11
73.23069649999999
 21
75.0933845
 31
0.0
  0
LINE
  5
198
330
1E
100
AcDbEntity
  8
0
100
AcDbLine
 10
73.23069649999999
 20
61.4933845
 30
0.0
 11
73.23069649999999
 21
56.6933845
 31
0.0
  0
LINE
  5
199
330
1E
100
AcDbEntity
  8
0
100
AcDbLine
 10
73.23069649999999
 20
61.4933845
 30
0.0
 11
73.23069649999999
 21
67.7933845
 31
0.0
  0
LINE
  5
19A
330
1E
100
AcDbEntity
  8
0
100
AcDbLine
 10
73.23069649999999
 20
56.6933845
 30
0.0
 11
73.23069649999999
 21
53.1933845
 31
0.0
  0
LINE
  5
19B
330
1E
100
AcDbEntity
  8
0
100
AcDbLine
 10
73.23069649999999
 20
56.6933845
 30
0.0
 11
73.23069649999999
 21
61.4933845
 31
0.0
  0
LINE
  5
19C
330
1E
100
AcDbEntity
  8
0
100
AcDbLine
 10
61.23069649999999
 20
128.7933844999999
 30
0.0
 11
61.23069649999999
 21
128.0933844999999
 31
0.0
  0
LINE
  5
19D
330
1E
100
AcDbEntity
  8
0
100
AcDbLine
 10
61.23069649999999
 20
128.7933844999999
 30
0.0
 11
61.23069649999999
 21
129.0933844999999
 31
0.0
  0
LINE
  5
19E
330
1E
100
AcDbEntity
  8
0
100
AcDbLine
 10
61.23069649999999
 20
156.2933845
 30
0.0
 11
61.23069649999999
 21
113.8933844999999
 31
0.0
  0
LINE
  5
19F
330
1E
100
AcDbEntity
  8
0
100
AcDbLine
 10
61.23069649999999
 20
156.2933845
 30
0.0
 11
61.23069649999999
 21
166.3933845
 31
0.0
  0
LINE
  5
1A0
330
1E
100
AcDbEntity
  8
0
100
AcDbLine
 10
61.23069649999999
 20
175.0933844999999
 30
0.0
 11
61.23069649999999
 21
170.7933845
 31
0.0
  0
LINE
  5
1A1
330
1E
100
AcDbEntity
  8
0
100
AcDbLine
 10
61.23069649999999
 20
175.0933844999999
 30
0.0
 11
61.23069649999999
 21
179.3933844999999
 31
0.0
  0
LINE
  5
1A2
330
1E
100
AcDbEntity
  8
0
100
AcDbLine
 10
61.23069649999999
 20
179.3933844999999
 30
0.0
 11
61.23069649999999
 21
175.0933844999999
 31
0.0
  0
LINE
  5
1A3
330
1E
100
AcDbEntity
  8
0
100
AcDbLine
 10
61.23069649999999
 20
179.3933844999999
 30
0.0
 11
61.23069649999999
 21
183.2933845
 31
0.0
  0
LINE
  5
1A4
330
1E
100
AcDbEntity
  8
0
100
AcDbLine
 10
61.23069649999999
 20
183.2933845
 30
0.0
 11
61.23069649999999
 21
179.3933844999999
 31
0.0
  0
LINE
  5
1A5
330
1E
100
AcDbEntity
  8
0
100
AcDbLine
 10
61.23069649999999
 20
183.2933845
 30
0.0
 11
61.23069649999999
 21
186.6933845
 31
0.0
  0
LINE
  5
1A6
330
1E
100
AcDbEntity
  8
0
100
AcDbLine
 10
61.23069649999999
 20
186.6933845
 30
0.0
 11
61.23069649999999
 21
183.2933845
 31
0.0
  0
LINE
  5
1A7
330
1E
100
AcDbEntity
  8
0
100
AcDbLine
 10
61.23069649999999
 20
186.6933845
 30
0.0
 11
61.23069649999999
 21
189.3933845
 31
0.0
  0
LINE
  5
1A8
330
1E
100
AcDbEntity
  8
0
100
AcDbLine
 10
61.23069649999999
 20
189.3933845
 30
0.0
 11
61.23069649999999
 21
186.6933845
 31
0.0
  0
LINE
  5
1A9
330
1E
100
AcDbEntity
  8
0
100
AcDbLine
 10
61.23069649999999
 20
189.3933845
 30
0.0
 11
61.23069649999999
 21
190.9933844999999
 31
0.0
  0
LINE
  5
1AA
330
1E
100
AcDbEntity
  8
0
100
AcDbLine
 10
61.23069649999999
 20
184.8933844999999
 30
0.0
 11
61.23069649999999
 21
192.9933844999999
 31
0.0
  0
LINE
  5
1AB
330
1E
100
AcDbEntity
  8
0
100
AcDbLine
 10
61.23069649999999
 20
184.8933844999999
 30
0.0
 11
61.23069649999999
 21
175.8933845
 31
0.0
  0
LINE
  5
1AC
330
1E
100
AcDbEntity
  8
0
100
AcDbLine
 10
61.23069649999999
 20
175.8933845
 30
0.0
 11
61.23069649999999
 21
184.8933844999999
 31
0.0
  0
LINE
  5
1AD
330
1E
100
AcDbEntity
  8
0
100
AcDbLine
 10
61.23069649999999
 20
175.8933845
 30
0.0
 11
61.23069649999999
 21
166.3933845
 31
0.0
  0
LINE
  5
1AE
330
1E
100
AcDbEntity
  8
0
100
AcDbLine
 10
61.23069649999999
 20
170.7933845
 30
0.0
 11
61.23069649999999
 21
166.8933844999999
 31
0.0
  0
LINE
  5
1AF
330
1E
100
AcDbEntity
  8
0
100
AcDbLine
 10
61.23069649999999
 20
170.7933845
 30
0.0
 11
61.23069649999999
 21
175.0933844999999
 31
0.0
  0
LINE
  5
1B0
330
1E
100
AcDbEntity
  8
0
100
AcDbLine
 10
61.23069649999999
 20
166.3933845
 30
0.0
 11
61.23069649999999
 21
175.8933845
 31
0.0
  0
LINE
  5
1B1
330
1E
100
AcDbEntity
  8
0
100
AcDbLine
 10
61.23069649999999
 20
166.3933845
 30
0.0
 11
61.23069649999999
 21
156.2933845
 31
0.0
  0
LINE
  5
1B2
330
1E
100
AcDbEntity
  8
0
100
AcDbLine
 10
61.23069649999999
 20
166.8933844999999
 30
0.0
 11
61.23069649999999
 21
163.4933844999999
 31
0.0
  0
LINE
  5
1B3
330
1E
100
AcDbEntity
  8
0
100
AcDbLine
 10
61.23069649999999
 20
166.8933844999999
 30
0.0
 11
61.23069649999999
 21
170.7933845
 31
0.0
  0
LINE
  5
1B4
330
1E
100
AcDbEntity
  8
0
100
AcDbLine
 10
61.23069649999999
 20
163.4933844999999
 30
0.0
 11
61.23069649999999
 21
160.7933844999999
 31
0.0
  0
LINE
  5
1B5
330
1E
100
AcDbEntity
  8
0
100
AcDbLine
 10
61.23069649999999
 20
163.4933844999999
 30
0.0
 11
61.23069649999999
 21
166.8933844999999
 31
0.0
  0
LINE
  5
1B6
330
1E
100
AcDbEntity
  8
0
100
AcDbLine
 10
61.23069649999999
 20
160.7933844999999
 30
0.0
 11
61.23069649999999
 21
159.1933844999999
 31
0.0
  0
LINE
  5
1B7
330
1E
100
AcDbEntity
  8
0
100
AcDbLine
 10
61.23069649999999
 20
160.7933844999999
 30
0.0
 11
61.23069649999999
 21
163.4933844999999
 31
0.0
  0
LINE
  5
1B8
330
1E
100
AcDbEntity
  8
0
100
AcDbLine
 10
61.23069649999999
 20
160.0933844999999
 30
0.0
 11
61.23069649999999
 21
159.1933844999999
 31
0.0
  0
LINE
  5
1B9
330
1E
100
AcDbEntity
  8
0
100
AcDbLine
 10
61.23069649999999
 20
159.1933844999999
 30
0.0
 11
61.23069649999999
 21
160.0933844999999
 31
0.0
  0
LINE
  5
1BA
330
1E
100
AcDbEntity
  8
0
100
AcDbLine
 10
61.23069649999999
 20
159.1933844999999
 30
0.0
 11
61.23069649999999
 21
158.5933844999999
 31
0.0
  0
LINE
  5
1BB
330
1E
100
AcDbEntity
  8
0
100
AcDbLine
 10
61.23069649999999
 20
159.1933844999999
 30
0.0
 11
61.23069649999999
 21
160.7933844999999
 31
0.0
  0
LINE
  5
1BC
330
1E
100
AcDbEntity
  8
0
100
AcDbLine
 10
61.23069649999999
 20
158.5933844999999
 30
0.0
 11
61.23069649999999
 21
159.1933844999999
 31
0.0
  0
LINE
  5
1BD
330
1E
100
AcDbEntity
  8
0
100
AcDbLine
 10
73.23069649999999
 20
135.0933844999999
 30
0.0
 11
73.23069649999999
 21
146.1933845
 31
0.0
  0
LINE
  5
1BE
330
1E
100
AcDbEntity
  8
0
100
AcDbLine
 10
73.23069649999999
 20
135.0933844999999
 30
0.0
 11
73.23069649999999
 21
123.9933844999999
 31
0.0
  0
LINE
  5
1BF
330
1E
100
AcDbEntity
  8
0
100
AcDbLine
 10
73.23069649999999
 20
186.7933844999999
 30
0.0
 11
73.23069649999999
 21
177.3933844999999
 31
0.0
  0
LINE
  5
1C0
330
1E
100
AcDbEntity
  8
0
100
AcDbLine
 10
73.23069649999999
 20
186.7933844999999
 30
0.0
 11
73.23069649999999
 21
195.0933844999999
 31
0.0
  0
LINE
  5
1C1
330
1E
100
AcDbEntity
  8
0
100
AcDbLine
 10
73.23069649999999
 20
177.3933844999999
 30
0.0
 11
73.23069649999999
 21
167.5933844999999
 31
0.0
  0
LINE
  5
1C2
330
1E
100
AcDbEntity
  8
0
100
AcDbLine
 10
73.23069649999999
 20
177.3933844999999
 30
0.0
 11
73.23069649999999
 21
186.7933844999999
 31
0.0
  0
LINE
  5
1C3
330
1E
100
AcDbEntity
  8
0
100
AcDbLine
 10
73.23069649999999
 20
167.5933844999999
 30
0.0
 11
73.23069649999999
 21
156.9933844999999
 31
0.0
  0
LINE
  5
1C4
330
1E
100
AcDbEntity
  8
0
100
AcDbLine
 10
73.23069649999999
 20
167.5933844999999
 30
0.0
 11
73.23069649999999
 21
177.3933844999999
 31
0.0
  0
LINE
  5
1C5
330
1E
100
AcDbEntity
  8
0
100
AcDbLine
 10
73.23069649999999
 20
156.9933844999999
 30
0.0
 11
73.23069649999999
 21
146.1933845
 31
0.0
  0
LINE
  5
1C6
330
1E
100
AcDbEntity
  8
0
100
AcDbLine
 10
73.23069649999999
 20
156.9933844999999
 30
0.0
 11
73.23069649999999
 21
167.5933844999999
 31
0.0
  0
LINE
  5
1C7
330
1E
100
AcDbEntity
  8
0
100
AcDbLine
 10
73.23069649999999
 20
146.1933845
 30
0.0
 11
73.23069649999999
 21
135.0933844999999
 31
0.0
  0
LINE
  5
1C8
330
1E
100
AcDbEntity
  8
0
100
AcDbLine
 10
73.23069649999999
 20
146.1933845
 30
0.0
 11
73.23069649999999
 21
156.9933844999999
 31
0.0
  0
LINE
  5
1C9
330
1E
100
AcDbEntity
  8
0
100
AcDbLine
 10
61.23069649999999
 20
190.0933844999999
 30
0.0
 11
61.23069649999999
 21
190.9933844999999
 31
0.0
  0
LINE
  5
1CA
330
1E
100
AcDbEntity
  8
0
100
AcDbLine
 10
61.23069649999999
 20
129.0933844999999
 30
0.0
 11
61.23069649999999
 21
128.7933844999999
 31
0.0
  0
LINE
  5
1CB
330
1E
100
AcDbEntity
  8
0
100
AcDbLine
 10
61.23069649999999
 20
73.0933845
 30
0.0
 11
61.23069649999999
 21
73.39338449999999
 31
0.0
  0
LINE
  5
1CC
330
1E
100
AcDbEntity
  8
0
100
AcDbLine
 10
61.23069649999999
 20
53.8933845
 30
0.0
 11
61.23069649999999
 21
53.0933845
 31
0.0
  0
LINE
  5
1CD
330
1E
100
AcDbEntity
  8
0
100
AcDbLine
 10
49.2306965
 20
160.0933844999999
 30
0.0
 11
61.23069649999999
 21
160.0933844999999
 31
0.0
  0
LINE
  5
1CE
330
1E
100
AcDbEntity
  8
0
100
AcDbLine
 10
49.2306965
 20
160.0933844999999
 30
0.0
 11
49.2306965
 21
160.5933844999999
 31
0.0
  0
LINE
  5
1CF
330
1E
100
AcDbEntity
  8
0
100
AcDbLine
 10
49.2306965
 20
190.0933844999999
 30
0.0
 11
61.23069649999999
 21
190.0933844999999
 31
0.0
  0
LINE
  5
1D0
330
1E
100
AcDbEntity
  8
0
100
AcDbLine
 10
49.2306965
 20
190.0933844999999
 30
0.0
 11
49.2306965
 21
189.5933844999999
 31
0.0
  0
LINE
  5
1D1
330
1E
100
AcDbEntity
  8
0
100
AcDbLine
 10
48.2306965
 20
189.0933844999999
 30
0.0
 11
49.2306965
 21
190.0933844999999
 31
0.0
  0
LINE
  5
1D2
330
1E
100
AcDbEntity
  8
0
100
AcDbLine
 10
48.2306965
 20
189.0933844999999
 30
0.0
 11
48.2306965
 21
188.5933844999999
 31
0.0
  0
LINE
  5
1D3
330
1E
100
AcDbEntity
  8
0
100
AcDbLine
 10
61.23069649999999
 20
191.5933844999999
 30
0.0
 11
61.23069649999999
 21
190.9933844999999
 31
0.0
  0
LINE
  5
1D4
330
1E
100
AcDbEntity
  8
0
100
AcDbLine
 10
61.23069649999999
 20
192.9933844999999
 30
0.0
 11
61.23069649999999
 21
206.0933845
 31
0.0
  0
LINE
  5
1D5
330
1E
100
AcDbEntity
  8
0
100
AcDbLine
 10
61.23069649999999
 20
192.9933844999999
 30
0.0
 11
61.23069649999999
 21
184.8933844999999
 31
0.0
  0
LINE
  5
1D6
330
1E
100
AcDbEntity
  8
0
100
AcDbLine
 10
61.23069649999999
 20
190.9933844999999
 30
0.0
 11
61.23069649999999
 21
191.5933844999999
 31
0.0
  0
LINE
  5
1D7
330
1E
100
AcDbEntity
  8
0
100
AcDbLine
 10
61.23069649999999
 20
190.9933844999999
 30
0.0
 11
61.23069649999999
 21
190.0933844999999
 31
0.0
  0
LINE
  5
1D8
330
1E
100
AcDbEntity
  8
0
100
AcDbLine
 10
61.23069649999999
 20
190.9933844999999
 30
0.0
 11
61.23069649999999
 21
189.3933845
 31
0.0
  0
LINE
  5
1D9
330
1E
100
AcDbEntity
  8
0
100
AcDbLine
 10
47.2306965
 20
190.0933844999999
 30
0.0
 11
48.2306965
 21
189.0933844999999
 31
0.0
  0
LINE
  5
1DA
330
1E
100
AcDbEntity
  8
0
100
AcDbLine
 10
47.2306965
 20
190.0933844999999
 30
0.0
 11
47.2306965
 21
189.5933844999999
 31
0.0
  0
LINE
  5
1DB
330
1E
100
AcDbEntity
  8
0
100
AcDbLine
 10
15.2306965
 20
190.0933844999999
 30
0.0
 11
47.2306965
 21
190.0933844999999
 31
0.0
  0
LINE
  5
1DC
330
1E
100
AcDbEntity
  8
0
100
AcDbLine
 10
61.23069649999999
 20
206.0933845
 30
0.0
 11
61.23069649999999
 21
210.6933844999999
 31
0.0
  0
LINE
  5
1DD
330
1E
100
AcDbEntity
  8
0
100
AcDbLine
 10
61.23069649999999
 20
210.6933844999999
 30
0.0
 11
61.23069649999999
 21
214.0933845
 31
0.0
  0
LINE
  5
1DE
330
1E
100
AcDbEntity
  8
0
100
AcDbLine
 10
61.23069649999999
 20
210.6933844999999
 30
0.0
 11
61.23069649999999
 21
206.0933845
 31
0.0
  0
LINE
  5
1DF
330
1E
100
AcDbEntity
  8
0
100
AcDbLine
 10
61.23069649999999
 20
206.0933845
 30
0.0
 11
61.23069649999999
 21
192.9933844999999
 31
0.0
  0
LINE
  5
1E0
330
1E
100
AcDbEntity
  8
0
100
AcDbLine
 10
61.23069649999999
 20
214.0933845
 30
0.0
 11
61.23069649999999
 21
210.6933844999999
 31
0.0
  0
LINE
  5
1E1
330
1E
100
AcDbEntity
  8
0
100
AcDbLine
 10
61.23069649999999
 20
214.0933845
 30
0.0
 11
61.23069649999999
 21
216.2933845
 31
0.0
  0
LINE
  5
1E2
330
1E
100
AcDbEntity
  8
0
100
AcDbLine
 10
61.23069649999999
 20
216.2933845
 30
0.0
 11
61.23069649999999
 21
214.0933845
 31
0.0
  0
LINE
  5
1E3
330
1E
100
AcDbEntity
  8
0
100
AcDbLine
 10
61.23069649999999
 20
216.2933845
 30
0.0
 11
61.23069649999999
 21
217.0933844999999
 31
0.0
  0
LINE
  5
1E4
330
1E
100
AcDbEntity
  8
0
100
AcDbLine
 10
61.73069649999999
 20
218.4933845
 30
0.0
 11
62.83069649999999
 21
219.5933845
 31
0.0
  0
LINE
  5
1E5
330
1E
100
AcDbEntity
  8
0
100
AcDbLine
 10
73.23069649999999
 20
202.3933845
 30
0.0
 11
73.23069649999999
 21
195.0933844999999
 31
0.0
  0
LINE
  5
1E6
330
1E
100
AcDbEntity
  8
0
100
AcDbLine
 10
73.23069649999999
 20
202.3933845
 30
0.0
 11
73.23069649999999
 21
208.6933844999999
 31
0.0
  0
LINE
  5
1E7
330
1E
100
AcDbEntity
  8
0
100
AcDbLine
 10
73.23069649999999
 20
208.6933844999999
 30
0.0
 11
73.23069649999999
 21
202.3933845
 31
0.0
  0
LINE
  5
1E8
330
1E
100
AcDbEntity
  8
0
100
AcDbLine
 10
73.23069649999999
 20
208.6933844999999
 30
0.0
 11
73.23069649999999
 21
213.4933845
 31
0.0
  0
LINE
  5
1E9
330
1E
100
AcDbEntity
  8
0
100
AcDbLine
 10
73.23069649999999
 20
213.4933845
 30
0.0
 11
73.23069649999999
 21
208.6933844999999
 31
0.0
  0
LINE
  5
1EA
330
1E
100
AcDbEntity
  8
0
100
AcDbLine
 10
73.23069649999999
 20
213.4933845
 30
0.0
 11
73.23069649999999
 21
216.9933845
 31
0.0
  0
LINE
  5
1EB
330
1E
100
AcDbEntity
  8
0
100
AcDbLine
 10
73.23069649999999
 20
216.9933845
 30
0.0
 11
73.23069649999999
 21
213.4933845
 31
0.0
  0
LINE
  5
1EC
330
1E
100
AcDbEntity
  8
0
100
AcDbLine
 10
73.23069649999999
 20
216.9933845
 30
0.0
 11
73.23069649999999
 21
219.1933845
 31
0.0
  0
LINE
  5
1ED
330
1E
100
AcDbEntity
  8
0
100
AcDbLine
 10
73.23069649999999
 20
219.1933845
 30
0.0
 11
73.23069649999999
 21
216.9933845
 31
0.0
  0
LINE
  5
1EE
330
1E
100
AcDbEntity
  8
0
100
AcDbLine
 10
73.23069649999999
 20
219.1933845
 30
0.0
 11
73.23069649999999
 21
220.0933845
 31
0.0
  0
LINE
  5
1EF
330
1E
100
AcDbEntity
  8
0
100
AcDbLine
 10
73.23069649999999
 20
220.0933845
 30
0.0
 11
73.23069649999999
 21
219.1933845
 31
0.0
  0
LINE
  5
1F0
330
1E
100
AcDbEntity
  8
0
100
AcDbLine
 10
73.23069649999999
 20
195.0933844999999
 30
0.0
 11
73.23069649999999
 21
186.7933844999999
 31
0.0
  0
LINE
  5
1F1
330
1E
100
AcDbEntity
  8
0
100
AcDbLine
 10
73.23069649999999
 20
195.0933844999999
 30
0.0
 11
73.23069649999999
 21
202.3933845
 31
0.0
  0
LINE
  5
1F2
330
1E
100
AcDbEntity
  8
0
100
AcDbLine
 10
62.83069649999999
 20
219.5933845
 30
0.0
 11
64.23069649999999
 21
220.0933845
 31
0.0
  0
LINE
  5
1F3
330
1E
100
AcDbEntity
  8
0
100
AcDbLine
 10
64.23069649999999
 20
220.0933845
 30
0.0
 11
73.23069649999999
 21
220.0933845
 31
0.0
  0
LINE
  5
1F4
330
1E
100
AcDbEntity
  8
0
100
AcDbLine
 10
61.23069649999999
 20
217.0933844999999
 30
0.0
 11
61.23069649999999
 21
216.2933845
 31
0.0
  0
LINE
  5
1F5
330
1E
100
AcDbEntity
  8
0
100
AcDbLine
 10
61.23069649999999
 20
217.0933844999999
 30
0.0
 11
61.73069649999999
 21
218.4933845
 31
0.0
  0
LINE
  5
1F6
330
1E
100
AcDbEntity
  8
0
100
AcDbLine
 10
14.2306965
 20
193.0933845
 30
0.0
 11
15.2306965
 21
193.0933845
 31
0.0
  0
LINE
  5
1F7
330
1E
100
AcDbEntity
  8
0
100
AcDbLine
 10
14.2306965
 20
193.0933845
 30
0.0
 11
14.2306965
 21
192.4933844999999
 31
0.0
  0
LINE
  5
1F8
330
1E
100
AcDbEntity
  8
0
100
AcDbLine
 10
13.2306965
 20
175.0933844999999
 30
0.0
 11
13.2306965
 21
179.4933844999999
 31
0.0
  0
LINE
  5
1F9
330
1E
100
AcDbEntity
  8
0
100
AcDbLine
 10
13.2306965
 20
175.0933844999999
 30
0.0
 11
13.2306965
 21
170.6933845
 31
0.0
  0
ENDSEC
  0
SECTION
  2
OBJECTS
  0
DICTIONARY
  5
C
330
0
100
AcDbDictionary
  3
ACAD_GROUP
350
D
  3
ACAD_LAYOUT
350
19
  3
ACAD_MLINESTYLE
350
16
  3
ACAD_PLOTSETTINGS
350
18
  3
ACAD_PLOTSTYLENAME
350
E
  3
ACDBHEADERROUNDTRIPXREC
350
201
  3
ACDBVARIABLEDICTIONARY
350
1FE
  0
DICTIONARY
  5
223
330
1E
100
AcDbDictionary
280
     1
  3
ACAD_LAYOUTSELFREF
360
224
  0
DICTIONARY
  5
221
330
1A
100
AcDbDictionary
280
     1
  3
ACAD_LAYOUTSELFREF
360
222
  0
DICTIONARY
  5
D
102
{ACAD_REACTORS
330
C
102
}
330
C
100
AcDbDictionary
  0
DICTIONARY
  5
19
102
{ACAD_REACTORS
330
C
102
}
330
C
100
AcDbDictionary
  0
DICTIONARY
  5
16
102
{ACAD_REACTORS
330
C
102
}
330
C
100
AcDbDictionary
  3
STANDARD
350
17
  0
DICTIONARY
  5
18
102
{ACAD_REACTORS
330
C
102
}
330
C
100
AcDbDictionary
  0
ACDBDICTIONARYWDFLT
  5
E
102
{ACAD_REACTORS
330
C
102
}
330
C
100
AcDbDictionary
281
     1
  3
Normal
350
F
100
AcDbDictionaryWithDefault
340
F
  0
DICTIONARY
  5
201
102
{ACAD_REACTORS
330
C
102
}
330
C
100
AcDbDictionary
  3
CEPSNTYPE
350
20B
  3
FINGERPRINTGUID
350
20C
  3
HYPERLINKBASE
350
204
  3
INSUNITS
350
20A
  3
LAYOUTDICT
350
206
  3
LWETCUNION
350
209
  3
PLOTSETDICT
350
207
  3
PLOTSTYLNAMDICT
350
208
  3
PSVPSCALE
350
20E
  3
PUCSBASE
350
211
  3
PUCSORGBACK
350
217
  3
PUCSORGBOTTOM
350
213
  3
PUCSORGFRONT
350
216
  3
PUCSORGLEFT
350
214
  3
PUCSORGRIGHT
350
215
  3
PUCSORGTOP
350
212
  3
PUCSORTHOREF
350
20F
  3
PUCSORTHOVIEW
350
210
  3
STYLESHEET
350
205
  3
TSTACKALIGN
350
202
  3
TSTACKSIZE
350
203
  3
UCSBASE
350
21A
  3
UCSORGBACK
350
220
  3
UCSORGBOTTOM
350
21C
  3
UCSORGFRONT
350
21F
  3
UCSORGLEFT
350
21D
  3
UCSORGRIGHT
350
21E
  3
UCSORGTOP
350
21B
  3
UCSORTHOREF
350
218
  3
UCSORTHOVIEW
350
219
  3
VERSIONGUID
350
20D
  0
DICTIONARY
  5
1FE
102
{ACAD_REACTORS
330
C
102
}
330
C
100
AcDbDictionary
  3
DIMASSOC
350
1FF
  0
XRECORD
  5
224
102
{ACAD_REACTORS
330
223
102
}
330
223
100
AcDbXrecord
340
1E
  0
XRECORD
  5
222
102
{ACAD_REACTORS
330
221
102
}
330
221
100
AcDbXrecord
340
1A
  0
MLINESTYLE
  5
17
102
{ACAD_REACTORS
330
16
102
}
330
16
100
AcDbMlineStyle
  2
STANDARD
 70
     0
  3

 62
   256
 51
90.0
 52
90.0
 71
     2
 49
0.5
 62
   256
  6
BYLAYER
 49
-0.5
 62
   256
  6
BYLAYER
  0
ACDBPLACEHOLDER
  5
F
102
{ACAD_REACTORS
330
E
102
}
330
E
100
AcDbPlaceHolder
280
     0
  0
XRECORD
  5
20B
102
{ACAD_REACTORS
330
201
102
}
330
201
100
AcDbXrecord
 90
        0
  0
XRECORD
  5
20C
102
{ACAD_REACTORS
330
201
102
}
330
201
100
AcDbXrecord
  1
{FFC43546-C9F6-4954-B076-9F49ED68F830}
  0
XRECORD
  5
204
102
{ACAD_REACTORS
330
201
102
}
330
201
100
AcDbXrecord
  1

  0
XRECORD
  5
20A
102
{ACAD_REACTORS
330
201
102
}
330
201
100
AcDbXrecord
 90
        0
  0
XRECORD
  5
206
102
{ACAD_REACTORS
330
201
102
}
330
201
100
AcDbXrecord
340
19
  0
XRECORD
  5
209
102
{ACAD_REACTORS
330
201
102
}
330
201
100
AcDbXrecord
 90
    10781
  0
XRECORD
  5
207
102
{ACAD_REACTORS
330
201
102
}
330
201
100
AcDbXrecord
340
18
  0
XRECORD
  5
208
102
{ACAD_REACTORS
330
201
102
}
330
201
100
AcDbXrecord
340
E
  0
XRECORD
  5
20E
102
{ACAD_REACTORS
330
201
102
}
330
201
100
AcDbXrecord
 40
0.0
  0
XRECORD
  5
211
102
{ACAD_REACTORS
330
201
102
}
330
201
100
AcDbXrecord
340
0
  0
XRECORD
  5
217
102
{ACAD_REACTORS
330
201
102
}
330
201
100
AcDbXrecord
 10
0.0
 20
0.0
 30
0.0
  0
XRECORD
  5
213
102
{ACAD_REACTORS
330
201
102
}
330
201
100
AcDbXrecord
 10
0.0
 20
0.0
 30
0.0
  0
XRECORD
  5
216
102
{ACAD_REACTORS
330
201
102
}
330
201
100
AcDbXrecord
 10
0.0
 20
0.0
 30
0.0
  0
XRECORD
  5
214
102
{ACAD_REACTORS
330
201
102
}
330
201
100
AcDbXrecord
 10
0.0
 20
0.0
 30
0.0
  0
XRECORD
  5
215
102
{ACAD_REACTORS
330
201
102
}
330
201
100
AcDbXrecord
 10
0.0
 20
0.0
 30
0.0
  0
XRECORD
  5
212
102
{ACAD_REACTORS
330
201
102
}
330
201
100
AcDbXrecord
 10
0.0
 20
0.0
 30
0.0
  0
XRECORD
  5
20F
102
{ACAD_REACTORS
330
201
102
}
330
201
100
AcDbXrecord
340
0
  0
XRECORD
  5
210
102
{ACAD_REACTORS
330
201
102
}
330
201
100
AcDbXrecord
 70
     0
  0
XRECORD
  5
205
102
{ACAD_REACTORS
330
201
102
}
330
201
100
AcDbXrecord
  1

  0
XRECORD
  5
202
102
{ACAD_REACTORS
330
201
102
}
330
201
100
AcDbXrecord
 90
        1
  0
XRECORD
  5
203
102
{ACAD_REACTORS
330
201
102
}
330
201
100
AcDbXrecord
 90
       70
  0
XRECORD
  5
21A
102
{ACAD_REACTORS
330
201
102
}
330
201
100
AcDbXrecord
340
0
  0
XRECORD
  5
220
102
{ACAD_REACTORS
330
201
102
}
330
201
100
AcDbXrecord
 10
0.0
 20
0.0
 30
0.0
  0
XRECORD
  5
21C
102
{ACAD_REACTORS
330
201
102
}
330
201
100
AcDbXrecord
 10
0.0
 20
0.0
 30
0.0
  0
XRECORD
  5
21F
102
{ACAD_REACTORS
330
201
102
}
330
201
100
AcDbXrecord
 10
0.0
 20
0.0
 30
0.0
  0
XRECORD
  5
21D
102
{ACAD_REACTORS
330
201
102
}
330
201
100
AcDbXrecord
 10
0.0
 20
0.0
 30
0.0
  0
XRECORD
  5
21E
102
{ACAD_REACTORS
330
201
102
}
330
201
100
AcDbXrecord
 10
0.0
 20
0.0
 30
0.0
  0
XRECORD
  5
21B
102
{ACAD_REACTORS
330
201
102
}
330
201
100
AcDbXrecord
 10
0.0
 20
0.0
 30
0.0
  0
XRECORD
  5
218
102
{ACAD_REACTORS
330
201
102
}
330
201
100
AcDbXrecord
340
0
  0
XRECORD
  5
219
102
{ACAD_REACTORS
330
201
102
}
330
201
100
AcDbXrecord
 70
     1
  0
XRECORD
  5
20D
102
{ACAD_REACTORS
330
201
102
}
330
201
100
AcDbXrecord
  1
{8804AB3D-87DF-4739-910A-46EDDCD4F845}
  0
DICTIONARYVAR
  5
1FF
102
{ACAD_REACTORS
330
1FE
102
}
330
1FE
100
DictionaryVariables
280
     0
  1
1
  0
ENDSEC
  0
EOF
