  0
SECTION
  2
HEADER
  9
$ACADVER
  1
AC1014
  9
$ACADMAINTVER
 70
     9
  9
$DWGCODEPAGE
  3
ANSI_1252
  9
$INSBASE
 10
0.0
 20
0.0
 30
0.0
  9
$EXTMIN
 10
0.0000000000000012
 20
-0.0933844999999957
 30
0.0
  9
$EXTMAX
 10
170.0
 20
220.0933845
 30
0.0
  9
$LIMMIN
 10
0.0
 20
0.0
  9
$LIMMAX
 10
12.0
 20
9.0
  9
$ORTHOMODE
 70
     0
  9
$REGENMODE
 70
     1
  9
$FILLMODE
 70
     1
  9
$QTEXTMODE
 70
     0
  9
$MIRRTEXT
 70
     1
  9
$DRAGMODE
 70
     2
  9
$LTSCALE
 40
1.0
  9
$OSMODE
 70
    37
  9
$ATTMODE
 70
     1
  9
$TEXTSIZE
 40
0.2
  9
$TRACEWID
 40
0.05
  9
$TEXTSTYLE
  7
STANDARD
  9
$CLAYER
  8
0
  9
$CELTYPE
  6
CONTINUOUS
  9
$CECOLOR
 62
   256
  9
$CELTSCALE
 40
1.0
  9
$DELOBJ
 70
     1
  9
$DISPSILH
 70
     0
  9
$DIMSCALE
 40
1.0
  9
$DIMASZ
 40
0.18
  9
$DIMEXO
 40
0.0625
  9
$DIMDLI
 40
0.38
  9
$DIMRND
 40
0.0
  9
$DIMDLE
 40
0.0
  9
$DIMEXE
 40
0.18
  9
$DIMTP
 40
0.0
  9
$DIMTM
 40
0.0
  9
$DIMTXT
 40
0.18
  9
$DIMCEN
 40
0.09
  9
$DIMTSZ
 40
0.0
  9
$DIMTOL
 70
     0
  9
$DIMLIM
 70
     0
  9
$DIMTIH
 70
     1
  9
$DIMTOH
 70
     1
  9
$DIMSE1
 70
     0
  9
$DIMSE2
 70
     0
  9
$DIMTAD
 70
     0
  9
$DIMZIN
 70
     0
  9
$DIMBLK
  1

  9
$DIMASO
 70
     1
  9
$DIMSHO
 70
     1
  9
$DIMPOST
  1

  9
$DIMAPOST
  1

  9
$DIMALT
 70
     0
  9
$DIMALTD
 70
     2
  9
$DIMALTF
 40
25.4
  9
$DIMLFAC
 40
1.0
  9
$DIMTOFL
 70
     0
  9
$DIMTVP
 40
0.0
  9
$DIMTIX
 70
     0
  9
$DIMSOXD
 70
     0
  9
$DIMSAH
 70
     0
  9
$DIMBLK1
  1

  9
$DIMBLK2
  1

  9
$DIMSTYLE
  2
STANDARD
  9
$DIMCLRD
 70
     0
  9
$DIMCLRE
 70
     0
  9
$DIMCLRT
 70
     0
  9
$DIMTFAC
 40
1.0
  9
$DIMGAP
 40
0.09
  9
$DIMJUST
 70
     0
  9
$DIMSD1
 70
     0
  9
$DIMSD2
 70
     0
  9
$DIMTOLJ
 70
     1
  9
$DIMTZIN
 70
     0
  9
$DIMALTZ
 70
     0
  9
$DIMALTTZ
 70
     0
  9
$DIMFIT
 70
     3
  9
$DIMUPT
 70
     0
  9
$DIMUNIT
 70
     2
  9
$DIMDEC
 70
     4
  9
$DIMTDEC
 70
     4
  9
$DIMALTU
 70
     2
  9
$DIMALTTD
 70
     2
  9
$DIMTXSTY
  7
STANDARD
  9
$DIMAUNIT
 70
     0
  9
$LUNITS
 70
     2
  9
$LUPREC
 70
     4
  9
$SKETCHINC
 40
0.1
  9
$FILLETRAD
 40
0.0
  9
$AUNITS
 70
     0
  9
$AUPREC
 70
     0
  9
$MENU
  1
.
  9
$ELEVATION
 40
0.0
  9
$PELEVATION
 40
0.0
  9
$THICKNESS
 40
0.0
  9
$LIMCHECK
 70
     0
  9
$BLIPMODE
 70
     0
  9
$CHAMFERA
 40
0.0
  9
$CHAMFERB
 40
0.0
  9
$CHAMFERC
 40
0.0
  9
$CHAMFERD
 40
0.0
  9
$SKPOLY
 70
     0
  9
$TDCREATE
 40
2454690.749094502
  9
$TDUPDATE
 40
2454690.752396365
  9
$TDINDWG
 40
0.0033020486
  9
$TDUSRTIMER
 40
0.0033020486
  9
$USRTIMER
 70
     1
  9
$ANGBASE
 50
0.0
  9
$ANGDIR
 70
     0
  9
$PDMODE
 70
     0
  9
$PDSIZE
 40
0.0
  9
$PLINEWID
 40
0.0
  9
$COORDS
 70
     1
  9
$SPLFRAME
 70
     0
  9
$SPLINETYPE
 70
     6
  9
$SPLINESEGS
 70
     8
  9
$ATTDIA
 70
     0
  9
$ATTREQ
 70
     1
  9
$HANDLING
 70
 22529
  9
$HANDSEED
  5
197
  9
$SURFTAB1
 70
     6
  9
$SURFTAB2
 70
     6
  9
$SURFTYPE
 70
     6
  9
$SURFU
 70
     6
  9
$SURFV
 70
     6
  9
$UCSNAME
  2

  9
$UCSORG
 10
0.0
 20
0.0
 30
0.0
  9
$UCSXDIR
 10
1.0
 20
0.0
 30
0.0
  9
$UCSYDIR
 10
0.0
 20
1.0
 30
0.0
  9
$PUCSNAME
  2

  9
$PUCSORG
 10
0.0
 20
0.0
 30
0.0
  9
$PUCSXDIR
 10
1.0
 20
0.0
 30
0.0
  9
$PUCSYDIR
 10
0.0
 20
1.0
 30
0.0
  9
$USERI1
 70
     0
  9
$USERI2
 70
     0
  9
$USERI3
 70
     0
  9
$USERI4
 70
     0
  9
$USERI5
 70
     0
  9
$USERR1
 40
0.0
  9
$USERR2
 40
0.0
  9
$USERR3
 40
0.0
  9
$USERR4
 40
0.0
  9
$USERR5
 40
0.0
  9
$WORLDVIEW
 70
     1
  9
$SHADEDGE
 70
     3
  9
$SHADEDIF
 70
    70
  9
$TILEMODE
 70
     1
  9
$MAXACTVP
 70
    64
  9
$PINSBASE
 10
0.0
 20
0.0
 30
0.0
  9
$PLIMCHECK
 70
     0
  9
$PEXTMIN
 10
1.000000000000000E+20
 20
1.000000000000000E+20
 30
1.000000000000000E+20
  9
$PEXTMAX
 10
-1.000000000000000E+20
 20
-1.000000000000000E+20
 30
-1.000000000000000E+20
  9
$PLIMMIN
 10
0.0
 20
0.0
  9
$PLIMMAX
 10
12.0
 20
9.0
  9
$UNITMODE
 70
     0
  9
$VISRETAIN
 70
     1
  9
$PLINEGEN
 70
     0
  9
$PSLTSCALE
 70
     1
  9
$TREEDEPTH
 70
  3020
  9
$PICKSTYLE
 70
     1
  9
$CMLSTYLE
  2
STANDARD
  9
$CMLJUST
 70
     0
  9
$CMLSCALE
 40
1.0
  9
$PROXYGRAPHICS
 70
     1
  9
$MEASUREMENT
 70
     0
  0
ENDSEC
  0
SECTION
  2
CLASSES
  0
CLASS
  1
ACDBDICTIONARYWDFLT
  2
AcDbDictionaryWithDefault
  3
AutoCAD 2000
 90
        0
280
     0
281
     0
  0
CLASS
  1
ACDBPLACEHOLDER
  2
AcDbPlaceHolder
  3
AutoCAD 2000
 90
        0
280
     0
281
     0
  0
CLASS
  1
LAYOUT
  2
AcDbLayout
  3
AutoCAD 2000
 90
        0
280
     0
281
     0
  0
CLASS
  1
DICTIONARYVAR
  2
AcDbDictionaryVar
  3
AutoCAD 2000
 90
        0
280
     0
281
     0
  0
CLASS
  1
LONG_TRANSACTION
  2
AcDbLongTransaction
  3
AutoCAD 2000
 90
        0
280
     0
281
     0
  0
CLASS
  1
LWPOLYLINE
  2
AcDbPolyline
  3
AutoCAD 2000
 90
        0
280
     0
281
     1
  0
CLASS
  1
HATCH
  2
AcDbHatch
  3
AutoCAD 2000
 90
        0
280
     0
281
     1
  0
CLASS
  1
XRECORD
  2
AcDbXrecord
  3
AutoCAD 2000
 90
        0
280
     0
281
     0
  0
ENDSEC
  0
SECTION
  2
TABLES
  0
TABLE
  2
VPORT
  5
8
330
0
100
AcDbSymbolTable
 70
     2
  0
VPORT
  5
172
330
8
100
AcDbSymbolTableRecord
100
AcDbViewportTableRecord
  2
*ACTIVE
 70
     0
 10
0.0
 20
0.0
 11
1.0
 21
1.0
 12
85.0
 22
110.0
 13
0.0
 23
0.0
 14
1.0
 24
1.0
 15
0.0
 25
0.0
 16
0.0
 26
0.0
 36
1.0
 17
0.0
 27
0.0
 37
0.0
 40
221.8761815498721
 41
2.043533930857874
 42
50.0
 43
0.0
 44
0.0
 50
0.0
 51
0.0
 71
     0
 72
   100
 73
     1
 74
     3
 75
     0
 76
     0
 77
     0
 78
     0
  0
ENDTAB
  0
TABLE
  2
LTYPE
  5
5
330
0
100
AcDbSymbolTable
 70
     1
  0
LTYPE
  5
13
330
5
100
AcDbSymbolTableRecord
100
AcDbLinetypeTableRecord
  2
BYBLOCK
 70
     0
  3

 72
    65
 73
     0
 40
0.0
  0
LTYPE
  5
14
330
5
100
AcDbSymbolTableRecord
100
AcDbLinetypeTableRecord
  2
BYLAYER
 70
     0
  3

 72
    65
 73
     0
 40
0.0
  0
LTYPE
  5
15
330
5
100
AcDbSymbolTableRecord
100
AcDbLinetypeTableRecord
  2
CONTINUOUS
 70
     0
  3
Solid line
 72
    65
 73
     0
 40
0.0
  0
ENDTAB
  0
TABLE
  2
LAYER
  5
2
330
0
100
AcDbSymbolTable
 70
     1
  0
LAYER
  5
10
330
2
100
AcDbSymbolTableRecord
100
AcDbLayerTableRecord
  2
0
 70
     0
 62
     7
  6
CONTINUOUS
  0
ENDTAB
  0
TABLE
  2
STYLE
  5
3
330
0
100
AcDbSymbolTable
 70
     1
  0
STYLE
  5
11
330
3
100
AcDbSymbolTableRecord
100
AcDbTextStyleTableRecord
  2
STANDARD
 70
     0
 40
0.0
 41
1.0
 50
0.0
 71
     0
 42
0.2
  3
txt
  4

  0
ENDTAB
  0
TABLE
  2
VIEW
  5
6
330
0
100
AcDbSymbolTable
 70
     0
  0
ENDTAB
  0
TABLE
  2
UCS
  5
7
330
0
100
AcDbSymbolTable
 70
     0
  0
ENDTAB
  0
TABLE
  2
APPID
  5
9
330
0
100
AcDbSymbolTable
 70
     1
  0
APPID
  5
12
330
9
100
AcDbSymbolTableRecord
100
AcDbRegAppTableRecord
  2
ACAD
 70
     0
  0
ENDTAB
  0
TABLE
  2
DIMSTYLE
  5
A
330
0
100
AcDbSymbolTable
 70
     1
  0
DIMSTYLE
105
161
330
A
100
AcDbSymbolTableRecord
100
AcDbDimStyleTableRecord
  2
STANDARD
 70
     0
  3

  4

  5

  6

  7

 40
1.0
 41
0.18
 42
0.0625
 43
0.38
 44
0.18
 45
0.0
 46
0.0
 47
0.0
 48
0.0
140
0.18
141
0.09
142
0.0
143
25.4
144
1.0
145
0.0
146
1.0
147
0.09
 71
     0
 72
     0
 73
     1
 74
     1
 75
     0
 76
     0
 77
     0
 78
     0
170
     0
171
     2
172
     0
173
     0
174
     0
175
     0
176
     0
177
     0
178
     0
270
     2
271
     4
272
     4
273
     2
274
     2
340
11
275
     0
280
     0
281
     0
282
     0
283
     1
284
     0
285
     0
286
     0
287
     3
288
     0
  0
ENDTAB
  0
TABLE
  2
BLOCK_RECORD
  5
1
330
0
100
AcDbSymbolTable
 70
     0
  0
BLOCK_RECORD
  5
1E
102
{ACAD_XDICTIONARY
360
195
102
}
330
1
100
AcDbSymbolTableRecord
100
AcDbBlockTableRecord
  2
*MODEL_SPACE
  0
BLOCK_RECORD
  5
1A
102
{ACAD_XDICTIONARY
360
193
102
}
330
1
100
AcDbSymbolTableRecord
100
AcDbBlockTableRecord
  2
*PAPER_SPACE
  0
ENDTAB
  0
ENDSEC
  0
SECTION
  2
BLOCKS
  0
BLOCK
  5
1F
330
1E
100
AcDbEntity
  8
0
100
AcDbBlockBegin
  2
*MODEL_SPACE
 70
     0
 10
0.0
 20
0.0
 30
0.0
  3
*MODEL_SPACE
  1

  0
ENDBLK
  5
20
330
1E
100
AcDbEntity
  8
0
100
AcDbBlockEnd
  0
BLOCK
  5
1B
330
1A
100
AcDbEntity
 67
     1
  8
0
100
AcDbBlockBegin
  2
*PAPER_SPACE
 70
     0
 10
0.0
 20
0.0
 30
0.0
  3
*PAPER_SPACE
  1

  0
ENDBLK
  5
1C
330
1A
100
AcDbEntity
 67
     1
  8
0
100
AcDbBlockEnd
  0
ENDSEC
  0
SECTION
  2
ENTITIES
  0
LINE
  5
22
330
1E
100
AcDbEntity
  8
0
100
AcDbLine
 10
0.900000000000001
 20
123.9933844999999
 30
0.0
 11
3.1
 21
113.1933845
 31
0.0
  0
LINE
  5
23
330
1E
100
AcDbEntity
  8
0
100
AcDbLine
 10
11.4
 20
92.7933845
 30
0.0
 11
17.7
 21
83.39338449999999
 31
0.0
  0
LINE
  5
24
330
1E
100
AcDbEntity
  8
0
100
AcDbLine
 10
33.3
 20
67.7933845
 30
0.0
 11
42.7
 21
61.4933845
 31
0.0
  0
LINE
  5
25
330
1E
100
AcDbEntity
  8
0
100
AcDbLine
 10
25.0
 20
75.0933845
 30
0.0
 11
33.3
 21
67.7933845
 31
0.0
  0
LINE
  5
26
330
1E
100
AcDbEntity
  8
0
100
AcDbLine
 10
42.7
 20
61.4933845
 30
0.0
 11
52.5
 21
56.6933845
 31
0.0
  0
LINE
  5
27
330
1E
100
AcDbEntity
  8
0
100
AcDbLine
 10
52.5
 20
56.6933845
 30
0.0
 11
63.1
 21
53.1933845
 31
0.0
  0
LINE
  5
28
330
1E
100
AcDbEntity
  8
0
100
AcDbLine
 10
63.1
 20
53.1933845
 30
0.0
 11
73.9
 21
50.9933845
 31
0.0
  0
LINE
  5
29
330
1E
100
AcDbEntity
  8
0
100
AcDbLine
 10
65.2
 20
81.2933845
 30
0.0
 11
68.0
 21
78.8933845
 31
0.0
  0
LINE
  5
2B
330
1E
100
AcDbEntity
  8
0
100
AcDbLine
 10
62.8
 20
84.09338449999999
 30
0.0
 11
65.2
 21
81.2933845
 31
0.0
  0
LINE
  5
2C
330
1E
100
AcDbEntity
  8
0
100
AcDbLine
 10
60.8
 20
87.1933845
 30
0.0
 11
62.8
 21
84.09338449999999
 31
0.0
  0
LINE
  5
2D
330
1E
100
AcDbEntity
  8
0
100
AcDbLine
 10
59.2
 20
90.3933845
 30
0.0
 11
60.8
 21
87.1933845
 31
0.0
  0
LINE
  5
2F
330
1E
100
AcDbEntity
  8
0
100
AcDbLine
 10
58.0
 20
93.8933845
 30
0.0
 11
59.2
 21
90.3933845
 31
0.0
  0
LINE
  5
31
330
1E
100
AcDbEntity
  8
0
100
AcDbLine
 10
57.3
 20
97.49338449999999
 30
0.0
 11
58.0
 21
93.8933845
 31
0.0
  0
LINE
  5
32
330
1E
100
AcDbEntity
  8
0
100
AcDbLine
 10
57.0
 20
101.0933845
 30
0.0
 11
57.3
 21
97.49338449999999
 31
0.0
  0
LINE
  5
33
330
1E
100
AcDbEntity
  8
0
100
AcDbLine
 10
57.0
 20
101.0933845
 30
0.0
 11
57.3
 21
104.6933844999999
 31
0.0
  0
LINE
  5
36
330
1E
100
AcDbEntity
  8
0
100
AcDbLine
 10
17.7
 20
83.39338449999999
 30
0.0
 11
25.0
 21
75.0933845
 31
0.0
  0
LINE
  5
37
330
1E
100
AcDbEntity
  8
0
100
AcDbLine
 10
62.8
 20
118.0933844999999
 30
0.0
 11
65.2
 21
120.8933845
 31
0.0
  0
LINE
  5
38
330
1E
100
AcDbEntity
  8
0
100
AcDbLine
 10
60.8
 20
114.9933844999999
 30
0.0
 11
62.8
 21
118.0933844999999
 31
0.0
  0
LINE
  5
3A
330
1E
100
AcDbEntity
  8
0
100
AcDbLine
 10
59.2
 20
111.7933845
 30
0.0
 11
60.8
 21
114.9933844999999
 31
0.0
  0
LINE
  5
3B
330
1E
100
AcDbEntity
  8
0
100
AcDbLine
 10
58.0
 20
108.2933845
 30
0.0
 11
59.2
 21
111.7933845
 31
0.0
  0
LINE
  5
3D
330
1E
100
AcDbEntity
  8
0
100
AcDbLine
 10
57.3
 20
104.6933844999999
 30
0.0
 11
58.0
 21
108.2933845
 31
0.0
  0
LINE
  5
3E
330
1E
100
AcDbEntity
  8
0
100
AcDbLine
 10
65.2
 20
120.8933845
 30
0.0
 11
68.0
 21
123.2933845
 31
0.0
  0
LINE
  5
40
330
1E
100
AcDbEntity
  8
0
100
AcDbLine
 10
3.1
 20
113.1933845
 30
0.0
 11
6.599999999999999
 21
102.5933844999999
 31
0.0
  0
LINE
  5
41
330
1E
100
AcDbEntity
  8
0
100
AcDbLine
 10
6.599999999999999
 20
102.5933844999999
 30
0.0
 11
11.4
 21
92.7933845
 31
0.0
  0
LINE
  5
42
330
1E
100
AcDbEntity
  8
0
100
AcDbLine
 10
0.900000000000001
 20
123.9933844999999
 30
0.0
 11
3.1
 21
113.1933845
 31
0.0
  0
LINE
  5
43
330
1E
100
AcDbEntity
  8
0
100
AcDbLine
 10
0.900000000000001
 20
146.1933845
 30
0.0
 11
3.1
 21
156.9933844999999
 31
0.0
  0
LINE
  5
44
330
1E
100
AcDbEntity
  8
0
100
AcDbLine
 10
3.1
 20
156.9933844999999
 30
0.0
 11
6.599999999999999
 21
167.5933844999999
 31
0.0
  0
LINE
  5
45
330
1E
100
AcDbEntity
  8
0
100
AcDbLine
 10
0.900000000000001
 20
146.1933845
 30
0.0
 11
3.1
 21
156.9933844999999
 31
0.0
  0
LINE
  5
46
330
1E
100
AcDbEntity
  8
0
100
AcDbLine
 10
6.599999999999999
 20
167.5933844999999
 30
0.0
 11
11.4
 21
177.3933844999999
 31
0.0
  0
LINE
  5
47
330
1E
100
AcDbEntity
  8
0
100
AcDbLine
 10
0.0000000000000012
 20
135.0933844999999
 30
0.0
 11
0.900000000000001
 21
123.9933844999999
 31
0.0
  0
LINE
  5
48
330
1E
100
AcDbEntity
  8
0
100
AcDbLine
 10
0.0000000000000012
 20
135.0933844999999
 30
0.0
 11
0.900000000000001
 21
146.1933845
 31
0.0
  0
LINE
  5
49
330
1E
100
AcDbEntity
  8
0
100
AcDbLine
 10
68.0
 20
123.2933845
 30
0.0
 11
71.09999999999999
 21
125.2933845
 31
0.0
  0
LINE
  5
4A
330
1E
100
AcDbEntity
  8
0
100
AcDbLine
 10
68.0
 20
78.8933845
 30
0.0
 11
71.09999999999999
 21
76.8933845
 31
0.0
  0
LINE
  5
4B
330
1E
100
AcDbEntity
  8
0
100
AcDbLine
 10
67.59999999999999
 20
170.4933845
 30
0.0
 11
69.40000000000001
 21
166.0933844999999
 31
0.0
  0
LINE
  5
4C
330
1E
100
AcDbEntity
  8
0
100
AcDbLine
 10
25.0
 20
195.0933844999999
 30
0.0
 11
33.3
 21
202.3933845
 31
0.0
  0
LINE
  5
4D
330
1E
100
AcDbEntity
  8
0
100
AcDbLine
 10
33.3
 20
202.3933845
 30
0.0
 11
42.7
 21
208.6933844999999
 31
0.0
  0
LINE
  5
4E
330
1E
100
AcDbEntity
  8
0
100
AcDbLine
 10
52.5
 20
213.4933845
 30
0.0
 11
63.1
 21
216.9933845
 31
0.0
  0
LINE
  5
4F
330
1E
100
AcDbEntity
  8
0
100
AcDbLine
 10
63.1
 20
216.9933845
 30
0.0
 11
73.9
 21
219.1933845
 31
0.0
  0
LINE
  5
50
330
1E
100
AcDbEntity
  8
0
100
AcDbLine
 10
67.59999999999999
 20
179.6933845
 30
0.0
 11
69.40000000000001
 21
184.0933844999999
 31
0.0
  0
LINE
  5
51
330
1E
100
AcDbEntity
  8
0
100
AcDbLine
 10
67.0
 20
175.0933844999999
 30
0.0
 11
67.59999999999999
 21
179.6933845
 31
0.0
  0
LINE
  5
52
330
1E
100
AcDbEntity
  8
0
100
AcDbLine
 10
67.0
 20
175.0933844999999
 30
0.0
 11
67.59999999999999
 21
170.4933845
 31
0.0
  0
LINE
  5
53
330
1E
100
AcDbEntity
  8
0
100
AcDbLine
 10
71.09999999999999
 20
125.2933845
 30
0.0
 11
74.29999999999999
 21
126.8933845
 31
0.0
  0
LINE
  5
55
330
1E
100
AcDbEntity
  8
0
100
AcDbLine
 10
71.09999999999999
 20
76.8933845
 30
0.0
 11
74.29999999999999
 21
75.2933845
 31
0.0
  0
LINE
  5
57
330
1E
100
AcDbEntity
  8
0
100
AcDbLine
 10
72.3
 20
162.3933844999999
 30
0.0
 11
76.0
 21
159.4933844999999
 31
0.0
  0
LINE
  5
58
330
1E
100
AcDbEntity
  8
0
100
AcDbLine
 10
69.40000000000001
 20
166.0933844999999
 30
0.0
 11
72.3
 21
162.3933844999999
 31
0.0
  0
LINE
  5
59
330
1E
100
AcDbEntity
  8
0
100
AcDbLine
 10
73.9
 20
50.9933845
 30
0.0
 11
80.5001835727468
 21
50.4582344805881
 31
0.0
  0
LINE
  5
5A
330
1E
100
AcDbEntity
  8
0
100
AcDbLine
 10
74.29999999999999
 20
126.8933845
 30
0.0
 11
77.8
 21
128.0933844999999
 31
0.0
  0
LINE
  5
5B
330
1E
100
AcDbEntity
  8
0
100
AcDbLine
 10
77.8
 20
128.0933844999999
 30
0.0
 11
81.4
 21
128.7933844999999
 31
0.0
  0
LINE
  5
5C
330
1E
100
AcDbEntity
  8
0
100
AcDbLine
 10
74.29999999999999
 20
75.2933845
 30
0.0
 11
77.8
 21
74.09338449999999
 31
0.0
  0
LINE
  5
5D
330
1E
100
AcDbEntity
  8
0
100
AcDbLine
 10
77.8
 20
74.09338449999999
 30
0.0
 11
81.0761913779123
 21
73.45634728762821
 31
0.0
  0
LINE
  5
60
330
1E
100
AcDbEntity
  8
0
100
AcDbLine
 10
80.56
 20
40.41938449999999
 30
0.0
 11
80.68000000000001
 21
34.93808449999999
 31
0.0
  0
LINE
  5
61
330
1E
100
AcDbEntity
  8
0
100
AcDbLine
 10
80.501
 20
45.9340845
 30
0.0
 11
80.56
 21
40.41938449999999
 31
0.0
  0
LINE
  5
62
330
1E
100
AcDbEntity
  8
0
100
AcDbLine
 10
80.5
 20
51.4754845
 30
0.0
 11
80.55899999999999
 21
57.0370845
 31
0.0
  0
LINE
  5
63
330
1E
100
AcDbEntity
  8
0
100
AcDbLine
 10
80.5
 20
51.4754845
 30
0.0
 11
80.501
 21
45.9340845
 31
0.0
  0
LINE
  5
64
330
1E
100
AcDbEntity
  8
0
100
AcDbLine
 10
80.55899999999999
 20
57.0370845
 30
0.0
 11
80.677
 21
62.6132845
 31
0.0
  0
LINE
  5
65
330
1E
100
AcDbEntity
  8
0
100
AcDbLine
 10
80.4
 20
157.6933845
 30
0.0
 11
85.0
 21
157.0933844999999
 31
0.0
  0
LINE
  5
66
330
1E
100
AcDbEntity
  8
0
100
AcDbLine
 10
76.0
 20
159.4933844999999
 30
0.0
 11
80.4
 21
157.6933845
 31
0.0
  0
LINE
  5
67
330
1E
100
AcDbEntity
  8
0
100
AcDbLine
 10
80.68000000000001
 20
34.93808449999999
 30
0.0
 11
80.858
 21
29.49528449999999
 31
0.0
  0
LINE
  5
68
330
1E
100
AcDbEntity
  8
0
100
AcDbLine
 10
80.677
 20
62.6132845
 30
0.0
 11
80.85399999999999
 21
68.19728449999999
 31
0.0
  0
LINE
  5
69
330
1E
100
AcDbEntity
  8
0
100
AcDbLine
 10
82.15700000000001
 20
8.234724499999998
 30
0.0
 11
82.62799999999998
 21
3.070134499999999
 31
0.0
  0
LINE
  5
6D
330
1E
100
AcDbEntity
  8
0
100
AcDbLine
 10
82.64700000000001
 20
2.9065345
 30
0.0
 11
82.78299999999999
 21
2.212054499999999
 31
0.0
  0
LINE
  5
6F
330
1E
100
AcDbEntity
  8
0
100
AcDbLine
 10
82.62799999999998
 20
3.070134499999999
 30
0.0
 11
82.64700000000001
 21
2.9065345
 31
0.0
  0
LINE
  5
72
330
1E
100
AcDbEntity
  8
0
100
AcDbLine
 10
81.745
 20
13.4612845
 30
0.0
 11
82.15700000000001
 21
8.234724499999998
 31
0.0
  0
LINE
  5
74
330
1E
100
AcDbEntity
  8
0
100
AcDbLine
 10
82.78299999999999
 20
2.212054499999999
 30
0.0
 11
83.00499999999999
 21
1.5724545
 31
0.0
  0
LINE
  5
77
330
1E
100
AcDbEntity
  8
0
100
AcDbLine
 10
81.391
 20
18.7512845
 30
0.0
 11
81.745
 21
13.4612845
 31
0.0
  0
LINE
  5
78
330
1E
100
AcDbEntity
  8
0
100
AcDbLine
 10
81.095
 20
24.0970845
 30
0.0
 11
81.391
 21
18.7512845
 31
0.0
  0
LINE
  5
79
330
1E
100
AcDbEntity
  8
0
100
AcDbLine
 10
80.858
 20
29.49528449999999
 30
0.0
 11
81.095
 21
24.0970845
 31
0.0
  0
LINE
  5
85
330
1E
100
AcDbEntity
  8
0
100
AcDbLine
 10
83.04299999999999
 20
1.4957545
 30
0.0
 11
83.30299999999999
 21
1.011634499999999
 31
0.0
  0
LINE
  5
87
330
1E
100
AcDbEntity
  8
0
100
AcDbLine
 10
83.00499999999999
 20
1.5724545
 30
0.0
 11
83.04299999999999
 21
1.4957545
 31
0.0
  0
LINE
  5
96
330
1E
100
AcDbEntity
  8
0
100
AcDbLine
 10
84.152
 20
0.140214500000004
 30
0.0
 11
84.669
 21
-0.0663124999999957
 31
0.0
  0
LINE
  5
97
330
1E
100
AcDbEntity
  8
0
100
AcDbLine
 10
84.152
 20
0.140214500000004
 30
0.0
 11
84.669
 21
-0.0663124999999957
 31
0.0
  0
LINE
  5
98
330
1E
100
AcDbEntity
  8
0
100
AcDbLine
 10
83.76799999999999
 20
0.450874500000004
 30
0.0
 11
84.152
 21
0.140214500000004
 31
0.0
  0
LINE
  5
99
330
1E
100
AcDbEntity
  8
0
100
AcDbLine
 10
83.76799999999999
 20
0.450874500000004
 30
0.0
 11
84.152
 21
0.140214500000004
 31
0.0
  0
LINE
  5
9B
330
1E
100
AcDbEntity
  8
0
100
AcDbLine
 10
83.66699999999999
 20
0.5512845000000041
 30
0.0
 11
83.76799999999999
 21
0.450874500000004
 31
0.0
  0
LINE
  5
9C
330
1E
100
AcDbEntity
  8
0
100
AcDbLine
 10
83.30299999999999
 20
1.011634499999999
 30
0.0
 11
83.66699999999999
 21
0.5512845000000041
 31
0.0
  0
LINE
  5
A3
330
1E
100
AcDbEntity
  8
0
100
AcDbLine
 10
85.0
 20
-0.0933844999999957
 30
0.0
 11
85.33100000000001
 21
-0.0663124999999957
 31
0.0
  0
LINE
  5
A4
330
1E
100
AcDbEntity
  8
0
100
AcDbLine
 10
84.669
 20
-0.0663124999999957
 30
0.0
 11
85.0
 21
-0.0933844999999957
 31
0.0
  0
LINE
  5
B0
330
1E
100
AcDbEntity
  8
0
100
AcDbLine
 10
80.85399999999999
 20
68.19728449999999
 30
0.0
 11
81.08999999999999
 21
73.78318449999999
 31
0.0
  0
LINE
  5
B3
330
1E
100
AcDbEntity
  8
0
100
AcDbLine
 10
81.4
 20
128.7933844999999
 30
0.0
 11
84.99999999999969
 21
129.0933844999999
 31
0.0
  0
LINE
  5
B8
330
1E
100
AcDbEntity
  8
0
100
AcDbLine
 10
81.08999999999999
 20
73.78318449999999
 30
0.0
 11
81.385
 21
79.3643845
 31
0.0
  0
LINE
  5
B9
330
1E
100
AcDbEntity
  8
0
100
AcDbLine
 10
85.33100000000001
 20
-0.0663124999999957
 30
0.0
 11
85.84799999999999
 21
0.140214500000004
 31
0.0
  0
LINE
  5
BA
330
1E
100
AcDbEntity
  8
0
100
AcDbLine
 10
85.84799999999999
 20
0.140214500000004
 30
0.0
 11
86.23200000000002
 21
0.450874500000004
 31
0.0
  0
LINE
  5
BB
330
1E
100
AcDbEntity
  8
0
100
AcDbLine
 10
85.84799999999999
 20
0.140214500000004
 30
0.0
 11
86.23200000000002
 21
0.450874500000004
 31
0.0
  0
LINE
  5
BC
330
1E
100
AcDbEntity
  8
0
100
AcDbLine
 10
85.33100000000001
 20
-0.0663124999999957
 30
0.0
 11
85.84799999999999
 21
0.140214500000004
 31
0.0
  0
LINE
  5
C1
330
1E
100
AcDbEntity
  8
0
100
AcDbLine
 10
86.697
 20
1.011634499999999
 30
0.0
 11
86.957
 21
1.4957545
 31
0.0
  0
LINE
  5
C2
330
1E
100
AcDbEntity
  8
0
100
AcDbLine
 10
86.995
 20
1.5724545
 30
0.0
 11
87.21700000000002
 21
2.212054499999999
 31
0.0
  0
LINE
  5
C3
330
1E
100
AcDbEntity
  8
0
100
AcDbLine
 10
86.957
 20
1.4957545
 30
0.0
 11
86.995
 21
1.5724545
 31
0.0
  0
LINE
  5
C4
330
1E
100
AcDbEntity
  8
0
100
AcDbLine
 10
86.333
 20
0.5512845000000041
 30
0.0
 11
86.697
 21
1.011634499999999
 31
0.0
  0
LINE
  5
C5
330
1E
100
AcDbEntity
  8
0
100
AcDbLine
 10
86.23200000000002
 20
0.450874500000004
 30
0.0
 11
86.333
 21
0.5512845000000041
 31
0.0
  0
LINE
  5
CC
330
1E
100
AcDbEntity
  8
0
100
AcDbLine
 10
87.21700000000002
 20
2.212054499999999
 30
0.0
 11
87.353
 21
2.9065345
 31
0.0
  0
LINE
  5
D2
330
1E
100
AcDbEntity
  8
0
100
AcDbLine
 10
87.353
 20
2.9065345
 30
0.0
 11
87.37200000000001
 21
3.070134499999999
 31
0.0
  0
LINE
  5
D7
330
1E
100
AcDbEntity
  8
0
100
AcDbLine
 10
88.60899999999999
 20
18.7512845
 30
0.0
 11
88.90500000000001
 21
24.0970845
 31
0.0
  0
LINE
  5
D8
330
1E
100
AcDbEntity
  8
0
100
AcDbLine
 10
88.25499999999999
 20
13.4612845
 30
0.0
 11
88.60899999999999
 21
18.7512845
 31
0.0
  0
LINE
  5
D9
330
1E
100
AcDbEntity
  8
0
100
AcDbLine
 10
87.84299999999999
 20
8.234724499999998
 30
0.0
 11
88.25499999999999
 21
13.4612845
 31
0.0
  0
LINE
  5
DA
330
1E
100
AcDbEntity
  8
0
100
AcDbLine
 10
87.37200000000001
 20
3.070134499999999
 30
0.0
 11
87.84299999999999
 21
8.234724499999998
 31
0.0
  0
LINE
  5
DD
330
1E
100
AcDbEntity
  8
0
100
AcDbLine
 10
85.0000000000004
 20
129.0933844999999
 30
0.0
 11
88.59999999999999
 21
128.7933844999999
 31
0.0
  0
LINE
  5
E9
330
1E
100
AcDbEntity
  8
0
100
AcDbLine
 10
89.14200000000001
 20
29.49528449999999
 30
0.0
 11
89.32
 21
34.93808449999999
 31
0.0
  0
LINE
  5
EA
330
1E
100
AcDbEntity
  8
0
100
AcDbLine
 10
88.90500000000001
 20
24.0970845
 30
0.0
 11
89.14200000000001
 21
29.49528449999999
 31
0.0
  0
LINE
  5
F3
330
1E
100
AcDbEntity
  8
0
100
AcDbLine
 10
89.32
 20
34.93808449999999
 30
0.0
 11
89.44
 21
40.41938449999999
 31
0.0
  0
LINE
  5
F6
330
1E
100
AcDbEntity
  8
0
100
AcDbLine
 10
88.92380862208771
 20
73.45634728762821
 30
0.0
 11
92.2
 21
74.09338449999999
 31
0.0
  0
LINE
  5
F7
330
1E
100
AcDbEntity
  8
0
100
AcDbLine
 10
88.59999999999999
 20
128.7933844999999
 30
0.0
 11
92.2
 21
128.0933844999999
 31
0.0
  0
LINE
  5
F8
330
1E
100
AcDbEntity
  8
0
100
AcDbLine
 10
88.61499999999999
 20
79.3643845
 30
0.0
 11
88.91
 21
73.78318449999999
 31
0.0
  0
LINE
  5
F9
330
1E
100
AcDbEntity
  8
0
100
AcDbLine
 10
88.91
 20
73.78318449999999
 30
0.0
 11
89.146
 21
68.19728449999999
 31
0.0
  0
LINE
  5
FA
330
1E
100
AcDbEntity
  8
0
100
AcDbLine
 10
89.146
 20
68.19728449999999
 30
0.0
 11
89.32299999999999
 21
62.6132845
 31
0.0
  0
LINE
  5
FB
330
1E
100
AcDbEntity
  8
0
100
AcDbLine
 10
89.32299999999999
 20
62.6132845
 30
0.0
 11
89.441
 21
57.0370845
 31
0.0
  0
LINE
  5
10A
330
1E
100
AcDbEntity
  8
0
100
AcDbLine
 10
85.0
 20
157.0933844999999
 30
0.0
 11
89.59999999999999
 21
157.6933845
 31
0.0
  0
LINE
  5
10B
330
1E
100
AcDbEntity
  8
0
100
AcDbLine
 10
85.0
 20
158.0933844999999
 30
0.0
 11
89.40000000000001
 21
158.6933845
 31
0.0
  0
LINE
  5
10C
330
1E
100
AcDbEntity
  8
0
100
AcDbLine
 10
89.441
 20
57.0370845
 30
0.0
 11
89.50000000000001
 21
51.4754845
 31
0.0
  0
LINE
  5
10D
330
1E
100
AcDbEntity
  8
0
100
AcDbLine
 10
89.49981642725321
 20
50.4582344805881
 30
0.0
 11
96.09999999999999
 21
50.9933845
 31
0.0
  0
LINE
  5
10E
330
1E
100
AcDbEntity
  8
0
100
AcDbLine
 10
89.49899999999999
 20
45.9340845
 30
0.0
 11
89.50000000000001
 21
51.4754845
 31
0.0
  0
LINE
  5
10F
330
1E
100
AcDbEntity
  8
0
100
AcDbLine
 10
89.44
 20
40.41938449999999
 30
0.0
 11
89.49899999999999
 21
45.9340845
 31
0.0
  0
LINE
  5
110
330
1E
100
AcDbEntity
  8
0
100
AcDbLine
 10
96.09999999999999
 20
50.9933845
 30
0.0
 11
106.9
 21
53.1933845
 31
0.0
  0
LINE
  5
111
330
1E
100
AcDbEntity
  8
0
100
AcDbLine
 10
102.0
 20
78.8933845
 30
0.0
 11
104.8
 21
81.2933845
 31
0.0
  0
LINE
  5
112
330
1E
100
AcDbEntity
  8
0
100
AcDbLine
 10
98.9
 20
76.8933845
 30
0.0
 11
102.0
 21
78.8933845
 31
0.0
  0
LINE
  5
113
330
1E
100
AcDbEntity
  8
0
100
AcDbLine
 10
95.7
 20
75.2933845
 30
0.0
 11
98.9
 21
76.8933845
 31
0.0
  0
LINE
  5
114
330
1E
100
AcDbEntity
  8
0
100
AcDbLine
 10
92.2
 20
74.09338449999999
 30
0.0
 11
95.7
 21
75.2933845
 31
0.0
  0
LINE
  5
116
330
1E
100
AcDbEntity
  8
0
100
AcDbLine
 10
104.8
 20
81.2933845
 30
0.0
 11
107.2
 21
84.09338449999999
 31
0.0
  0
LINE
  5
117
330
1E
100
AcDbEntity
  8
0
100
AcDbLine
 10
107.2
 20
84.09338449999999
 30
0.0
 11
109.2
 21
87.1933845
 31
0.0
  0
LINE
  5
118
330
1E
100
AcDbEntity
  8
0
100
AcDbLine
 10
109.2
 20
87.1933845
 30
0.0
 11
110.8
 21
90.3933845
 31
0.0
  0
LINE
  5
11B
330
1E
100
AcDbEntity
  8
0
100
AcDbLine
 10
110.8
 20
90.3933845
 30
0.0
 11
112.0
 21
93.8933845
 31
0.0
  0
LINE
  5
11C
330
1E
100
AcDbEntity
  8
0
100
AcDbLine
 10
112.0
 20
93.8933845
 30
0.0
 11
112.7
 21
97.49338449999999
 31
0.0
  0
LINE
  5
11D
330
1E
100
AcDbEntity
  8
0
100
AcDbLine
 10
145.0
 20
75.0933845
 30
0.0
 11
152.3
 21
83.39338449999999
 31
0.0
  0
LINE
  5
11E
330
1E
100
AcDbEntity
  8
0
100
AcDbLine
 10
163.4
 20
102.5933844999999
 30
0.0
 11
166.9
 21
113.1933845
 31
0.0
  0
LINE
  5
11F
330
1E
100
AcDbEntity
  8
0
100
AcDbLine
 10
158.6
 20
92.7933845
 30
0.0
 11
163.4
 21
102.5933844999999
 31
0.0
  0
LINE
  5
120
330
1E
100
AcDbEntity
  8
0
100
AcDbLine
 10
127.2999999999999
 20
61.4933845
 30
0.0
 11
136.6999999999999
 21
67.7933845
 31
0.0
  0
LINE
  5
121
330
1E
100
AcDbEntity
  8
0
100
AcDbLine
 10
112.7
 20
97.49338449999999
 30
0.0
 11
113.0
 21
101.0933845
 31
0.0
  0
LINE
  5
122
330
1E
100
AcDbEntity
  8
0
100
AcDbLine
 10
92.2
 20
128.0933844999999
 30
0.0
 11
95.7
 21
126.8933845
 31
0.0
  0
LINE
  5
124
330
1E
100
AcDbEntity
  8
0
100
AcDbLine
 10
95.7
 20
126.8933845
 30
0.0
 11
98.9
 21
125.2933845
 31
0.0
  0
LINE
  5
125
330
1E
100
AcDbEntity
  8
0
100
AcDbLine
 10
98.9
 20
125.2933845
 30
0.0
 11
102.0
 21
123.2933845
 31
0.0
  0
LINE
  5
127
330
1E
100
AcDbEntity
  8
0
100
AcDbLine
 10
102.0
 20
123.2933845
 30
0.0
 11
104.8
 21
120.8933845
 31
0.0
  0
LINE
  5
128
330
1E
100
AcDbEntity
  8
0
100
AcDbLine
 10
104.8
 20
120.8933845
 30
0.0
 11
107.2
 21
118.0933844999999
 31
0.0
  0
LINE
  5
12A
330
1E
100
AcDbEntity
  8
0
100
AcDbLine
 10
107.2
 20
118.0933844999999
 30
0.0
 11
109.2
 21
114.9933844999999
 31
0.0
  0
LINE
  5
12B
330
1E
100
AcDbEntity
  8
0
100
AcDbLine
 10
109.2
 20
114.9933844999999
 30
0.0
 11
110.8
 21
111.7933845
 31
0.0
  0
LINE
  5
12D
330
1E
100
AcDbEntity
  8
0
100
AcDbLine
 10
110.8
 20
111.7933845
 30
0.0
 11
112.0
 21
108.2933845
 31
0.0
  0
LINE
  5
12E
330
1E
100
AcDbEntity
  8
0
100
AcDbLine
 10
166.9
 20
113.1933845
 30
0.0
 11
169.1
 21
123.9933844999999
 31
0.0
  0
LINE
  5
12F
330
1E
100
AcDbEntity
  8
0
100
AcDbLine
 10
169.1
 20
123.9933844999999
 30
0.0
 11
170.0
 21
135.0933844999999
 31
0.0
  0
LINE
  5
130
330
1E
100
AcDbEntity
  8
0
100
AcDbLine
 10
166.9
 20
156.9933844999999
 30
0.0
 11
169.1
 21
146.1933845
 31
0.0
  0
LINE
  5
131
330
1E
100
AcDbEntity
  8
0
100
AcDbLine
 10
169.1
 20
146.1933845
 30
0.0
 11
170.0
 21
135.0933844999999
 31
0.0
  0
LINE
  5
132
330
1E
100
AcDbEntity
  8
0
100
AcDbLine
 10
112.0
 20
108.2933845
 30
0.0
 11
112.7
 21
104.6933844999999
 31
0.0
  0
LINE
  5
133
330
1E
100
AcDbEntity
  8
0
100
AcDbLine
 10
112.7
 20
104.6933844999999
 30
0.0
 11
113.0
 21
101.0933845
 31
0.0
  0
LINE
  5
134
330
1E
100
AcDbEntity
  8
0
100
AcDbLine
 10
89.59999999999999
 20
157.6933845
 30
0.0
 11
94.0
 21
159.4933844999999
 31
0.0
  0
LINE
  5
135
330
1E
100
AcDbEntity
  8
0
100
AcDbLine
 10
94.0
 20
159.4933844999999
 30
0.0
 11
97.70000000000001
 21
162.3933844999999
 31
0.0
  0
LINE
  5
136
330
1E
100
AcDbEntity
  8
0
100
AcDbLine
 10
89.40000000000001
 20
158.6933845
 30
0.0
 11
93.49999999999999
 21
160.3933845
 31
0.0
  0
LINE
  5
137
330
1E
100
AcDbEntity
  8
0
100
AcDbLine
 10
93.49999999999999
 20
160.3933845
 30
0.0
 11
97.0
 21
163.0933844999999
 31
0.0
  0
LINE
  5
138
330
1E
100
AcDbEntity
  8
0
100
AcDbLine
 10
80.6
 20
158.6933845
 30
0.0
 11
85.0
 21
158.0933844999999
 31
0.0
  0
LINE
  5
139
330
1E
100
AcDbEntity
  8
0
100
AcDbLine
 10
97.70000000000001
 20
162.3933844999999
 30
0.0
 11
100.6
 21
166.0933844999999
 31
0.0
  0
LINE
  5
13A
330
1E
100
AcDbEntity
  8
0
100
AcDbLine
 10
97.0
 20
163.0933844999999
 30
0.0
 11
99.7
 21
166.5933844999999
 31
0.0
  0
LINE
  5
13B
330
1E
100
AcDbEntity
  8
0
100
AcDbLine
 10
100.6
 20
166.0933844999999
 30
0.0
 11
102.4
 21
170.4933845
 31
0.0
  0
LINE
  5
13C
330
1E
100
AcDbEntity
  8
0
100
AcDbLine
 10
99.7
 20
166.5933844999999
 30
0.0
 11
101.4
 21
170.6933845
 31
0.0
  0
LINE
  5
13D
330
1E
100
AcDbEntity
  8
0
100
AcDbLine
 10
76.5
 20
160.3933845
 30
0.0
 11
80.6
 21
158.6933845
 31
0.0
  0
LINE
  5
13E
330
1E
100
AcDbEntity
  8
0
100
AcDbLine
 10
73.0
 20
163.0933844999999
 30
0.0
 11
76.5
 21
160.3933845
 31
0.0
  0
LINE
  5
13F
330
1E
100
AcDbEntity
  8
0
100
AcDbLine
 10
101.4
 20
179.4933844999999
 30
0.0
 11
102.0
 21
175.0933844999999
 31
0.0
  0
LINE
  5
140
330
1E
100
AcDbEntity
  8
0
100
AcDbLine
 10
158.6
 20
177.3933844999999
 30
0.0
 11
163.4
 21
167.5933844999999
 31
0.0
  0
LINE
  5
141
330
1E
100
AcDbEntity
  8
0
100
AcDbLine
 10
102.4
 20
170.4933845
 30
0.0
 11
103.0
 21
175.0933844999999
 31
0.0
  0
LINE
  5
142
330
1E
100
AcDbEntity
  8
0
100
AcDbLine
 10
101.4
 20
170.6933845
 30
0.0
 11
102.0
 21
175.0933844999999
 31
0.0
  0
LINE
  5
143
330
1E
100
AcDbEntity
  8
0
100
AcDbLine
 10
70.3
 20
166.5933844999999
 30
0.0
 11
73.0
 21
163.0933844999999
 31
0.0
  0
LINE
  5
144
330
1E
100
AcDbEntity
  8
0
100
AcDbLine
 10
68.59999999999999
 20
170.6933845
 30
0.0
 11
70.3
 21
166.5933844999999
 31
0.0
  0
LINE
  5
145
330
1E
100
AcDbEntity
  8
0
100
AcDbLine
 10
69.40000000000001
 20
184.0933844999999
 30
0.0
 11
72.3
 21
187.7933845
 31
0.0
  0
LINE
  5
146
330
1E
100
AcDbEntity
  8
0
100
AcDbLine
 10
97.0
 20
187.0933844999999
 30
0.0
 11
99.7
 21
183.5933844999999
 31
0.0
  0
LINE
  5
147
330
1E
100
AcDbEntity
  8
0
100
AcDbLine
 10
100.6
 20
184.0933844999999
 30
0.0
 11
102.4
 21
179.6933845
 31
0.0
  0
LINE
  5
148
330
1E
100
AcDbEntity
  8
0
100
AcDbLine
 10
102.4
 20
179.6933845
 30
0.0
 11
103.0
 21
175.0933844999999
 31
0.0
  0
LINE
  5
149
330
1E
100
AcDbEntity
  8
0
100
AcDbLine
 10
99.7
 20
183.5933844999999
 30
0.0
 11
101.4
 21
179.4933844999999
 31
0.0
  0
LINE
  5
14A
330
1E
100
AcDbEntity
  8
0
100
AcDbLine
 10
73.9
 20
219.1933845
 30
0.0
 11
85.0
 21
220.0933845
 31
0.0
  0
LINE
  5
14B
330
1E
100
AcDbEntity
  8
0
100
AcDbLine
 10
76.0
 20
190.6933845
 30
0.0
 11
80.4
 21
192.4933844999999
 31
0.0
  0
LINE
  5
14C
330
1E
100
AcDbEntity
  8
0
100
AcDbLine
 10
72.3
 20
187.7933845
 30
0.0
 11
76.0
 21
190.6933845
 31
0.0
  0
LINE
  5
14D
330
1E
100
AcDbEntity
  8
0
100
AcDbLine
 10
89.40000000000001
 20
191.4933845
 30
0.0
 11
93.49999999999999
 21
189.7933845
 31
0.0
  0
LINE
  5
14E
330
1E
100
AcDbEntity
  8
0
100
AcDbLine
 10
94.0
 20
190.6933845
 30
0.0
 11
97.70000000000001
 21
187.7933845
 31
0.0
  0
LINE
  5
14F
330
1E
100
AcDbEntity
  8
0
100
AcDbLine
 10
97.70000000000001
 20
187.7933845
 30
0.0
 11
100.6
 21
184.0933844999999
 31
0.0
  0
LINE
  5
150
330
1E
100
AcDbEntity
  8
0
100
AcDbLine
 10
93.49999999999999
 20
189.7933845
 30
0.0
 11
97.0
 21
187.0933844999999
 31
0.0
  0
LINE
  5
151
330
1E
100
AcDbEntity
  8
0
100
AcDbLine
 10
85.0
 20
220.0933845
 30
0.0
 11
96.09999999999999
 21
219.1933845
 31
0.0
  0
LINE
  5
152
330
1E
100
AcDbEntity
  8
0
100
AcDbLine
 10
85.0
 20
193.0933845
 30
0.0
 11
89.59999999999999
 21
192.4933844999999
 31
0.0
  0
LINE
  5
153
330
1E
100
AcDbEntity
  8
0
100
AcDbLine
 10
136.6999999999999
 20
202.3933845
 30
0.0
 11
145.0
 21
195.0933844999999
 31
0.0
  0
LINE
  5
154
330
1E
100
AcDbEntity
  8
0
100
AcDbLine
 10
106.9
 20
216.9933845
 30
0.0
 11
117.5
 21
213.4933845
 31
0.0
  0
LINE
  5
155
330
1E
100
AcDbEntity
  8
0
100
AcDbLine
 10
96.09999999999999
 20
219.1933845
 30
0.0
 11
106.9
 21
216.9933845
 31
0.0
  0
LINE
  5
156
330
1E
100
AcDbEntity
  8
0
100
AcDbLine
 10
145.0
 20
195.0933844999999
 30
0.0
 11
152.3
 21
186.7933844999999
 31
0.0
  0
LINE
  5
157
330
1E
100
AcDbEntity
  8
0
100
AcDbLine
 10
89.59999999999999
 20
192.4933844999999
 30
0.0
 11
94.0
 21
190.6933845
 31
0.0
  0
LINE
  5
158
330
1E
100
AcDbEntity
  8
0
100
AcDbLine
 10
85.0
 20
192.0933845
 30
0.0
 11
89.40000000000001
 21
191.4933845
 31
0.0
  0
LINE
  5
159
330
1E
100
AcDbEntity
  8
0
100
AcDbLine
 10
80.4
 20
192.4933844999999
 30
0.0
 11
85.0
 21
193.0933845
 31
0.0
  0
LINE
  5
15A
330
1E
100
AcDbEntity
  8
0
100
AcDbLine
 10
80.6
 20
191.4933845
 30
0.0
 11
85.0
 21
192.0933845
 31
0.0
  0
LINE
  5
15B
330
1E
100
AcDbEntity
  8
0
100
AcDbLine
 10
76.5
 20
189.7933845
 30
0.0
 11
80.6
 21
191.4933845
 31
0.0
  0
LINE
  5
15C
330
1E
100
AcDbEntity
  8
0
100
AcDbLine
 10
73.0
 20
187.0933844999999
 30
0.0
 11
76.5
 21
189.7933845
 31
0.0
  0
LINE
  5
15D
330
1E
100
AcDbEntity
  8
0
100
AcDbLine
 10
70.3
 20
183.5933844999999
 30
0.0
 11
73.0
 21
187.0933844999999
 31
0.0
  0
LINE
  5
15E
330
1E
100
AcDbEntity
  8
0
100
AcDbLine
 10
68.59999999999999
 20
179.4933844999999
 30
0.0
 11
70.3
 21
183.5933844999999
 31
0.0
  0
LINE
  5
15F
330
1E
100
AcDbEntity
  8
0
100
AcDbLine
 10
68.0
 20
175.0933844999999
 30
0.0
 11
68.59999999999999
 21
179.4933844999999
 31
0.0
  0
LINE
  5
160
330
1E
100
AcDbEntity
  8
0
100
AcDbLine
 10
68.0
 20
175.0933844999999
 30
0.0
 11
68.59999999999999
 21
170.6933845
 31
0.0
  0
LINE
  5
165
330
1E
100
AcDbEntity
  8
0
100
AcDbLine
 10
42.7
 20
208.6933844999999
 30
0.0
 11
52.5
 21
213.4933845
 31
0.0
  0
LINE
  5
166
330
1E
100
AcDbEntity
  8
0
100
AcDbLine
 10
152.3
 20
186.7933844999999
 30
0.0
 11
158.6
 21
177.3933844999999
 31
0.0
  0
LINE
  5
167
330
1E
100
AcDbEntity
  8
0
100
AcDbLine
 10
163.4
 20
167.5933844999999
 30
0.0
 11
166.9
 21
156.9933844999999
 31
0.0
  0
LINE
  5
168
330
1E
100
AcDbEntity
  8
0
100
AcDbLine
 10
152.3
 20
83.39338449999999
 30
0.0
 11
158.6
 21
92.7933845
 31
0.0
  0
LINE
  5
169
330
1E
100
AcDbEntity
  8
0
100
AcDbLine
 10
136.6999999999999
 20
67.7933845
 30
0.0
 11
145.0
 21
75.0933845
 31
0.0
  0
LINE
  5
16A
330
1E
100
AcDbEntity
  8
0
100
AcDbLine
 10
11.4
 20
177.3933844999999
 30
0.0
 11
18.84791407263423
 21
187.5999177112157
 31
0.0
  0
LINE
  5
16B
330
1E
100
AcDbEntity
  8
0
100
AcDbLine
 10
18.84791407263423
 20
187.5999177112157
 30
0.0
 11
25.0
 21
195.0933844999999
 31
0.0
  0
LINE
  5
16C
330
1E
100
AcDbEntity
  8
0
100
AcDbLine
 10
117.5
 20
213.4933845
 30
0.0
 11
129.2906673466211
 21
207.4609570953318
 31
0.0
  0
LINE
  5
16D
330
1E
100
AcDbEntity
  8
0
100
AcDbLine
 10
129.2906673466211
 20
207.4609570953318
 30
0.0
 11
136.6999999999999
 21
202.3933845
 31
0.0
  0
LINE
  5
16E
330
1E
100
AcDbEntity
  8
0
100
AcDbLine
 10
106.9
 20
53.1933845
 30
0.0
 11
120.2054023310847
 21
57.65197491743993
 31
0.0
  0
LINE
  5
16F
330
1E
100
AcDbEntity
  8
0
100
AcDbLine
 10
120.2054023310847
 20
57.65197491743993
 30
0.0
 11
127.2999999999999
 21
61.4933845
 31
0.0
  0
ENDSEC
  0
SECTION
  2
OBJECTS
  0
DICTIONARY
  5
C
330
0
100
AcDbDictionary
  3
ACAD_GROUP
350
D
  3
ACAD_LAYOUT
350
19
  3
ACAD_MLINESTYLE
350
16
  3
ACAD_PLOTSETTINGS
350
18
  3
ACAD_PLOTSTYLENAME
350
E
  3
ACDBHEADERROUNDTRIPXREC
350
173
  3
ACDBVARIABLEDICTIONARY
350
170
  0
DICTIONARY
  5
195
330
1E
100
AcDbDictionary
280
     1
  3
ACAD_LAYOUTSELFREF
360
196
  0
DICTIONARY
  5
193
330
1A
100
AcDbDictionary
280
     1
  3
ACAD_LAYOUTSELFREF
360
194
  0
DICTIONARY
  5
D
102
{ACAD_REACTORS
330
C
102
}
330
C
100
AcDbDictionary
  0
DICTIONARY
  5
19
102
{ACAD_REACTORS
330
C
102
}
330
C
100
AcDbDictionary
  0
DICTIONARY
  5
16
102
{ACAD_REACTORS
330
C
102
}
330
C
100
AcDbDictionary
  3
STANDARD
350
17
  0
DICTIONARY
  5
18
102
{ACAD_REACTORS
330
C
102
}
330
C
100
AcDbDictionary
  0
ACDBDICTIONARYWDFLT
  5
E
102
{ACAD_REACTORS
330
C
102
}
330
C
100
AcDbDictionary
281
     1
  3
Normal
350
F
100
AcDbDictionaryWithDefault
340
F
  0
DICTIONARY
  5
173
102
{ACAD_REACTORS
330
C
102
}
330
C
100
AcDbDictionary
  3
CEPSNTYPE
350
17D
  3
FINGERPRINTGUID
350
17E
  3
HYPERLINKBASE
350
176
  3
INSUNITS
350
17C
  3
LAYOUTDICT
350
178
  3
LWETCUNION
350
17B
  3
PLOTSETDICT
350
179
  3
PLOTSTYLNAMDICT
350
17A
  3
PSVPSCALE
350
180
  3
PUCSBASE
350
183
  3
PUCSORGBACK
350
189
  3
PUCSORGBOTTOM
350
185
  3
PUCSORGFRONT
350
188
  3
PUCSORGLEFT
350
186
  3
PUCSORGRIGHT
350
187
  3
PUCSORGTOP
350
184
  3
PUCSORTHOREF
350
181
  3
PUCSORTHOVIEW
350
182
  3
STYLESHEET
350
177
  3
TSTACKALIGN
350
174
  3
TSTACKSIZE
350
175
  3
UCSBASE
350
18C
  3
UCSORGBACK
350
192
  3
UCSORGBOTTOM
350
18E
  3
UCSORGFRONT
350
191
  3
UCSORGLEFT
350
18F
  3
UCSORGRIGHT
350
190
  3
UCSORGTOP
350
18D
  3
UCSORTHOREF
350
18A
  3
UCSORTHOVIEW
350
18B
  3
VERSIONGUID
350
17F
  0
DICTIONARY
  5
170
102
{ACAD_REACTORS
330
C
102
}
330
C
100
AcDbDictionary
  3
DIMASSOC
350
171
  0
XRECORD
  5
196
102
{ACAD_REACTORS
330
195
102
}
330
195
100
AcDbXrecord
340
1E
  0
XRECORD
  5
194
102
{ACAD_REACTORS
330
193
102
}
330
193
100
AcDbXrecord
340
1A
  0
MLINESTYLE
  5
17
102
{ACAD_REACTORS
330
16
102
}
330
16
100
AcDbMlineStyle
  2
STANDARD
 70
     0
  3

 62
   256
 51
90.0
 52
90.0
 71
     2
 49
0.5
 62
   256
  6
BYLAYER
 49
-0.5
 62
   256
  6
BYLAYER
  0
ACDBPLACEHOLDER
  5
F
102
{ACAD_REACTORS
330
E
102
}
330
E
100
AcDbPlaceHolder
280
     0
  0
XRECORD
  5
17D
102
{ACAD_REACTORS
330
173
102
}
330
173
100
AcDbXrecord
 90
        0
  0
XRECORD
  5
17E
102
{ACAD_REACTORS
330
173
102
}
330
173
100
AcDbXrecord
  1
{76511E60-3539-4A49-8489-36D3A53103D2}
  0
XRECORD
  5
176
102
{ACAD_REACTORS
330
173
102
}
330
173
100
AcDbXrecord
  1

  0
XRECORD
  5
17C
102
{ACAD_REACTORS
330
173
102
}
330
173
100
AcDbXrecord
 90
        0
  0
XRECORD
  5
178
102
{ACAD_REACTORS
330
173
102
}
330
173
100
AcDbXrecord
340
19
  0
XRECORD
  5
17B
102
{ACAD_REACTORS
330
173
102
}
330
173
100
AcDbXrecord
 90
    10781
  0
XRECORD
  5
179
102
{ACAD_REACTORS
330
173
102
}
330
173
100
AcDbXrecord
340
18
  0
XRECORD
  5
17A
102
{ACAD_REACTORS
330
173
102
}
330
173
100
AcDbXrecord
340
E
  0
XRECORD
  5
180
102
{ACAD_REACTORS
330
173
102
}
330
173
100
AcDbXrecord
 40
0.0
  0
XRECORD
  5
183
102
{ACAD_REACTORS
330
173
102
}
330
173
100
AcDbXrecord
340
0
  0
XRECORD
  5
189
102
{ACAD_REACTORS
330
173
102
}
330
173
100
AcDbXrecord
 10
0.0
 20
0.0
 30
0.0
  0
XRECORD
  5
185
102
{ACAD_REACTORS
330
173
102
}
330
173
100
AcDbXrecord
 10
0.0
 20
0.0
 30
0.0
  0
XRECORD
  5
188
102
{ACAD_REACTORS
330
173
102
}
330
173
100
AcDbXrecord
 10
0.0
 20
0.0
 30
0.0
  0
XRECORD
  5
186
102
{ACAD_REACTORS
330
173
102
}
330
173
100
AcDbXrecord
 10
0.0
 20
0.0
 30
0.0
  0
XRECORD
  5
187
102
{ACAD_REACTORS
330
173
102
}
330
173
100
AcDbXrecord
 10
0.0
 20
0.0
 30
0.0
  0
XRECORD
  5
184
102
{ACAD_REACTORS
330
173
102
}
330
173
100
AcDbXrecord
 10
0.0
 20
0.0
 30
0.0
  0
XRECORD
  5
181
102
{ACAD_REACTORS
330
173
102
}
330
173
100
AcDbXrecord
340
0
  0
XRECORD
  5
182
102
{ACAD_REACTORS
330
173
102
}
330
173
100
AcDbXrecord
 70
     0
  0
XRECORD
  5
177
102
{ACAD_REACTORS
330
173
102
}
330
173
100
AcDbXrecord
  1

  0
XRECORD
  5
174
102
{ACAD_REACTORS
330
173
102
}
330
173
100
AcDbXrecord
 90
        1
  0
XRECORD
  5
175
102
{ACAD_REACTORS
330
173
102
}
330
173
100
AcDbXrecord
 90
       70
  0
XRECORD
  5
18C
102
{ACAD_REACTORS
330
173
102
}
330
173
100
AcDbXrecord
340
0
  0
XRECORD
  5
192
102
{ACAD_REACTORS
330
173
102
}
330
173
100
AcDbXrecord
 10
0.0
 20
0.0
 30
0.0
  0
XRECORD
  5
18E
102
{ACAD_REACTORS
330
173
102
}
330
173
100
AcDbXrecord
 10
0.0
 20
0.0
 30
0.0
  0
XRECORD
  5
191
102
{ACAD_REACTORS
330
173
102
}
330
173
100
AcDbXrecord
 10
0.0
 20
0.0
 30
0.0
  0
XRECORD
  5
18F
102
{ACAD_REACTORS
330
173
102
}
330
173
100
AcDbXrecord
 10
0.0
 20
0.0
 30
0.0
  0
XRECORD
  5
190
102
{ACAD_REACTORS
330
173
102
}
330
173
100
AcDbXrecord
 10
0.0
 20
0.0
 30
0.0
  0
XRECORD
  5
18D
102
{ACAD_REACTORS
330
173
102
}
330
173
100
AcDbXrecord
 10
0.0
 20
0.0
 30
0.0
  0
XRECORD
  5
18A
102
{ACAD_REACTORS
330
173
102
}
330
173
100
AcDbXrecord
340
0
  0
XRECORD
  5
18B
102
{ACAD_REACTORS
330
173
102
}
330
173
100
AcDbXrecord
 70
     1
  0
XRECORD
  5
17F
102
{ACAD_REACTORS
330
173
102
}
330
173
100
AcDbXrecord
  1
{48DF2980-B185-47EC-807F-5E290CCFDCA2}
  0
DICTIONARYVAR
  5
171
102
{ACAD_REACTORS
330
170
102
}
330
170
100
DictionaryVariables
280
     0
  1
1
  0
ENDSEC
  0
EOF
