  0
SECTION
  2
HEADER
  9
$ACADVER
  1
AC1014
  9
$ACADMAINTVER
 70
     9
  9
$DWGCODEPAGE
  3
ANSI_1252
  9
$INSBASE
 10
0.0
 20
0.0
 30
0.0
  9
$EXTMIN
 10
0.0000088779086267
 20
-0.0388414974225555
 30
0.0
  9
$EXTMAX
 10
255.9999911220913
 20
187.038534580046
 30
0.0
  9
$LIMMIN
 10
0.0
 20
0.0
  9
$LIMMAX
 10
12.0
 20
9.0
  9
$ORTHOMODE
 70
     0
  9
$REGENMODE
 70
     1
  9
$FILLMODE
 70
     1
  9
$QTEXTMODE
 70
     0
  9
$MIRRTEXT
 70
     1
  9
$DRAGMODE
 70
     2
  9
$LTSCALE
 40
1.0
  9
$OSMODE
 70
    37
  9
$ATTMODE
 70
     1
  9
$TEXTSIZE
 40
0.2
  9
$TRACEWID
 40
0.05
  9
$TEXTSTYLE
  7
STANDARD
  9
$CLAYER
  8
0
  9
$CELTYPE
  6
CONTINUOUS
  9
$CECOLOR
 62
   256
  9
$CELTSCALE
 40
1.0
  9
$DELOBJ
 70
     1
  9
$DISPSILH
 70
     0
  9
$DIMSCALE
 40
1.0
  9
$DIMASZ
 40
0.18
  9
$DIMEXO
 40
0.0625
  9
$DIMDLI
 40
0.38
  9
$DIMRND
 40
0.0
  9
$DIMDLE
 40
0.0
  9
$DIMEXE
 40
0.18
  9
$DIMTP
 40
0.0
  9
$DIMTM
 40
0.0
  9
$DIMTXT
 40
0.18
  9
$DIMCEN
 40
0.09
  9
$DIMTSZ
 40
0.0
  9
$DIMTOL
 70
     0
  9
$DIMLIM
 70
     0
  9
$DIMTIH
 70
     1
  9
$DIMTOH
 70
     1
  9
$DIMSE1
 70
     0
  9
$DIMSE2
 70
     0
  9
$DIMTAD
 70
     0
  9
$DIMZIN
 70
     0
  9
$DIMBLK
  1

  9
$DIMASO
 70
     1
  9
$DIMSHO
 70
     1
  9
$DIMPOST
  1

  9
$DIMAPOST
  1

  9
$DIMALT
 70
     0
  9
$DIMALTD
 70
     2
  9
$DIMALTF
 40
25.4
  9
$DIMLFAC
 40
1.0
  9
$DIMTOFL
 70
     0
  9
$DIMTVP
 40
0.0
  9
$DIMTIX
 70
     0
  9
$DIMSOXD
 70
     0
  9
$DIMSAH
 70
     0
  9
$DIMBLK1
  1

  9
$DIMBLK2
  1

  9
$DIMSTYLE
  2
STANDARD
  9
$DIMCLRD
 70
     0
  9
$DIMCLRE
 70
     0
  9
$DIMCLRT
 70
     0
  9
$DIMTFAC
 40
1.0
  9
$DIMGAP
 40
0.09
  9
$DIMJUST
 70
     0
  9
$DIMSD1
 70
     0
  9
$DIMSD2
 70
     0
  9
$DIMTOLJ
 70
     1
  9
$DIMTZIN
 70
     0
  9
$DIMALTZ
 70
     0
  9
$DIMALTTZ
 70
     0
  9
$DIMFIT
 70
     3
  9
$DIMUPT
 70
     0
  9
$DIMUNIT
 70
     2
  9
$DIMDEC
 70
     4
  9
$DIMTDEC
 70
     4
  9
$DIMALTU
 70
     2
  9
$DIMALTTD
 70
     2
  9
$DIMTXSTY
  7
STANDARD
  9
$DIMAUNIT
 70
     0
  9
$LUNITS
 70
     2
  9
$LUPREC
 70
     4
  9
$SKETCHINC
 40
0.1
  9
$FILLETRAD
 40
0.0
  9
$AUNITS
 70
     0
  9
$AUPREC
 70
     0
  9
$MENU
  1
.
  9
$ELEVATION
 40
0.0
  9
$PELEVATION
 40
0.0
  9
$THICKNESS
 40
0.0
  9
$LIMCHECK
 70
     0
  9
$BLIPMODE
 70
     0
  9
$CHAMFERA
 40
0.0
  9
$CHAMFERB
 40
0.0
  9
$CHAMFERC
 40
0.0
  9
$CHAMFERD
 40
0.0
  9
$SKPOLY
 70
     0
  9
$TDCREATE
 40
2454690.737032696
  9
$TDUPDATE
 40
2454690.740111574
  9
$TDINDWG
 40
0.0030790625
  9
$TDUSRTIMER
 40
0.0030790625
  9
$USRTIMER
 70
     1
  9
$ANGBASE
 50
0.0
  9
$ANGDIR
 70
     0
  9
$PDMODE
 70
     0
  9
$PDSIZE
 40
0.0
  9
$PLINEWID
 40
0.0
  9
$COORDS
 70
     1
  9
$SPLFRAME
 70
     0
  9
$SPLINETYPE
 70
     6
  9
$SPLINESEGS
 70
     8
  9
$ATTDIA
 70
     0
  9
$ATTREQ
 70
     1
  9
$HANDLING
 70
 22529
  9
$HANDSEED
  5
2F8
  9
$SURFTAB1
 70
     6
  9
$SURFTAB2
 70
     6
  9
$SURFTYPE
 70
     6
  9
$SURFU
 70
     6
  9
$SURFV
 70
     6
  9
$UCSNAME
  2

  9
$UCSORG
 10
0.0
 20
0.0
 30
0.0
  9
$UCSXDIR
 10
1.0
 20
0.0
 30
0.0
  9
$UCSYDIR
 10
0.0
 20
1.0
 30
0.0
  9
$PUCSNAME
  2

  9
$PUCSORG
 10
0.0
 20
0.0
 30
0.0
  9
$PUCSXDIR
 10
1.0
 20
0.0
 30
0.0
  9
$PUCSYDIR
 10
0.0
 20
1.0
 30
0.0
  9
$USERI1
 70
     0
  9
$USERI2
 70
     0
  9
$USERI3
 70
     0
  9
$USERI4
 70
     0
  9
$USERI5
 70
     0
  9
$USERR1
 40
0.0
  9
$USERR2
 40
0.0
  9
$USERR3
 40
0.0
  9
$USERR4
 40
0.0
  9
$USERR5
 40
0.0
  9
$WORLDVIEW
 70
     1
  9
$SHADEDGE
 70
     3
  9
$SHADEDIF
 70
    70
  9
$TILEMODE
 70
     1
  9
$MAXACTVP
 70
    64
  9
$PINSBASE
 10
0.0
 20
0.0
 30
0.0
  9
$PLIMCHECK
 70
     0
  9
$PEXTMIN
 10
1.000000000000000E+20
 20
1.000000000000000E+20
 30
1.000000000000000E+20
  9
$PEXTMAX
 10
-1.000000000000000E+20
 20
-1.000000000000000E+20
 30
-1.000000000000000E+20
  9
$PLIMMIN
 10
0.0
 20
0.0
  9
$PLIMMAX
 10
12.0
 20
9.0
  9
$UNITMODE
 70
     0
  9
$VISRETAIN
 70
     1
  9
$PLINEGEN
 70
     0
  9
$PSLTSCALE
 70
     1
  9
$TREEDEPTH
 70
  3020
  9
$PICKSTYLE
 70
     1
  9
$CMLSTYLE
  2
STANDARD
  9
$CMLJUST
 70
     0
  9
$CMLSCALE
 40
1.0
  9
$PROXYGRAPHICS
 70
     1
  9
$MEASUREMENT
 70
     0
  0
ENDSEC
  0
SECTION
  2
CLASSES
  0
CLASS
  1
ACDBDICTIONARYWDFLT
  2
AcDbDictionaryWithDefault
  3
AutoCAD 2000
 90
        0
280
     0
281
     0
  0
CLASS
  1
ACDBPLACEHOLDER
  2
AcDbPlaceHolder
  3
AutoCAD 2000
 90
        0
280
     0
281
     0
  0
CLASS
  1
LAYOUT
  2
AcDbLayout
  3
AutoCAD 2000
 90
        0
280
     0
281
     0
  0
CLASS
  1
DICTIONARYVAR
  2
AcDbDictionaryVar
  3
AutoCAD 2000
 90
        0
280
     0
281
     0
  0
CLASS
  1
LONG_TRANSACTION
  2
AcDbLongTransaction
  3
AutoCAD 2000
 90
        0
280
     0
281
     0
  0
CLASS
  1
LWPOLYLINE
  2
AcDbPolyline
  3
AutoCAD 2000
 90
        0
280
     0
281
     1
  0
CLASS
  1
HATCH
  2
AcDbHatch
  3
AutoCAD 2000
 90
        0
280
     0
281
     1
  0
CLASS
  1
XRECORD
  2
AcDbXrecord
  3
AutoCAD 2000
 90
        0
280
     0
281
     0
  0
ENDSEC
  0
SECTION
  2
TABLES
  0
TABLE
  2
VPORT
  5
8
330
0
100
AcDbSymbolTable
 70
     2
  0
VPORT
  5
2D3
330
8
100
AcDbSymbolTableRecord
100
AcDbViewportTableRecord
  2
*ACTIVE
 70
     0
 10
0.0
 20
0.0
 11
1.0
 21
1.0
 12
128.0
 22
93.49984654131175
 13
0.0
 23
0.0
 14
1.0
 24
1.0
 15
0.0
 25
0.0
 16
0.0
 26
0.0
 36
1.0
 17
0.0
 27
0.0
 37
0.0
 40
188.5127523645079
 41
2.043533930857874
 42
50.0
 43
0.0
 44
0.0
 50
0.0
 51
0.0
 71
     0
 72
   100
 73
     1
 74
     3
 75
     0
 76
     0
 77
     0
 78
     0
  0
ENDTAB
  0
TABLE
  2
LTYPE
  5
5
330
0
100
AcDbSymbolTable
 70
     1
  0
LTYPE
  5
13
330
5
100
AcDbSymbolTableRecord
100
AcDbLinetypeTableRecord
  2
BYBLOCK
 70
     0
  3

 72
    65
 73
     0
 40
0.0
  0
LTYPE
  5
14
330
5
100
AcDbSymbolTableRecord
100
AcDbLinetypeTableRecord
  2
BYLAYER
 70
     0
  3

 72
    65
 73
     0
 40
0.0
  0
LTYPE
  5
15
330
5
100
AcDbSymbolTableRecord
100
AcDbLinetypeTableRecord
  2
CONTINUOUS
 70
     0
  3
Solid line
 72
    65
 73
     0
 40
0.0
  0
ENDTAB
  0
TABLE
  2
LAYER
  5
2
330
0
100
AcDbSymbolTable
 70
     1
  0
LAYER
  5
10
330
2
100
AcDbSymbolTableRecord
100
AcDbLayerTableRecord
  2
0
 70
     0
 62
     7
  6
CONTINUOUS
  0
ENDTAB
  0
TABLE
  2
STYLE
  5
3
330
0
100
AcDbSymbolTable
 70
     1
  0
STYLE
  5
11
330
3
100
AcDbSymbolTableRecord
100
AcDbTextStyleTableRecord
  2
STANDARD
 70
     0
 40
0.0
 41
1.0
 50
0.0
 71
     0
 42
0.2
  3
txt
  4

  0
ENDTAB
  0
TABLE
  2
VIEW
  5
6
330
0
100
AcDbSymbolTable
 70
     0
  0
ENDTAB
  0
TABLE
  2
UCS
  5
7
330
0
100
AcDbSymbolTable
 70
     0
  0
ENDTAB
  0
TABLE
  2
APPID
  5
9
330
0
100
AcDbSymbolTable
 70
     1
  0
APPID
  5
12
330
9
100
AcDbSymbolTableRecord
100
AcDbRegAppTableRecord
  2
ACAD
 70
     0
  0
ENDTAB
  0
TABLE
  2
DIMSTYLE
  5
A
330
0
100
AcDbSymbolTable
 70
     1
  0
DIMSTYLE
105
264
330
A
100
AcDbSymbolTableRecord
100
AcDbDimStyleTableRecord
  2
STANDARD
 70
     0
  3

  4

  5

  6

  7

 40
1.0
 41
0.18
 42
0.0625
 43
0.38
 44
0.18
 45
0.0
 46
0.0
 47
0.0
 48
0.0
140
0.18
141
0.09
142
0.0
143
25.4
144
1.0
145
0.0
146
1.0
147
0.09
 71
     0
 72
     0
 73
     1
 74
     1
 75
     0
 76
     0
 77
     0
 78
     0
170
     0
171
     2
172
     0
173
     0
174
     0
175
     0
176
     0
177
     0
178
     0
270
     2
271
     4
272
     4
273
     2
274
     2
340
11
275
     0
280
     0
281
     0
282
     0
283
     1
284
     0
285
     0
286
     0
287
     3
288
     0
  0
ENDTAB
  0
TABLE
  2
BLOCK_RECORD
  5
1
330
0
100
AcDbSymbolTable
 70
     0
  0
BLOCK_RECORD
  5
1E
102
{ACAD_XDICTIONARY
360
2F6
102
}
330
1
100
AcDbSymbolTableRecord
100
AcDbBlockTableRecord
  2
*MODEL_SPACE
  0
BLOCK_RECORD
  5
1A
102
{ACAD_XDICTIONARY
360
2F4
102
}
330
1
100
AcDbSymbolTableRecord
100
AcDbBlockTableRecord
  2
*PAPER_SPACE
  0
ENDTAB
  0
ENDSEC
  0
SECTION
  2
BLOCKS
  0
BLOCK
  5
1F
330
1E
100
AcDbEntity
  8
0
100
AcDbBlockBegin
  2
*MODEL_SPACE
 70
     0
 10
0.0
 20
0.0
 30
0.0
  3
*MODEL_SPACE
  1

  0
ENDBLK
  5
20
330
1E
100
AcDbEntity
  8
0
100
AcDbBlockEnd
  0
BLOCK
  5
1B
330
1A
100
AcDbEntity
 67
     1
  8
0
100
AcDbBlockBegin
  2
*PAPER_SPACE
 70
     0
 10
0.0
 20
0.0
 30
0.0
  3
*PAPER_SPACE
  1

  0
ENDBLK
  5
1C
330
1A
100
AcDbEntity
 67
     1
  8
0
100
AcDbBlockEnd
  0
ENDSEC
  0
SECTION
  2
ENTITIES
  0
LINE
  5
22
330
1E
100
AcDbEntity
  8
0
100
AcDbLine
 10
113.8908999966329
 20
21.27658514845369
 30
0.0
 11
113.8935999966329
 21
24.67158514845369
 31
0.0
  0
LINE
  5
23
330
1E
100
AcDbEntity
  8
0
100
AcDbLine
 10
113.8908999966329
 20
21.27658514845369
 30
0.0
 11
114.952399996633
 21
16.4315851484537
 31
0.0
  0
LINE
  5
24
330
1E
100
AcDbEntity
  8
0
100
AcDbLine
 10
113.8935999966329
 20
24.67158514845369
 30
0.0
 11
113.900499996633
 21
33.27058514845369
 31
0.0
  0
LINE
  5
25
330
1E
100
AcDbEntity
  8
0
100
AcDbLine
 10
113.900499996633
 20
33.27058514845369
 30
0.0
 11
113.9089999966329
 21
43.9855851484537
 31
0.0
  0
LINE
  5
26
330
1E
100
AcDbEntity
  8
0
100
AcDbLine
 10
113.9089999966329
 20
43.9855851484537
 30
0.0
 11
113.9187999966329
 21
56.3875851484537
 31
0.0
  0
LINE
  5
27
330
1E
100
AcDbEntity
  8
0
100
AcDbLine
 10
113.9187999966329
 20
56.3875851484537
 30
0.0
 11
113.9296999966329
 21
69.98428514845371
 31
0.0
  0
LINE
  5
28
330
1E
100
AcDbEntity
  8
0
100
AcDbLine
 10
113.9296999966329
 20
69.98428514845371
 30
0.0
 11
113.9410999966329
 21
84.2324851484537
 31
0.0
  0
LINE
  5
29
330
1E
100
AcDbEntity
  8
0
100
AcDbLine
 10
113.9410999966329
 20
84.2324851484537
 30
0.0
 11
113.952399996633
 21
98.56458514845371
 31
0.0
  0
LINE
  5
2A
330
1E
100
AcDbEntity
  8
0
100
AcDbLine
 10
113.952399996633
 20
98.56458514845371
 30
0.0
 11
113.9634999966329
 21
112.409085148454
 31
0.0
  0
LINE
  5
2B
330
1E
100
AcDbEntity
  8
0
100
AcDbLine
 10
113.9634999966329
 20
112.409085148454
 30
0.0
 11
113.973699996633
 21
125.2138851484539
 31
0.0
  0
LINE
  5
2C
330
1E
100
AcDbEntity
  8
0
100
AcDbLine
 10
8.21680472131903
 20
138.467856979013
 30
0.0
 11
17.3054512830691
 21
132.405420588829
 31
0.0
  0
LINE
  5
2D
330
1E
100
AcDbEntity
  8
0
100
AcDbLine
 10
17.3054512830691
 20
132.405420588829
 30
0.0
 11
28.0222959206149
 21
130.2825940253879
 31
0.0
  0
LINE
  5
2E
330
1E
100
AcDbEntity
  8
0
100
AcDbLine
 10
28.0222959206149
 20
130.2825940253879
 30
0.0
 11
38.73574848820199
 21
132.4224861123229
 31
0.0
  0
LINE
  5
2F
330
1E
100
AcDbEntity
  8
0
100
AcDbLine
 10
38.73574848820199
 20
132.4224861123229
 30
0.0
 11
47.8147281660741
 21
138.4993898731399
 31
0.0
  0
LINE
  5
30
330
1E
100
AcDbEntity
  8
0
100
AcDbLine
 10
113.973699996633
 20
125.2138851484539
 30
0.0
 11
113.982599996633
 21
136.4687851484539
 31
0.0
  0
LINE
  5
31
330
1E
100
AcDbEntity
  8
0
100
AcDbLine
 10
128.006310786633
 20
-0.0388414974225555
 30
0.0
 11
133.3414999966329
 21
0.9230846855180329
 31
0.0
  0
LINE
  5
32
330
1E
100
AcDbEntity
  8
0
100
AcDbLine
 10
115.0496999966329
 20
7.7819890867856
 30
0.0
 11
118.084429996633
 21
3.673156260626969
 31
0.0
  0
LINE
  5
33
330
1E
100
AcDbEntity
  8
0
100
AcDbLine
 10
118.084429996633
 20
3.673156260626969
 30
0.0
 11
122.6263399966329
 21
0.9268505597022439
 31
0.0
  0
LINE
  5
34
330
1E
100
AcDbEntity
  8
0
100
AcDbLine
 10
122.6263399966329
 20
0.9268505597022439
 30
0.0
 11
128.006310786633
 21
-0.0388414974225555
 31
0.0
  0
LINE
  5
35
330
1E
100
AcDbEntity
  8
0
100
AcDbLine
 10
122.6263399966329
 20
0.9268505597022439
 30
0.0
 11
128.006310786633
 21
-0.0388414974225554
 31
0.0
  0
LINE
  5
36
330
1E
100
AcDbEntity
  8
0
100
AcDbLine
 10
128.006310786633
 20
-0.0388414974225554
 30
0.0
 11
133.3414999966329
 21
0.9230846855180329
 31
0.0
  0
LINE
  5
37
330
1E
100
AcDbEntity
  8
0
100
AcDbLine
 10
128.0222867966329
 20
8.520803292900119
 30
0.0
 11
133.357479996633
 21
9.482820011268881
 31
0.0
  0
LINE
  5
38
330
1E
100
AcDbEntity
  8
0
100
AcDbLine
 10
113.983999996633
 20
12.6278578829966
 30
0.0
 11
113.9992421893379
 21
20.7820793324827
 31
0.0
  0
LINE
  5
39
330
1E
100
AcDbEntity
  8
0
100
AcDbLine
 10
113.983999996633
 20
12.6278578829966
 30
0.0
 11
115.0496999966329
 21
7.7819890867856
 31
0.0
  0
LINE
  5
3A
330
1E
100
AcDbEntity
  8
0
100
AcDbLine
 10
118.1004099966329
 20
12.2328135447088
 30
0.0
 11
122.6423199966329
 21
9.48646654462099
 31
0.0
  0
LINE
  5
3B
330
1E
100
AcDbEntity
  8
0
100
AcDbLine
 10
122.6423199966329
 20
9.48646654462099
 30
0.0
 11
128.0222867966329
 21
8.520803292900119
 31
0.0
  0
LINE
  5
3C
330
1E
100
AcDbEntity
  8
0
100
AcDbLine
 10
122.523789996633
 20
9.575585148453711
 30
0.0
 11
127.880820996633
 21
8.608585148453739
 31
0.0
  0
LINE
  5
3D
330
1E
100
AcDbEntity
  8
0
100
AcDbLine
 10
118.024442896252
 20
12.3356656192039
 30
0.0
 11
118.1004099966329
 21
12.2328135447088
 31
0.0
  0
LINE
  5
3E
330
1E
100
AcDbEntity
  8
0
100
AcDbLine
 10
117.9843999966329
 20
12.32458514845369
 30
0.0
 11
122.523789996633
 21
9.575585148453711
 31
0.0
  0
LINE
  5
3F
330
1E
100
AcDbEntity
  8
0
100
AcDbLine
 10
114.952399996633
 20
16.4315851484537
 30
0.0
 11
117.9843999966329
 21
12.32458514845369
 31
0.0
  0
LINE
  5
40
330
1E
100
AcDbEntity
  8
0
100
AcDbLine
 10
127.880820996633
 20
8.608585148453739
 30
0.0
 11
133.239389996633
 21
9.5675851484537
 31
0.0
  0
LINE
  5
41
330
1E
100
AcDbEntity
  8
0
100
AcDbLine
 10
113.982599996633
 20
136.4687851484539
 30
0.0
 11
113.9900999966329
 21
145.724885148454
 31
0.0
  0
LINE
  5
42
330
1E
100
AcDbEntity
  8
0
100
AcDbLine
 10
2.13990096050261
 20
147.546836656885
 30
0.0
 11
8.21680472131903
 21
138.467856979013
 31
0.0
  0
LINE
  5
43
330
1E
100
AcDbEntity
  8
0
100
AcDbLine
 10
22.5779519865657
 20
153.5902359390019
 30
0.0
 11
23.68502491237709
 21
153.5905475308419
 31
0.0
  0
LINE
  5
44
330
1E
100
AcDbEntity
  8
0
100
AcDbLine
 10
21.35269256683889
 20
153.6516702516769
 30
0.0
 11
22.5779519865657
 21
153.5902359390019
 31
0.0
  0
LINE
  5
45
330
1E
100
AcDbEntity
  8
0
100
AcDbLine
 10
20.7594222280052
 20
153.7029078309059
 30
0.0
 11
21.35269256683889
 21
153.6516702516769
 31
0.0
  0
LINE
  5
46
330
1E
100
AcDbEntity
  8
0
100
AcDbLine
 10
23.68502491237709
 20
153.5905475308419
 30
0.0
 11
24.67328155903119
 21
153.6526245256899
 31
0.0
  0
LINE
  5
47
330
1E
100
AcDbEntity
  8
0
100
AcDbLine
 10
24.67328155903119
 20
153.6526245256899
 30
0.0
 11
25.5406705777428
 21
153.776355289965
 31
0.0
  0
LINE
  5
48
330
1E
100
AcDbEntity
  8
0
100
AcDbLine
 10
16.4130532715047
 20
154.2548068762
 30
0.0
 11
17.97481015433539
 21
154.0097804672319
 31
0.0
  0
LINE
  5
49
330
1E
100
AcDbEntity
  8
0
100
AcDbLine
 10
17.97481015433539
 20
154.0097804672319
 30
0.0
 11
19.4240326732372
 21
153.8257744634909
 31
0.0
  0
LINE
  5
4A
330
1E
100
AcDbEntity
  8
0
100
AcDbLine
 10
19.4240326732372
 20
153.8257744634909
 30
0.0
 11
20.7594222280052
 21
153.7029078309059
 31
0.0
  0
LINE
  5
4B
330
1E
100
AcDbEntity
  8
0
100
AcDbLine
 10
26.1494747114931
 20
153.885970131714
 30
0.0
 11
26.8981289457773
 21
154.071376363864
 31
0.0
  0
LINE
  5
4C
330
1E
100
AcDbEntity
  8
0
100
AcDbLine
 10
25.5406705777428
 20
153.776355289965
 30
0.0
 11
26.1494747114931
 21
153.885970131714
 31
0.0
  0
LINE
  5
4D
330
1E
100
AcDbEntity
  8
0
100
AcDbLine
 10
26.8981289457773
 20
154.071376363864
 30
0.0
 11
27.5258602865883
 21
154.318866321569
 31
0.0
  0
LINE
  5
54
330
1E
100
AcDbEntity
  8
0
100
AcDbLine
 10
9.0834921113281
 20
155.8368706524929
 30
0.0
 11
11.0651886362782
 21
155.3540385772769
 31
0.0
  0
LINE
  5
55
330
1E
100
AcDbEntity
  8
0
100
AcDbLine
 10
9.60408959988381
 20
155.796075205243
 30
0.0
 11
10.12859103005099
 21
155.911252916261
 31
0.0
  0
LINE
  5
59
330
1E
100
AcDbEntity
  8
0
100
AcDbLine
 10
11.0651886362782
 20
155.3540385772769
 30
0.0
 11
12.9558775090633
 21
154.9274040480559
 31
0.0
  0
LINE
  5
5A
330
1E
100
AcDbEntity
  8
0
100
AcDbLine
 10
12.9558775090633
 20
154.9274040480559
 30
0.0
 11
14.7379134678142
 21
154.56114301476
 31
0.0
  0
LINE
  5
5B
330
1E
100
AcDbEntity
  8
0
100
AcDbLine
 10
14.7379134678142
 20
154.56114301476
 30
0.0
 11
16.4130532715047
 21
154.2548068762
 31
0.0
  0
LINE
  5
5D
330
1E
100
AcDbEntity
  8
0
100
AcDbLine
 10
10.12859103005099
 20
155.911252916261
 30
0.0
 11
10.6238868668025
 21
156.1751374172349
 31
0.0
  0
LINE
  5
63
330
1E
100
AcDbEntity
  8
0
100
AcDbLine
 10
8.222072078739481
 20
156.2281048047589
 30
0.0
 11
8.627229081108879
 21
156.00183737036
 31
0.0
  0
LINE
  5
65
330
1E
100
AcDbEntity
  8
0
100
AcDbLine
 10
10.6238868668025
 20
156.1751374172349
 30
0.0
 11
11.05874208443709
 21
156.571083829602
 31
0.0
  0
LINE
  5
71
330
1E
100
AcDbEntity
  8
0
100
AcDbLine
 10
7.86686454148411
 20
156.532752040104
 30
0.0
 11
8.222072078739481
 21
156.2281048047589
 31
0.0
  0
LINE
  5
72
330
1E
100
AcDbEntity
  8
0
100
AcDbLine
 10
11.05874208443709
 20
156.571083829602
 30
0.0
 11
11.4057283639669
 21
157.074110303539
 31
0.0
  0
LINE
  5
77
330
1E
100
AcDbEntity
  8
0
100
AcDbLine
 10
7.575257995067769
 20
156.9040799437579
 30
0.0
 11
7.86686454148411
 21
156.532752040104
 31
0.0
  0
LINE
  5
78
330
1E
100
AcDbEntity
  8
0
100
AcDbLine
 10
7.35845079459119
 20
157.3278214287479
 30
0.0
 11
7.575257995067769
 21
156.9040799437579
 31
0.0
  0
LINE
  5
79
330
1E
100
AcDbEntity
  8
0
100
AcDbLine
 10
11.40572836396713
 20
157.0741103035393
 30
0.0
 11
11.6429264705026
 21
157.652457374102
 31
0.0
  0
LINE
  5
7C
330
1E
100
AcDbEntity
  8
0
100
AcDbLine
 10
0.0000088779086267
 20
158.260283772667
 30
0.0
 11
2.13990096050261
 21
147.546836656885
 31
0.0
  0
LINE
  5
7D
330
1E
100
AcDbEntity
  8
0
100
AcDbLine
 10
0.0000088779086267
 20
158.260283772667
 30
0.0
 11
2.12283543700828
 21
168.977133862018
 31
0.0
  0
LINE
  5
7E
330
1E
100
AcDbEntity
  8
0
100
AcDbLine
 10
0.0000088779086269
 20
158.260283772667
 30
0.0
 11
2.13990096050261
 21
147.546836656885
 31
0.0
  0
LINE
  5
7F
330
1E
100
AcDbEntity
  8
0
100
AcDbLine
 10
0.0000088779086269
 20
158.260283772667
 30
0.0
 11
2.12283543700828
 21
168.977133862018
 31
0.0
  0
LINE
  5
80
330
1E
100
AcDbEntity
  8
0
100
AcDbLine
 10
7.17670682761078
 20
158.2660029986399
 30
0.0
 11
7.219463472371029
 21
157.815436904038
 31
0.0
  0
LINE
  5
81
330
1E
100
AcDbEntity
  8
0
100
AcDbLine
 10
7.17670682761078
 20
158.2660029986399
 30
0.0
 11
7.218745822739308
 21
158.716636618296
 31
0.0
  0
LINE
  5
82
330
1E
100
AcDbEntity
  8
0
100
AcDbLine
 10
11.6429264705026
 20
157.652457374102
 30
0.0
 11
11.7553881878577
 21
158.269649126063
 31
0.0
  0
LINE
  5
83
330
1E
100
AcDbEntity
  8
0
100
AcDbLine
 10
7.224786448538289
 20
157.7876871340679
 30
0.0
 11
7.35845079459119
 21
157.3278214287479
 31
0.0
  0
LINE
  5
90
330
1E
100
AcDbEntity
  8
0
100
AcDbLine
 10
29.4618666758476
 20
155.659858440355
 30
0.0
 11
29.8292382436926
 21
156.169461149726
 31
0.0
  0
LINE
  5
98
330
1E
100
AcDbEntity
  8
0
100
AcDbLine
 10
30.0496903988496
 20
156.518856812448
 30
0.0
 11
30.2813862698311
 21
157.103671503485
 31
0.0
  0
LINE
  5
9B
330
1E
100
AcDbEntity
  8
0
100
AcDbLine
 10
30.3118237852059
 20
157.3515008202699
 30
0.0
 11
30.3585875091884
 21
157.7321221801549
 31
0.0
  0
LINE
  5
9D
330
1E
100
AcDbEntity
  8
0
100
AcDbLine
 10
30.2813862698311
 20
157.103671503485
 30
0.0
 11
30.3118237852059
 21
157.3515008202699
 31
0.0
  0
LINE
  5
A1
330
1E
100
AcDbEntity
  8
0
100
AcDbLine
 10
29.8292382436926
 20
156.169461149726
 30
0.0
 11
30.0496903988496
 21
156.518856812448
 31
0.0
  0
LINE
  5
A2
330
1E
100
AcDbEntity
  8
0
100
AcDbLine
 10
29.08047909093779
 20
155.291024614288
 30
0.0
 11
29.4618666758476
 21
155.659858440355
 31
0.0
  0
LINE
  5
A3
330
1E
100
AcDbEntity
  8
0
100
AcDbLine
 10
28.5974569331502
 20
154.891109844042
 30
0.0
 11
29.08047909093779
 21
155.291024614288
 31
0.0
  0
LINE
  5
A4
330
1E
100
AcDbEntity
  8
0
100
AcDbLine
 10
28.092581682648
 20
154.582617700581
 30
0.0
 11
28.5974569331502
 21
154.891109844042
 31
0.0
  0
LINE
  5
A5
330
1E
100
AcDbEntity
  8
0
100
AcDbLine
 10
27.5258602865883
 20
154.318866321569
 30
0.0
 11
28.092581682648
 21
154.582617700581
 31
0.0
  0
LINE
  5
A6
330
1E
100
AcDbEntity
  8
0
100
AcDbLine
 10
47.8147281660741
 20
138.4993898731399
 30
0.0
 11
53.8771645562582
 21
147.5880364348899
 31
0.0
  0
LINE
  5
A7
330
1E
100
AcDbEntity
  8
0
100
AcDbLine
 10
53.8771645562582
 20
147.5880364348899
 30
0.0
 11
55.9999911187246
 21
158.304882296354
 31
0.0
  0
LINE
  5
B1
330
1E
100
AcDbEntity
  8
0
100
AcDbLine
 10
7.22402459640352
 20
158.7443948307259
 30
0.0
 11
7.356956366476839
 21
159.204472833721
 31
0.0
  0
LINE
  5
B2
330
1E
100
AcDbEntity
  8
0
100
AcDbLine
 10
7.356956366476839
 20
159.204472833721
 30
0.0
 11
7.57308841887091
 21
159.6285590799119
 31
0.0
  0
LINE
  5
B3
330
1E
100
AcDbEntity
  8
0
100
AcDbLine
 10
7.57308841887091
 20
159.6285590799119
 30
0.0
 11
7.864103198981969
 21
160.000350940638
 31
0.0
  0
LINE
  5
B4
330
1E
100
AcDbEntity
  8
0
100
AcDbLine
 10
7.864103198981969
 20
160.000350940638
 30
0.0
 11
8.218825088429531
 21
160.305563511927
 31
0.0
  0
LINE
  5
B5
330
1E
100
AcDbEntity
  8
0
100
AcDbLine
 10
8.218825088429531
 20
160.305563511927
 30
0.0
 11
8.62362121146017
 21
160.532475933839
 31
0.0
  0
LINE
  5
B6
330
1E
100
AcDbEntity
  8
0
100
AcDbLine
 10
8.62362121146017
 20
160.532475933839
 30
0.0
 11
9.079620928289211
 21
160.698169111129
 31
0.0
  0
LINE
  5
BA
330
1E
100
AcDbEntity
  8
0
100
AcDbLine
 10
10.36979361761199
 20
160.495436445823
 30
0.0
 11
10.6205524716728
 21
160.362356089601
 31
0.0
  0
LINE
  5
BB
330
1E
100
AcDbEntity
  8
0
100
AcDbLine
 10
11.31959159705709
 20
159.5863125070699
 30
0.0
 11
11.4038247290383
 21
159.464629545581
 31
0.0
  0
LINE
  5
BC
330
1E
100
AcDbEntity
  8
0
100
AcDbLine
 10
11.670335956258
 20
158.732244543374
 30
0.0
 11
11.7553881878577
 21
158.269649126063
 31
0.0
  0
LINE
  5
BF
330
1E
100
AcDbEntity
  8
0
100
AcDbLine
 10
11.6419436408909
 20
158.8866609827749
 30
0.0
 11
11.670335956258
 21
158.732244543374
 31
0.0
  0
LINE
  5
C1
330
1E
100
AcDbEntity
  8
0
100
AcDbLine
 10
11.4038247290383
 20
159.464629545581
 30
0.0
 11
11.6419436408909
 21
158.8866609827749
 31
0.0
  0
LINE
  5
C3
330
1E
100
AcDbEntity
  8
0
100
AcDbLine
 10
11.0560377430009
 20
159.967102752832
 30
0.0
 11
11.4038247290383
 21
159.464629545581
 31
0.0
  0
LINE
  5
C6
330
1E
100
AcDbEntity
  8
0
100
AcDbLine
 10
10.6205524716728
 20
160.362356089601
 30
0.0
 11
11.0560377430009
 21
159.967102752832
 31
0.0
  0
LINE
  5
C7
330
1E
100
AcDbEntity
  8
0
100
AcDbLine
 10
9.9748187758212
 20
160.658141968395
 30
0.0
 11
10.1248369866713
 21
160.625451421539
 31
0.0
  0
LINE
  5
C9
330
1E
100
AcDbEntity
  8
0
100
AcDbLine
 10
10.1248369866713
 20
160.625451421539
 30
0.0
 11
10.36979361761199
 21
160.495436445823
 31
0.0
  0
LINE
  5
CB
330
1E
100
AcDbEntity
  8
0
100
AcDbLine
 10
9.60015278359743
 20
160.7397936377469
 30
0.0
 11
10.1248369866713
 21
160.625451421539
 31
0.0
  0
LINE
  5
CE
330
1E
100
AcDbEntity
  8
0
100
AcDbLine
 10
9.079620928289211
 20
160.698169111129
 30
0.0
 11
11.0605459559954
 21
161.184156728732
 31
0.0
  0
LINE
  5
D1
330
1E
100
AcDbEntity
  8
0
100
AcDbLine
 10
30.3581476652967
 20
158.284463005026
 30
0.0
 11
30.3585875091884
 21
157.7321221801549
 31
0.0
  0
LINE
  5
D2
330
1E
100
AcDbEntity
  8
0
100
AcDbLine
 10
30.3103475123746
 20
159.2173502362759
 30
0.0
 11
30.3577078214049
 21
158.8368038298959
 31
0.0
  0
LINE
  5
D6
330
1E
100
AcDbEntity
  8
0
100
AcDbLine
 10
30.3577078214049
 20
158.8368038298959
 30
0.0
 11
30.3585875091884
 21
157.7321221801549
 31
0.0
  0
LINE
  5
D7
330
1E
100
AcDbEntity
  8
0
100
AcDbLine
 10
30.3577078214049
 20
158.8368038298959
 30
0.0
 11
30.3581476652967
 21
158.284463005026
 31
0.0
  0
LINE
  5
DA
330
1E
100
AcDbEntity
  8
0
100
AcDbLine
 10
30.1586848066308
 20
159.7687046380289
 30
0.0
 11
30.3103475123746
 21
159.2173502362759
 31
0.0
  0
LINE
  5
E7
330
1E
100
AcDbEntity
  8
0
100
AcDbLine
 10
29.8258704506206
 20
160.3986198087939
 30
0.0
 11
30.1586848066308
 21
159.7687046380289
 31
0.0
  0
LINE
  5
100
330
1E
100
AcDbEntity
  8
0
100
AcDbLine
 10
29.07571320298639
 20
161.2758627166859
 30
0.0
 11
29.4576877284616
 21
160.907636776451
 31
0.0
  0
LINE
  5
101
330
1E
100
AcDbEntity
  8
0
100
AcDbLine
 10
29.4576877284616
 20
160.907636776451
 30
0.0
 11
29.8258704506206
 21
160.3986198087939
 31
0.0
  0
LINE
  5
102
330
1E
100
AcDbEntity
  8
0
100
AcDbLine
 10
27.51954805957689
 20
162.245543808271
 30
0.0
 11
28.08668880128239
 21
161.982695354252
 31
0.0
  0
LINE
  5
103
330
1E
100
AcDbEntity
  8
0
100
AcDbLine
 10
26.8914233492973
 20
162.492033693941
 30
0.0
 11
27.51954805957689
 21
162.245543808271
 31
0.0
  0
LINE
  5
104
330
1E
100
AcDbEntity
  8
0
100
AcDbLine
 10
28.08668880128239
 20
161.982695354252
 30
0.0
 11
28.5920547323772
 21
161.6750076930829
 31
0.0
  0
LINE
  5
105
330
1E
100
AcDbEntity
  8
0
100
AcDbLine
 10
28.5920547323772
 20
161.6750076930829
 30
0.0
 11
29.07571320298639
 21
161.2758627166859
 31
0.0
  0
LINE
  5
106
330
1E
100
AcDbEntity
  8
0
100
AcDbLine
 10
25.5334968367161
 20
162.784892433644
 30
0.0
 11
26.1424747767343
 21
162.676247344596
 31
0.0
  0
LINE
  5
107
330
1E
100
AcDbEntity
  8
0
100
AcDbLine
 10
26.1424747767343
 20
162.676247344596
 30
0.0
 11
26.8914233492973
 21
162.492033693941
 31
0.0
  0
LINE
  5
108
330
1E
100
AcDbEntity
  8
0
100
AcDbLine
 10
20.7521375745943
 20
162.8507249304229
 30
0.0
 11
21.3453255573195
 21
162.902907318404
 31
0.0
  0
LINE
  5
109
330
1E
100
AcDbEntity
  8
0
100
AcDbLine
 10
19.41694539736469
 20
162.725731641597
 30
0.0
 11
20.7521375745943
 21
162.8507249304229
 31
0.0
  0
LINE
  5
10A
330
1E
100
AcDbEntity
  8
0
100
AcDbLine
 10
17.96801777417039
 20
162.539417762754
 30
0.0
 11
19.41694539736469
 21
162.725731641597
 31
0.0
  0
LINE
  5
10B
330
1E
100
AcDbEntity
  8
0
100
AcDbLine
 10
16.40665311409789
 20
162.2919043278919
 30
0.0
 11
17.96801777417039
 21
162.539417762754
 31
0.0
  0
LINE
  5
10C
330
1E
100
AcDbEntity
  8
0
100
AcDbLine
 10
24.66591185792749
 20
162.9072415913439
 30
0.0
 11
25.5334968367161
 21
162.784892433644
 31
0.0
  0
LINE
  5
10D
330
1E
100
AcDbEntity
  8
0
100
AcDbLine
 10
21.3453255573195
 20
162.902907318404
 30
0.0
 11
22.5704855795462
 21
162.9662929661519
 31
0.0
  0
LINE
  5
10E
330
1E
100
AcDbEntity
  8
0
100
AcDbLine
 10
14.7320033220855
 20
161.9829006615559
 30
0.0
 11
16.40665311409789
 21
162.2919043278919
 31
0.0
  0
LINE
  5
10F
330
1E
100
AcDbEntity
  8
0
100
AcDbLine
 10
12.95055295014459
 20
161.613801928012
 30
0.0
 11
14.7320033220855
 21
161.9829006615559
 31
0.0
  0
LINE
  5
110
330
1E
100
AcDbEntity
  8
0
100
AcDbLine
 10
11.0605459559954
 20
161.184156728732
 30
0.0
 11
12.95055295014459
 21
161.613801928012
 31
0.0
  0
LINE
  5
111
330
1E
100
AcDbEntity
  8
0
100
AcDbLine
 10
2.12283543700828
 20
168.977133862018
 30
0.0
 11
8.18527182719233
 21
178.065780423768
 31
0.0
  0
LINE
  5
112
330
1E
100
AcDbEntity
  8
0
100
AcDbLine
 10
17.2642515050645
 20
184.1426841845839
 30
0.0
 11
27.9777031826298
 21
186.282576270811
 31
0.0
  0
LINE
  5
113
330
1E
100
AcDbEntity
  8
0
100
AcDbLine
 10
8.18527182719233
 20
178.065780423768
 30
0.0
 11
17.2642515050645
 21
184.1426841845839
 31
0.0
  0
LINE
  5
114
330
1E
100
AcDbEntity
  8
0
100
AcDbLine
 10
2.12283543700828
 20
168.977133862018
 30
0.0
 11
8.18527182719233
 21
178.065780423768
 31
0.0
  0
LINE
  5
115
330
1E
100
AcDbEntity
  8
0
100
AcDbLine
 10
27.9777031826298
 20
186.282576270811
 30
0.0
 11
38.6945487547916
 21
184.1596937080959
 31
0.0
  0
LINE
  5
116
330
1E
100
AcDbEntity
  8
0
100
AcDbLine
 10
23.6775575975452
 20
162.9677445576309
 30
0.0
 11
24.66591185792749
 21
162.9072415913439
 31
0.0
  0
LINE
  5
117
330
1E
100
AcDbEntity
  8
0
100
AcDbLine
 10
22.5704855795462
 20
162.9662929661519
 30
0.0
 11
23.6775575975452
 21
162.9677445576309
 31
0.0
  0
LINE
  5
11E
330
1E
100
AcDbEntity
  8
0
100
AcDbLine
 10
53.8600990327638
 20
169.0183336400219
 30
0.0
 11
55.9999911187246
 21
158.304882296354
 31
0.0
  0
LINE
  5
11F
330
1E
100
AcDbEntity
  8
0
100
AcDbLine
 10
47.7831952719474
 20
178.097313317895
 30
0.0
 11
53.8600990327638
 21
169.0183336400219
 31
0.0
  0
LINE
  5
120
330
1E
100
AcDbEntity
  8
0
100
AcDbLine
 10
38.6945487547916
 20
184.1596937080959
 30
0.0
 11
47.7831952719474
 21
178.097313317895
 31
0.0
  0
LINE
  5
122
330
1E
100
AcDbEntity
  8
0
100
AcDbLine
 10
99.99999999663321
 20
158.282585482351
 30
0.0
 11
102.1313599966329
 21
147.5674331484539
 31
0.0
  0
LINE
  5
123
330
1E
100
AcDbEntity
  8
0
100
AcDbLine
 10
99.99999999663321
 20
158.282585482351
 30
0.0
 11
102.131415996633
 21
168.997737148454
 31
0.0
  0
LINE
  5
124
330
1E
100
AcDbEntity
  8
0
100
AcDbLine
 10
113.9900999966329
 20
145.724885148454
 30
0.0
 11
113.995499996633
 21
152.613285148454
 31
0.0
  0
LINE
  5
125
330
1E
100
AcDbEntity
  8
0
100
AcDbLine
 10
113.995499996633
 20
152.613285148454
 30
0.0
 11
113.9988999966329
 21
156.859335148454
 31
0.0
  0
LINE
  5
126
330
1E
100
AcDbEntity
  8
0
100
AcDbLine
 10
113.9988999966329
 20
156.859335148454
 30
0.0
 11
113.9999999966329
 21
158.293733748454
 31
0.0
  0
LINE
  5
127
330
1E
100
AcDbEntity
  8
0
100
AcDbLine
 10
125.500006337506
 20
178.2885572882199
 30
0.0
 11
125.687972086793
 21
177.33135620003
 31
0.0
  0
LINE
  5
129
330
1E
100
AcDbEntity
  8
0
100
AcDbLine
 10
125.500006337506
 20
178.2885572882199
 30
0.0
 11
125.500475546869
 21
178.482704277164
 31
0.0
  0
LINE
  5
12A
330
1E
100
AcDbEntity
  8
0
100
AcDbLine
 10
125.5036942763799
 20
179.8318528619329
 30
0.0
 11
125.505974797082
 21
180.786560440685
 31
0.0
  0
LINE
  5
12B
330
1E
100
AcDbEntity
  8
0
100
AcDbLine
 10
125.501752535352
 20
179.020791925806
 30
0.0
 11
125.5036942763799
 21
179.8318528619329
 31
0.0
  0
LINE
  5
12C
330
1E
100
AcDbEntity
  8
0
100
AcDbLine
 10
125.500475546869
 20
178.482704277164
 30
0.0
 11
125.501752535352
 21
179.020791925806
 31
0.0
  0
LINE
  5
12E
330
1E
100
AcDbEntity
  8
0
100
AcDbLine
 10
125.6879720851999
 20
177.331355200031
 30
0.0
 11
126.2280290738579
 21
176.519065046488
 31
0.0
  0
LINE
  5
12F
330
1E
100
AcDbEntity
  8
0
100
AcDbLine
 10
126.2280290738579
 20
176.519065046488
 30
0.0
 11
127.0377357927259
 21
175.9751247748559
 31
0.0
  0
LINE
  5
130
330
1E
100
AcDbEntity
  8
0
100
AcDbLine
 10
127.994027966866
 20
175.782591489151
 30
0.0
 11
128.951229945056
 21
175.970557237021
 31
0.0
  0
LINE
  5
131
330
1E
100
AcDbEntity
  8
0
100
AcDbLine
 10
128.951229945056
 20
175.970557237021
 30
0.0
 11
129.7635200985989
 21
176.5106142256779
 31
0.0
  0
LINE
  5
13D
330
1E
100
AcDbEntity
  8
0
100
AcDbLine
 10
125.5059779664609
 20
180.788550438161
 30
0.0
 11
125.520912040873
 21
187.038534580046
 31
0.0
  0
LINE
  5
146
330
1E
100
AcDbEntity
  8
0
100
AcDbLine
 10
130.503681596259
 20
179.819909602398
 30
0.0
 11
130.5059621169609
 21
180.7746171811499
 31
0.0
  0
LINE
  5
147
330
1E
100
AcDbEntity
  8
0
100
AcDbLine
 10
130.501739852045
 20
179.0088466662739
 30
0.0
 11
130.503681596259
 21
179.819909602398
 31
0.0
  0
LINE
  5
148
330
1E
100
AcDbEntity
  8
0
100
AcDbLine
 10
130.5004528635759
 20
178.470759033558
 30
0.0
 11
130.501739852045
 21
179.0088466662739
 31
0.0
  0
LINE
  5
149
330
1E
100
AcDbEntity
  8
0
100
AcDbLine
 10
130.4999936548209
 20
178.276612418688
 30
0.0
 11
130.5004528635759
 21
178.470759033558
 31
0.0
  0
LINE
  5
14B
330
1E
100
AcDbEntity
  8
0
100
AcDbLine
 10
130.5059652863399
 20
180.7766071786259
 30
0.0
 11
130.5208993607519
 21
187.026591320512
 31
0.0
  0
LINE
  5
15B
330
1E
100
AcDbEntity
  8
0
100
AcDbLine
 10
125.520912040873
 20
187.038534580046
 30
0.0
 11
130.5208993607519
 21
187.026591320512
 31
0.0
  0
LINE
  5
15C
330
1E
100
AcDbEntity
  8
0
100
AcDbLine
 10
130.33059861466
 20
187.026274403148
 30
0.0
 11
130.5208993607519
 21
187.026591320512
 31
0.0
  0
LINE
  5
15D
330
1E
100
AcDbEntity
  8
0
100
AcDbLine
 10
117.2848479966329
 20
184.151225148454
 30
0.0
 11
125.5179260287339
 21
185.788873703929
 31
0.0
  0
LINE
  5
15E
330
1E
100
AcDbEntity
  8
0
100
AcDbLine
 10
108.201031996633
 20
178.081553148454
 30
0.0
 11
117.2848479966329
 21
184.151225148454
 31
0.0
  0
LINE
  5
15F
330
1E
100
AcDbEntity
  8
0
100
AcDbLine
 10
102.131415996633
 20
168.997737148454
 30
0.0
 11
108.201031996633
 21
178.081553148454
 31
0.0
  0
LINE
  5
160
330
1E
100
AcDbEntity
  8
0
100
AcDbLine
 10
102.1313599966329
 20
147.5674331484539
 30
0.0
 11
108.201031996633
 21
138.4836171484539
 31
0.0
  0
LINE
  5
161
330
1E
100
AcDbEntity
  8
0
100
AcDbLine
 10
108.201031996633
 20
138.4836171484539
 30
0.0
 11
113.9811391734399
 21
134.6214347035359
 31
0.0
  0
LINE
  5
162
330
1E
100
AcDbEntity
  8
0
100
AcDbLine
 10
133.3414999966329
 20
0.9230846855180329
 30
0.0
 11
137.883459996633
 21
3.66627708841939
 31
0.0
  0
LINE
  5
163
330
1E
100
AcDbEntity
  8
0
100
AcDbLine
 10
133.3414999966329
 20
0.923084685518032
 30
0.0
 11
137.883459996633
 21
3.66627708841939
 31
0.0
  0
LINE
  5
164
330
1E
100
AcDbEntity
  8
0
100
AcDbLine
 10
133.357479996633
 20
9.482820011268881
 30
0.0
 11
137.8994299966329
 21
12.22594000292289
 31
0.0
  0
LINE
  5
165
330
1E
100
AcDbEntity
  8
0
100
AcDbLine
 10
137.883459996633
 20
3.66627708841939
 30
0.0
 11
140.9182999966329
 21
7.7730132875458
 31
0.0
  0
LINE
  5
166
330
1E
100
AcDbEntity
  8
0
100
AcDbLine
 10
137.8994299966329
 20
12.22594000292289
 30
0.0
 11
140.934299996633
 21
16.3326761593113
 31
0.0
  0
LINE
  5
167
330
1E
100
AcDbEntity
  8
0
100
AcDbLine
 10
140.9182999966329
 20
7.7730132875458
 30
0.0
 11
141.9839999966329
 21
12.62826677120389
 31
0.0
  0
LINE
  5
168
330
1E
100
AcDbEntity
  8
0
100
AcDbLine
 10
140.934299996633
 20
16.3326761593113
 30
0.0
 11
141.9999999966329
 21
21.187903117469
 31
0.0
  0
LINE
  5
169
330
1E
100
AcDbEntity
  8
0
100
AcDbLine
 10
140.8215999966329
 20
16.4105851484537
 30
0.0
 11
141.8908999966329
 21
21.25458514845369
 31
0.0
  0
LINE
  5
16A
330
1E
100
AcDbEntity
  8
0
100
AcDbLine
 10
141.891239447051
 20
21.68141261842019
 30
0.0
 11
141.9999999966329
 21
21.187903117469
 31
0.0
  0
LINE
  5
16B
330
1E
100
AcDbEntity
  8
0
100
AcDbLine
 10
141.8908999966329
 20
21.25458514845369
 30
0.0
 11
141.8935999966329
 21
24.6495851484537
 31
0.0
  0
LINE
  5
16C
330
1E
100
AcDbEntity
  8
0
100
AcDbLine
 10
137.783169996633
 20
12.30758514845369
 30
0.0
 11
140.8215999966329
 21
16.4105851484537
 31
0.0
  0
LINE
  5
16D
330
1E
100
AcDbEntity
  8
0
100
AcDbLine
 10
133.239389996633
 20
9.5675851484537
 30
0.0
 11
137.783169996633
 21
12.30758514845369
 31
0.0
  0
LINE
  5
16E
330
1E
100
AcDbEntity
  8
0
100
AcDbLine
 10
141.8935999966329
 20
24.6495851484537
 30
0.0
 11
141.900399996633
 21
33.2485851484537
 31
0.0
  0
LINE
  5
16F
330
1E
100
AcDbEntity
  8
0
100
AcDbLine
 10
141.900399996633
 20
33.2485851484537
 30
0.0
 11
141.9089999966329
 21
43.9625851484537
 31
0.0
  0
LINE
  5
170
330
1E
100
AcDbEntity
  8
0
100
AcDbLine
 10
141.9089999966329
 20
43.9625851484537
 30
0.0
 11
141.918899996633
 21
56.3655851484537
 31
0.0
  0
LINE
  5
171
330
1E
100
AcDbEntity
  8
0
100
AcDbLine
 10
141.918899996633
 20
56.3655851484537
 30
0.0
 11
141.9296999966329
 21
69.9620851484537
 31
0.0
  0
LINE
  5
172
330
1E
100
AcDbEntity
  8
0
100
AcDbLine
 10
141.9296999966329
 20
69.9620851484537
 30
0.0
 11
141.9409999966329
 21
84.21028514845371
 31
0.0
  0
LINE
  5
173
330
1E
100
AcDbEntity
  8
0
100
AcDbLine
 10
141.9409999966329
 20
84.21028514845371
 30
0.0
 11
141.952399996633
 21
98.54238514845372
 31
0.0
  0
LINE
  5
174
330
1E
100
AcDbEntity
  8
0
100
AcDbLine
 10
141.952399996633
 20
98.54238514845372
 30
0.0
 11
141.963499996633
 21
112.386685148454
 31
0.0
  0
LINE
  5
175
330
1E
100
AcDbEntity
  8
0
100
AcDbLine
 10
141.963499996633
 20
112.386685148454
 30
0.0
 11
141.973699996633
 21
125.1915851484539
 31
0.0
  0
LINE
  5
176
330
1E
100
AcDbEntity
  8
0
100
AcDbLine
 10
141.973699996633
 20
125.1915851484539
 30
0.0
 11
141.9825999966329
 21
136.446485148454
 31
0.0
  0
LINE
  5
177
330
1E
100
AcDbEntity
  8
0
100
AcDbLine
 10
141.9839999966329
 20
12.62826677120389
 30
0.0
 11
141.9999999966329
 21
21.187903117469
 31
0.0
  0
LINE
  5
178
330
1E
100
AcDbEntity
  8
0
100
AcDbLine
 10
141.9825999966329
 20
136.446485148454
 30
0.0
 11
141.989999996633
 21
145.702585148454
 31
0.0
  0
LINE
  5
179
330
1E
100
AcDbEntity
  8
0
100
AcDbLine
 10
141.98113687501
 20
134.596228119477
 30
0.0
 11
147.7989679966329
 21
138.4836171484539
 31
0.0
  0
LINE
  5
17A
330
1E
100
AcDbEntity
  8
0
100
AcDbLine
 10
141.989999996633
 20
145.702585148454
 30
0.0
 11
141.9954999966329
 21
152.5909851484539
 31
0.0
  0
LINE
  5
17B
330
1E
100
AcDbEntity
  8
0
100
AcDbLine
 10
141.9954999966329
 20
152.5909851484539
 30
0.0
 11
141.998899996633
 21
156.8370251484539
 31
0.0
  0
LINE
  5
17C
330
1E
100
AcDbEntity
  8
0
100
AcDbLine
 10
141.998899996633
 20
156.8370251484539
 30
0.0
 11
141.9999999966329
 21
158.271438548454
 31
0.0
  0
LINE
  5
17D
330
1E
100
AcDbEntity
  8
0
100
AcDbLine
 10
147.7989679966329
 20
138.4836171484539
 30
0.0
 11
153.868639996633
 21
147.5674331484539
 31
0.0
  0
LINE
  5
259
330
1E
100
AcDbEntity
  8
0
100
AcDbLine
 10
153.868639996633
 20
147.5674331484539
 30
0.0
 11
155.9999999966329
 21
158.282583924535
 31
0.0
  0
LINE
  5
25E
330
1E
100
AcDbEntity
  8
0
100
AcDbLine
 10
153.868639996633
 20
168.997737148454
 30
0.0
 11
155.9999999966329
 21
158.282583924535
 31
0.0
  0
LINE
  5
25F
330
1E
100
AcDbEntity
  8
0
100
AcDbLine
 10
147.7989679966329
 20
178.081553148454
 30
0.0
 11
153.868639996633
 21
168.997737148454
 31
0.0
  0
LINE
  5
262
330
1E
100
AcDbEntity
  8
0
100
AcDbLine
 10
138.7151519966329
 20
184.151225148454
 30
0.0
 11
147.7989679966329
 21
178.081553148454
 31
0.0
  0
LINE
  5
263
330
1E
100
AcDbEntity
  8
0
100
AcDbLine
 10
130.517924846996
 20
185.781742574399
 30
0.0
 11
138.7151519966329
 21
184.151225148454
 31
0.0
  0
LWPOLYLINE
  5
269
330
1E
100
AcDbEntity
  8
0
100
AcDbPolyline
 90
       16
 70
     0
 43
0.0
 10
113.9999999966329
 20
158.293733748454
 10
114.4258839267939
 20
160.830122911643
 10
115.2809602415173
 20
163.3224671543346
 10
116.207293065291
 20
165.6723909986685
 10
118.1312143249488
 20
167.8798957613931
 10
119.7701104453453
 20
169.1616727628703
 10
122.192826371415
 20
170.5858692848727
 10
125.3281064910478
 20
171.5115970461203
 10
128.1071040654289
 20
171.7964360871711
 10
131.0286146579106
 20
171.6540165666456
 10
133.6651001111313
 20
170.8707083259236
 10
136.6578672126633
 20
169.3040922833957
 10
138.6530449813714
 20
167.1677977198499
 10
140.6482227500794
 20
164.3906144361075
 10
141.7170685919537
 20
161.0437526313473
 10
141.9999999966329
 20
158.271438548454
  0
LINE
  5
26A
330
1E
100
AcDbEntity
  8
0
100
AcDbLine
 10
127.0377357927259
 20
175.9751247748559
 30
0.0
 11
127.994027966866
 21
175.782591489151
 31
0.0
  0
LINE
  5
26B
330
1E
100
AcDbEntity
  8
0
100
AcDbLine
 10
129.7635200985989
 20
176.5106142256779
 30
0.0
 11
130.2807370357966
 21
177.2395255535087
 31
0.0
  0
LINE
  5
26C
330
1E
100
AcDbEntity
  8
0
100
AcDbLine
 10
130.2807370357966
 20
177.2395255535087
 30
0.0
 11
130.4999936548209
 21
178.276612418688
 31
0.0
  0
LINE
  5
26D
330
1E
100
AcDbEntity
  8
0
100
AcDbLine
 10
8.627229081108879
 20
156.00183737036
 30
0.0
 11
9.0834921113281
 21
155.8368706524929
 31
0.0
  0
LINE
  5
26E
330
1E
100
AcDbEntity
  8
0
100
AcDbLine
 10
228.0222968173702
 20
186.282576270811
 30
0.0
 11
217.3054512452083
 21
184.1596937080959
 31
0.0
  0
LINE
  5
26F
330
1E
100
AcDbEntity
  8
0
100
AcDbLine
 10
226.9242867970135
 20
161.2758627166859
 30
0.0
 11
226.5423122715384
 21
160.907636776451
 31
0.0
  0
LINE
  5
270
330
1E
100
AcDbEntity
  8
0
100
AcDbLine
 10
226.9195209090622
 20
155.291024614288
 30
0.0
 11
226.5381333241524
 21
155.659858440355
 31
0.0
  0
LINE
  5
271
330
1E
100
AcDbEntity
  8
0
100
AcDbLine
 10
227.9777040793851
 20
130.2825940253879
 30
0.0
 11
217.264251511798
 21
132.4224861123229
 31
0.0
  0
LINE
  5
272
330
1E
100
AcDbEntity
  8
0
100
AcDbLine
 10
255.9999911220913
 20
158.260283772667
 30
0.0
 11
253.8600990394973
 21
147.546836656885
 31
0.0
  0
LINE
  5
273
330
1E
100
AcDbEntity
  8
0
100
AcDbLine
 10
255.9999911220913
 20
158.260283772667
 30
0.0
 11
253.8600990394973
 21
147.546836656885
 31
0.0
  0
LINE
  5
274
330
1E
100
AcDbEntity
  8
0
100
AcDbLine
 10
253.8600990394973
 20
147.546836656885
 30
0.0
 11
247.783195278681
 21
138.467856979013
 31
0.0
  0
LINE
  5
275
330
1E
100
AcDbEntity
  8
0
100
AcDbLine
 10
247.783195278681
 20
138.467856979013
 30
0.0
 11
238.6945487169309
 21
132.405420588829
 31
0.0
  0
LINE
  5
276
330
1E
100
AcDbEntity
  8
0
100
AcDbLine
 10
238.6945487169309
 20
132.405420588829
 30
0.0
 11
227.9777040793851
 21
130.2825940253879
 31
0.0
  0
LINE
  5
277
330
1E
100
AcDbEntity
  8
0
100
AcDbLine
 10
253.8771645629917
 20
168.977133862018
 30
0.0
 11
247.8147281728076
 21
178.065780423768
 31
0.0
  0
LINE
  5
278
330
1E
100
AcDbEntity
  8
0
100
AcDbLine
 10
253.8771645629917
 20
168.977133862018
 30
0.0
 11
247.8147281728076
 21
178.065780423768
 31
0.0
  0
LINE
  5
279
330
1E
100
AcDbEntity
  8
0
100
AcDbLine
 10
255.9999911220913
 20
158.260283772667
 30
0.0
 11
253.8771645629917
 21
168.977133862018
 31
0.0
  0
LINE
  5
27A
330
1E
100
AcDbEntity
  8
0
100
AcDbLine
 10
255.9999911220913
 20
158.260283772667
 30
0.0
 11
253.8771645629917
 21
168.977133862018
 31
0.0
  0
LINE
  5
27B
330
1E
100
AcDbEntity
  8
0
100
AcDbLine
 10
247.8147281728076
 20
178.065780423768
 30
0.0
 11
238.7357484949355
 21
184.1426841845839
 31
0.0
  0
LINE
  5
27C
330
1E
100
AcDbEntity
  8
0
100
AcDbLine
 10
239.593346885902
 20
162.2919043278919
 30
0.0
 11
238.0319822258296
 21
162.539417762754
 31
0.0
  0
LINE
  5
27D
330
1E
100
AcDbEntity
  8
0
100
AcDbLine
 10
239.5869467284952
 20
154.2548068762
 30
0.0
 11
238.0251898456646
 21
154.0097804672319
 31
0.0
  0
LINE
  5
27E
330
1E
100
AcDbEntity
  8
0
100
AcDbLine
 10
245.3761131331975
 20
156.1751374172349
 30
0.0
 11
244.9412579155629
 21
156.571083829602
 31
0.0
  0
LINE
  5
27F
330
1E
100
AcDbEntity
  8
0
100
AcDbLine
 10
245.3794475283272
 20
160.362356089601
 30
0.0
 11
244.9439622569991
 21
159.967102752832
 31
0.0
  0
LINE
  5
280
330
1E
100
AcDbEntity
  8
0
100
AcDbLine
 10
246.9203790717108
 20
160.698169111129
 30
0.0
 11
244.9394540440045
 21
161.184156728732
 31
0.0
  0
LINE
  5
281
330
1E
100
AcDbEntity
  8
0
100
AcDbLine
 10
246.9165078886719
 20
155.8368706524929
 30
0.0
 11
244.9348113637217
 21
155.3540385772769
 31
0.0
  0
LINE
  5
282
330
1E
100
AcDbEntity
  8
0
100
AcDbLine
 10
248.6430436335231
 20
159.204472833721
 30
0.0
 11
248.426911581129
 21
159.6285590799119
 31
0.0
  0
LINE
  5
283
330
1E
100
AcDbEntity
  8
0
100
AcDbLine
 10
248.1331354585158
 20
156.532752040104
 30
0.0
 11
247.7779279212605
 21
156.2281048047589
 31
0.0
  0
LINE
  5
284
330
1E
100
AcDbEntity
  8
0
100
AcDbLine
 10
248.7759754035964
 20
158.7443948307259
 30
0.0
 11
248.6430436335231
 21
159.204472833721
 31
0.0
  0
LINE
  5
285
330
1E
100
AcDbEntity
  8
0
100
AcDbLine
 10
248.7752135514617
 20
157.7876871340679
 30
0.0
 11
248.6415492054088
 21
157.3278214287479
 31
0.0
  0
LINE
  5
286
330
1E
100
AcDbEntity
  8
0
100
AcDbLine
 10
248.8232931723892
 20
158.2660029986399
 30
0.0
 11
248.7812541772606
 21
158.716636618296
 31
0.0
  0
LINE
  5
287
330
1E
100
AcDbEntity
  8
0
100
AcDbLine
 10
248.8232931723892
 20
158.2660029986399
 30
0.0
 11
248.7805365276289
 21
157.815436904038
 31
0.0
  0
LINE
  5
288
330
1E
100
AcDbEntity
  8
0
100
AcDbLine
 10
248.6415492054088
 20
157.3278214287479
 30
0.0
 11
248.4247420049322
 21
156.9040799437579
 31
0.0
  0
LINE
  5
289
330
1E
100
AcDbEntity
  8
0
100
AcDbLine
 10
248.4247420049322
 20
156.9040799437579
 30
0.0
 11
248.1331354585158
 21
156.532752040104
 31
0.0
  0
LINE
  5
28A
330
1E
100
AcDbEntity
  8
0
100
AcDbLine
 10
247.3727709188911
 20
156.00183737036
 30
0.0
 11
246.9165078886719
 21
155.8368706524929
 31
0.0
  0
LINE
  5
28B
330
1E
100
AcDbEntity
  8
0
100
AcDbLine
 10
247.7779279212605
 20
156.2281048047589
 30
0.0
 11
247.3727709188911
 21
156.00183737036
 31
0.0
  0
LINE
  5
28C
330
1E
100
AcDbEntity
  8
0
100
AcDbLine
 10
246.3959104001161
 20
155.796075205243
 30
0.0
 11
245.871408969949
 21
155.911252916261
 31
0.0
  0
LINE
  5
28D
330
1E
100
AcDbEntity
  8
0
100
AcDbLine
 10
245.871408969949
 20
155.911252916261
 30
0.0
 11
245.3761131331975
 21
156.1751374172349
 31
0.0
  0
LINE
  5
28E
330
1E
100
AcDbEntity
  8
0
100
AcDbLine
 10
248.135896801018
 20
160.000350940638
 30
0.0
 11
247.7811749115705
 21
160.305563511927
 31
0.0
  0
LINE
  5
28F
330
1E
100
AcDbEntity
  8
0
100
AcDbLine
 10
248.426911581129
 20
159.6285590799119
 30
0.0
 11
248.135896801018
 21
160.000350940638
 31
0.0
  0
LINE
  5
290
330
1E
100
AcDbEntity
  8
0
100
AcDbLine
 10
247.3763787885398
 20
160.532475933839
 30
0.0
 11
246.9203790717108
 21
160.698169111129
 31
0.0
  0
LINE
  5
291
330
1E
100
AcDbEntity
  8
0
100
AcDbLine
 10
247.7811749115705
 20
160.305563511927
 30
0.0
 11
247.3763787885398
 21
160.532475933839
 31
0.0
  0
LINE
  5
292
330
1E
100
AcDbEntity
  8
0
100
AcDbLine
 10
246.3998472164025
 20
160.7397936377469
 30
0.0
 11
245.8751630133286
 21
160.625451421539
 31
0.0
  0
LINE
  5
293
330
1E
100
AcDbEntity
  8
0
100
AcDbLine
 10
245.8751630133286
 20
160.625451421539
 30
0.0
 11
245.6302063823879
 21
160.495436445823
 31
0.0
  0
LINE
  5
294
330
1E
100
AcDbEntity
  8
0
100
AcDbLine
 10
246.0251812241788
 20
160.658141968395
 30
0.0
 11
245.8751630133286
 21
160.625451421539
 31
0.0
  0
LINE
  5
295
330
1E
100
AcDbEntity
  8
0
100
AcDbLine
 10
245.6302063823879
 20
160.495436445823
 30
0.0
 11
245.3794475283272
 21
160.362356089601
 31
0.0
  0
LINE
  5
296
330
1E
100
AcDbEntity
  8
0
100
AcDbLine
 10
244.5961752709617
 20
159.464629545581
 30
0.0
 11
244.358056359109
 21
158.8866609827749
 31
0.0
  0
LINE
  5
297
330
1E
100
AcDbEntity
  8
0
100
AcDbLine
 10
243.0441224909367
 20
154.9274040480559
 30
0.0
 11
241.2620865321858
 21
154.56114301476
 31
0.0
  0
LINE
  5
298
330
1E
100
AcDbEntity
  8
0
100
AcDbLine
 10
244.9348113637217
 20
155.3540385772769
 30
0.0
 11
243.0441224909367
 21
154.9274040480559
 31
0.0
  0
LINE
  5
299
330
1E
100
AcDbEntity
  8
0
100
AcDbLine
 10
244.9412579155629
 20
156.571083829602
 30
0.0
 11
244.5942716360331
 21
157.074110303539
 31
0.0
  0
LINE
  5
29A
330
1E
100
AcDbEntity
  8
0
100
AcDbLine
 10
244.5942716360328
 20
157.0741103035393
 30
0.0
 11
244.3570735294974
 21
157.652457374102
 31
0.0
  0
LINE
  5
29B
330
1E
100
AcDbEntity
  8
0
100
AcDbLine
 10
244.329664043742
 20
158.732244543374
 30
0.0
 11
244.2446118121423
 21
158.269649126063
 31
0.0
  0
LINE
  5
29C
330
1E
100
AcDbEntity
  8
0
100
AcDbLine
 10
244.3570735294974
 20
157.652457374102
 30
0.0
 11
244.2446118121423
 21
158.269649126063
 31
0.0
  0
LINE
  5
29D
330
1E
100
AcDbEntity
  8
0
100
AcDbLine
 10
244.358056359109
 20
158.8866609827749
 30
0.0
 11
244.329664043742
 21
158.732244543374
 31
0.0
  0
LINE
  5
29E
330
1E
100
AcDbEntity
  8
0
100
AcDbLine
 10
241.2620865321858
 20
154.56114301476
 30
0.0
 11
239.5869467284952
 21
154.2548068762
 31
0.0
  0
LINE
  5
29F
330
1E
100
AcDbEntity
  8
0
100
AcDbLine
 10
243.0494470498554
 20
161.613801928012
 30
0.0
 11
241.2679966779144
 21
161.9829006615559
 31
0.0
  0
LINE
  5
2A0
330
1E
100
AcDbEntity
  8
0
100
AcDbLine
 10
244.9394540440045
 20
161.184156728732
 30
0.0
 11
243.0494470498554
 21
161.613801928012
 31
0.0
  0
LINE
  5
2A1
330
1E
100
AcDbEntity
  8
0
100
AcDbLine
 10
244.9439622569991
 20
159.967102752832
 30
0.0
 11
244.5961752709617
 21
159.464629545581
 31
0.0
  0
LINE
  5
2A2
330
1E
100
AcDbEntity
  8
0
100
AcDbLine
 10
244.6804084029428
 20
159.5863125070699
 30
0.0
 11
244.5961752709617
 21
159.464629545581
 31
0.0
  0
LINE
  5
2A3
330
1E
100
AcDbEntity
  8
0
100
AcDbLine
 10
241.2679966779144
 20
161.9829006615559
 30
0.0
 11
239.593346885902
 21
162.2919043278919
 31
0.0
  0
LINE
  5
2A4
330
1E
100
AcDbEntity
  8
0
100
AcDbLine
 10
233.4295144204538
 20
162.9662929661519
 30
0.0
 11
232.3224424024548
 21
162.9677445576309
 31
0.0
  0
LINE
  5
2A5
330
1E
100
AcDbEntity
  8
0
100
AcDbLine
 10
233.4220480134343
 20
153.5902359390019
 30
0.0
 11
232.3149750876229
 21
153.5905475308419
 31
0.0
  0
LINE
  5
2A6
330
1E
100
AcDbEntity
  8
0
100
AcDbLine
 10
236.5759673267628
 20
153.8257744634909
 30
0.0
 11
235.2405777719948
 21
153.7029078309059
 31
0.0
  0
LINE
  5
2A7
330
1E
100
AcDbEntity
  8
0
100
AcDbLine
 10
238.0251898456646
 20
154.0097804672319
 30
0.0
 11
236.5759673267628
 21
153.8257744634909
 31
0.0
  0
LINE
  5
2A8
330
1E
100
AcDbEntity
  8
0
100
AcDbLine
 10
234.6473074331611
 20
153.6516702516769
 30
0.0
 11
233.4220480134343
 21
153.5902359390019
 31
0.0
  0
LINE
  5
2A9
330
1E
100
AcDbEntity
  8
0
100
AcDbLine
 10
235.2405777719948
 20
153.7029078309059
 30
0.0
 11
234.6473074331611
 21
153.6516702516769
 31
0.0
  0
LINE
  5
2AA
330
1E
100
AcDbEntity
  8
0
100
AcDbLine
 10
236.5830546026352
 20
162.725731641597
 30
0.0
 11
235.2478624254056
 21
162.8507249304229
 31
0.0
  0
LINE
  5
2AB
330
1E
100
AcDbEntity
  8
0
100
AcDbLine
 10
238.0319822258296
 20
162.539417762754
 30
0.0
 11
236.5830546026352
 21
162.725731641597
 31
0.0
  0
LINE
  5
2AC
330
1E
100
AcDbEntity
  8
0
100
AcDbLine
 10
234.6546744426805
 20
162.902907318404
 30
0.0
 11
233.4295144204538
 21
162.9662929661519
 31
0.0
  0
LINE
  5
2AD
330
1E
100
AcDbEntity
  8
0
100
AcDbLine
 10
235.2478624254056
 20
162.8507249304229
 30
0.0
 11
234.6546744426805
 21
162.902907318404
 31
0.0
  0
LINE
  5
2AE
330
1E
100
AcDbEntity
  8
0
100
AcDbLine
 10
229.8505252885068
 20
153.885970131714
 30
0.0
 11
229.1018710542227
 21
154.071376363864
 31
0.0
  0
LINE
  5
2AF
330
1E
100
AcDbEntity
  8
0
100
AcDbLine
 10
231.3267184409688
 20
153.6526245256899
 30
0.0
 11
230.4593294222572
 21
153.776355289965
 31
0.0
  0
LINE
  5
2B0
330
1E
100
AcDbEntity
  8
0
100
AcDbLine
 10
232.3149750876229
 20
153.5905475308419
 30
0.0
 11
231.3267184409688
 21
153.6526245256899
 31
0.0
  0
LINE
  5
2B1
330
1E
100
AcDbEntity
  8
0
100
AcDbLine
 10
230.4593294222572
 20
153.776355289965
 30
0.0
 11
229.8505252885068
 21
153.885970131714
 31
0.0
  0
LINE
  5
2B2
330
1E
100
AcDbEntity
  8
0
100
AcDbLine
 10
228.4741397134117
 20
154.318866321569
 30
0.0
 11
227.9074183173519
 21
154.582617700581
 31
0.0
  0
LINE
  5
2B3
330
1E
100
AcDbEntity
  8
0
100
AcDbLine
 10
229.1018710542227
 20
154.071376363864
 30
0.0
 11
228.4741397134117
 21
154.318866321569
 31
0.0
  0
LINE
  5
2B4
330
1E
100
AcDbEntity
  8
0
100
AcDbLine
 10
227.9074183173519
 20
154.582617700581
 30
0.0
 11
227.4025430668498
 21
154.891109844042
 31
0.0
  0
LINE
  5
2B5
330
1E
100
AcDbEntity
  8
0
100
AcDbLine
 10
227.4025430668498
 20
154.891109844042
 30
0.0
 11
226.9195209090622
 21
155.291024614288
 31
0.0
  0
LINE
  5
2B6
330
1E
100
AcDbEntity
  8
0
100
AcDbLine
 10
229.8575252232657
 20
162.676247344596
 30
0.0
 11
229.1085766507026
 21
162.492033693941
 31
0.0
  0
LINE
  5
2B7
330
1E
100
AcDbEntity
  8
0
100
AcDbLine
 10
232.3224424024548
 20
162.9677445576309
 30
0.0
 11
231.3340881420725
 21
162.9072415913439
 31
0.0
  0
LINE
  5
2B8
330
1E
100
AcDbEntity
  8
0
100
AcDbLine
 10
231.3340881420725
 20
162.9072415913439
 30
0.0
 11
230.4665031632838
 21
162.784892433644
 31
0.0
  0
LINE
  5
2B9
330
1E
100
AcDbEntity
  8
0
100
AcDbLine
 10
230.4665031632838
 20
162.784892433644
 30
0.0
 11
229.8575252232657
 21
162.676247344596
 31
0.0
  0
LINE
  5
2BA
330
1E
100
AcDbEntity
  8
0
100
AcDbLine
 10
228.4804519404231
 20
162.245543808271
 30
0.0
 11
227.9133111987175
 21
161.982695354252
 31
0.0
  0
LINE
  5
2BB
330
1E
100
AcDbEntity
  8
0
100
AcDbLine
 10
229.1085766507026
 20
162.492033693941
 30
0.0
 11
228.4804519404231
 21
162.245543808271
 31
0.0
  0
LINE
  5
2BC
330
1E
100
AcDbEntity
  8
0
100
AcDbLine
 10
227.4079452676228
 20
161.6750076930829
 30
0.0
 11
226.9242867970135
 21
161.2758627166859
 31
0.0
  0
LINE
  5
2BD
330
1E
100
AcDbEntity
  8
0
100
AcDbLine
 10
227.9133111987175
 20
161.982695354252
 30
0.0
 11
227.4079452676228
 21
161.6750076930829
 31
0.0
  0
LINE
  5
2BE
330
1E
100
AcDbEntity
  8
0
100
AcDbLine
 10
238.7357484949355
 20
184.1426841845839
 30
0.0
 11
228.0222968173702
 21
186.282576270811
 31
0.0
  0
LINE
  5
2BF
330
1E
100
AcDbEntity
  8
0
100
AcDbLine
 10
202.1228354437417
 20
147.5880364348899
 30
0.0
 11
200.0000088812754
 21
158.304882296354
 31
0.0
  0
LINE
  5
2C0
330
1E
100
AcDbEntity
  8
0
100
AcDbLine
 10
208.1852718339258
 20
138.4993898731399
 30
0.0
 11
202.1228354437417
 21
147.5880364348899
 31
0.0
  0
LINE
  5
2C1
330
1E
100
AcDbEntity
  8
0
100
AcDbLine
 10
217.264251511798
 20
132.4224861123229
 30
0.0
 11
208.1852718339258
 21
138.4993898731399
 31
0.0
  0
LINE
  5
2C2
330
1E
100
AcDbEntity
  8
0
100
AcDbLine
 10
208.2168047280525
 20
178.097313317895
 30
0.0
 11
202.1399009672362
 21
169.0183336400219
 31
0.0
  0
LINE
  5
2C3
330
1E
100
AcDbEntity
  8
0
100
AcDbLine
 10
217.3054512452083
 20
184.1596937080959
 30
0.0
 11
208.2168047280525
 21
178.097313317895
 31
0.0
  0
LINE
  5
2C4
330
1E
100
AcDbEntity
  8
0
100
AcDbLine
 10
225.8413151933692
 20
159.7687046380289
 30
0.0
 11
225.6896524876254
 21
159.2173502362759
 31
0.0
  0
LINE
  5
2C5
330
1E
100
AcDbEntity
  8
0
100
AcDbLine
 10
225.9503096011504
 20
156.518856812448
 30
0.0
 11
225.7186137301689
 21
157.103671503485
 31
0.0
  0
LINE
  5
2C6
330
1E
100
AcDbEntity
  8
0
100
AcDbLine
 10
225.642292178595
 20
158.8368038298959
 30
0.0
 11
225.6418523347032
 21
158.284463005026
 31
0.0
  0
LINE
  5
2C7
330
1E
100
AcDbEntity
  8
0
100
AcDbLine
 10
225.642292178595
 20
158.8368038298959
 30
0.0
 11
225.6414124908116
 21
157.7321221801549
 31
0.0
  0
LINE
  5
2C8
330
1E
100
AcDbEntity
  8
0
100
AcDbLine
 10
225.6896524876254
 20
159.2173502362759
 30
0.0
 11
225.642292178595
 21
158.8368038298959
 31
0.0
  0
LINE
  5
2C9
330
1E
100
AcDbEntity
  8
0
100
AcDbLine
 10
225.6418523347032
 20
158.284463005026
 30
0.0
 11
225.6414124908116
 21
157.7321221801549
 31
0.0
  0
LINE
  5
2CA
330
1E
100
AcDbEntity
  8
0
100
AcDbLine
 10
226.1707617563073
 20
156.169461149726
 30
0.0
 11
225.9503096011504
 21
156.518856812448
 31
0.0
  0
LINE
  5
2CB
330
1E
100
AcDbEntity
  8
0
100
AcDbLine
 10
225.7186137301689
 20
157.103671503485
 30
0.0
 11
225.6881762147941
 21
157.3515008202699
 31
0.0
  0
LINE
  5
2CC
330
1E
100
AcDbEntity
  8
0
100
AcDbLine
 10
225.6881762147941
 20
157.3515008202699
 30
0.0
 11
225.6414124908116
 21
157.7321221801549
 31
0.0
  0
LINE
  5
2CD
330
1E
100
AcDbEntity
  8
0
100
AcDbLine
 10
226.5381333241524
 20
155.659858440355
 30
0.0
 11
226.1707617563073
 21
156.169461149726
 31
0.0
  0
LINE
  5
2CE
330
1E
100
AcDbEntity
  8
0
100
AcDbLine
 10
226.1741295493794
 20
160.3986198087939
 30
0.0
 11
225.8413151933692
 21
159.7687046380289
 31
0.0
  0
LINE
  5
2CF
330
1E
100
AcDbEntity
  8
0
100
AcDbLine
 10
226.5423122715384
 20
160.907636776451
 30
0.0
 11
226.1741295493794
 21
160.3986198087939
 31
0.0
  0
LINE
  5
2D0
330
1E
100
AcDbEntity
  8
0
100
AcDbLine
 10
202.1399009672362
 20
169.0183336400219
 30
0.0
 11
200.0000088812754
 21
158.304882296354
 31
0.0
  0
ENDSEC
  0
SECTION
  2
OBJECTS
  0
DICTIONARY
  5
C
330
0
100
AcDbDictionary
  3
ACAD_GROUP
350
D
  3
ACAD_LAYOUT
350
19
  3
ACAD_MLINESTYLE
350
16
  3
ACAD_PLOTSETTINGS
350
18
  3
ACAD_PLOTSTYLENAME
350
E
  3
ACDBHEADERROUNDTRIPXREC
350
2D4
  3
ACDBVARIABLEDICTIONARY
350
2D1
  0
DICTIONARY
  5
2F6
330
1E
100
AcDbDictionary
280
     1
  3
ACAD_LAYOUTSELFREF
360
2F7
  0
DICTIONARY
  5
2F4
330
1A
100
AcDbDictionary
280
     1
  3
ACAD_LAYOUTSELFREF
360
2F5
  0
DICTIONARY
  5
D
102
{ACAD_REACTORS
330
C
102
}
330
C
100
AcDbDictionary
  0
DICTIONARY
  5
19
102
{ACAD_REACTORS
330
C
102
}
330
C
100
AcDbDictionary
  0
DICTIONARY
  5
16
102
{ACAD_REACTORS
330
C
102
}
330
C
100
AcDbDictionary
  3
STANDARD
350
17
  0
DICTIONARY
  5
18
102
{ACAD_REACTORS
330
C
102
}
330
C
100
AcDbDictionary
  0
ACDBDICTIONARYWDFLT
  5
E
102
{ACAD_REACTORS
330
C
102
}
330
C
100
AcDbDictionary
281
     1
  3
Normal
350
F
100
AcDbDictionaryWithDefault
340
F
  0
DICTIONARY
  5
2D4
102
{ACAD_REACTORS
330
C
102
}
330
C
100
AcDbDictionary
  3
CEPSNTYPE
350
2DE
  3
FINGERPRINTGUID
350
2DF
  3
HYPERLINKBASE
350
2D7
  3
INSUNITS
350
2DD
  3
LAYOUTDICT
350
2D9
  3
LWETCUNION
350
2DC
  3
PLOTSETDICT
350
2DA
  3
PLOTSTYLNAMDICT
350
2DB
  3
PSVPSCALE
350
2E1
  3
PUCSBASE
350
2E4
  3
PUCSORGBACK
350
2EA
  3
PUCSORGBOTTOM
350
2E6
  3
PUCSORGFRONT
350
2E9
  3
PUCSORGLEFT
350
2E7
  3
PUCSORGRIGHT
350
2E8
  3
PUCSORGTOP
350
2E5
  3
PUCSORTHOREF
350
2E2
  3
PUCSORTHOVIEW
350
2E3
  3
STYLESHEET
350
2D8
  3
TSTACKALIGN
350
2D5
  3
TSTACKSIZE
350
2D6
  3
UCSBASE
350
2ED
  3
UCSORGBACK
350
2F3
  3
UCSORGBOTTOM
350
2EF
  3
UCSORGFRONT
350
2F2
  3
UCSORGLEFT
350
2F0
  3
UCSORGRIGHT
350
2F1
  3
UCSORGTOP
350
2EE
  3
UCSORTHOREF
350
2EB
  3
UCSORTHOVIEW
350
2EC
  3
VERSIONGUID
350
2E0
  0
DICTIONARY
  5
2D1
102
{ACAD_REACTORS
330
C
102
}
330
C
100
AcDbDictionary
  3
DIMASSOC
350
2D2
  0
XRECORD
  5
2F7
102
{ACAD_REACTORS
330
2F6
102
}
330
2F6
100
AcDbXrecord
340
1E
  0
XRECORD
  5
2F5
102
{ACAD_REACTORS
330
2F4
102
}
330
2F4
100
AcDbXrecord
340
1A
  0
MLINESTYLE
  5
17
102
{ACAD_REACTORS
330
16
102
}
330
16
100
AcDbMlineStyle
  2
STANDARD
 70
     0
  3

 62
   256
 51
90.0
 52
90.0
 71
     2
 49
0.5
 62
   256
  6
BYLAYER
 49
-0.5
 62
   256
  6
BYLAYER
  0
ACDBPLACEHOLDER
  5
F
102
{ACAD_REACTORS
330
E
102
}
330
E
100
AcDbPlaceHolder
280
     0
  0
XRECORD
  5
2DE
102
{ACAD_REACTORS
330
2D4
102
}
330
2D4
100
AcDbXrecord
 90
        0
  0
XRECORD
  5
2DF
102
{ACAD_REACTORS
330
2D4
102
}
330
2D4
100
AcDbXrecord
  1
{29C79FE5-D1EF-42D9-A173-9F509B9D7074}
  0
XRECORD
  5
2D7
102
{ACAD_REACTORS
330
2D4
102
}
330
2D4
100
AcDbXrecord
  1

  0
XRECORD
  5
2DD
102
{ACAD_REACTORS
330
2D4
102
}
330
2D4
100
AcDbXrecord
 90
        0
  0
XRECORD
  5
2D9
102
{ACAD_REACTORS
330
2D4
102
}
330
2D4
100
AcDbXrecord
340
19
  0
XRECORD
  5
2DC
102
{ACAD_REACTORS
330
2D4
102
}
330
2D4
100
AcDbXrecord
 90
    10781
  0
XRECORD
  5
2DA
102
{ACAD_REACTORS
330
2D4
102
}
330
2D4
100
AcDbXrecord
340
18
  0
XRECORD
  5
2DB
102
{ACAD_REACTORS
330
2D4
102
}
330
2D4
100
AcDbXrecord
340
E
  0
XRECORD
  5
2E1
102
{ACAD_REACTORS
330
2D4
102
}
330
2D4
100
AcDbXrecord
 40
0.0
  0
XRECORD
  5
2E4
102
{ACAD_REACTORS
330
2D4
102
}
330
2D4
100
AcDbXrecord
340
0
  0
XRECORD
  5
2EA
102
{ACAD_REACTORS
330
2D4
102
}
330
2D4
100
AcDbXrecord
 10
0.0
 20
0.0
 30
0.0
  0
XRECORD
  5
2E6
102
{ACAD_REACTORS
330
2D4
102
}
330
2D4
100
AcDbXrecord
 10
0.0
 20
0.0
 30
0.0
  0
XRECORD
  5
2E9
102
{ACAD_REACTORS
330
2D4
102
}
330
2D4
100
AcDbXrecord
 10
0.0
 20
0.0
 30
0.0
  0
XRECORD
  5
2E7
102
{ACAD_REACTORS
330
2D4
102
}
330
2D4
100
AcDbXrecord
 10
0.0
 20
0.0
 30
0.0
  0
XRECORD
  5
2E8
102
{ACAD_REACTORS
330
2D4
102
}
330
2D4
100
AcDbXrecord
 10
0.0
 20
0.0
 30
0.0
  0
XRECORD
  5
2E5
102
{ACAD_REACTORS
330
2D4
102
}
330
2D4
100
AcDbXrecord
 10
0.0
 20
0.0
 30
0.0
  0
XRECORD
  5
2E2
102
{ACAD_REACTORS
330
2D4
102
}
330
2D4
100
AcDbXrecord
340
0
  0
XRECORD
  5
2E3
102
{ACAD_REACTORS
330
2D4
102
}
330
2D4
100
AcDbXrecord
 70
     0
  0
XRECORD
  5
2D8
102
{ACAD_REACTORS
330
2D4
102
}
330
2D4
100
AcDbXrecord
  1

  0
XRECORD
  5
2D5
102
{ACAD_REACTORS
330
2D4
102
}
330
2D4
100
AcDbXrecord
 90
        1
  0
XRECORD
  5
2D6
102
{ACAD_REACTORS
330
2D4
102
}
330
2D4
100
AcDbXrecord
 90
       70
  0
XRECORD
  5
2ED
102
{ACAD_REACTORS
330
2D4
102
}
330
2D4
100
AcDbXrecord
340
0
  0
XRECORD
  5
2F3
102
{ACAD_REACTORS
330
2D4
102
}
330
2D4
100
AcDbXrecord
 10
0.0
 20
0.0
 30
0.0
  0
XRECORD
  5
2EF
102
{ACAD_REACTORS
330
2D4
102
}
330
2D4
100
AcDbXrecord
 10
0.0
 20
0.0
 30
0.0
  0
XRECORD
  5
2F2
102
{ACAD_REACTORS
330
2D4
102
}
330
2D4
100
AcDbXrecord
 10
0.0
 20
0.0
 30
0.0
  0
XRECORD
  5
2F0
102
{ACAD_REACTORS
330
2D4
102
}
330
2D4
100
AcDbXrecord
 10
0.0
 20
0.0
 30
0.0
  0
XRECORD
  5
2F1
102
{ACAD_REACTORS
330
2D4
102
}
330
2D4
100
AcDbXrecord
 10
0.0
 20
0.0
 30
0.0
  0
XRECORD
  5
2EE
102
{ACAD_REACTORS
330
2D4
102
}
330
2D4
100
AcDbXrecord
 10
0.0
 20
0.0
 30
0.0
  0
XRECORD
  5
2EB
102
{ACAD_REACTORS
330
2D4
102
}
330
2D4
100
AcDbXrecord
340
0
  0
XRECORD
  5
2EC
102
{ACAD_REACTORS
330
2D4
102
}
330
2D4
100
AcDbXrecord
 70
     1
  0
XRECORD
  5
2E0
102
{ACAD_REACTORS
330
2D4
102
}
330
2D4
100
AcDbXrecord
  1
{97D60F93-57DD-4ED2-A9E5-56FC007A57D6}
  0
DICTIONARYVAR
  5
2D2
102
{ACAD_REACTORS
330
2D1
102
}
330
2D1
100
DictionaryVariables
280
     0
  1
1
  0
ENDSEC
  0
EOF
