  0
SECTION
  2
HEADER
  9
$ACADVER
  1
AC1014
  9
$ACADMAINTVER
 70
     9
  9
$DWGCODEPAGE
  3
ANSI_1252
  9
$INSBASE
 10
0.0
 20
0.0
 30
0.0
  9
$EXTMIN
 10
-0.0388414974225555
 20
0.0379999999999756
 30
0.0
  9
$EXTMAX
 10
187.038841497423
 20
184.962
 30
0.0
  9
$LIMMIN
 10
0.0
 20
0.0
  9
$LIMMAX
 10
12.0
 20
9.0
  9
$ORTHOMODE
 70
     0
  9
$REGENMODE
 70
     1
  9
$FILLMODE
 70
     1
  9
$QTEXTMODE
 70
     0
  9
$MIRRTEXT
 70
     1
  9
$DRAGMODE
 70
     2
  9
$LTSCALE
 40
1.0
  9
$OSMODE
 70
    37
  9
$ATTMODE
 70
     1
  9
$TEXTSIZE
 40
0.2
  9
$TRACEWID
 40
0.05
  9
$TEXTSTYLE
  7
STANDARD
  9
$CLAYER
  8
0
  9
$CELTYPE
  6
CONTINUOUS
  9
$CECOLOR
 62
   256
  9
$CELTSCALE
 40
1.0
  9
$DELOBJ
 70
     1
  9
$DISPSILH
 70
     0
  9
$DIMSCALE
 40
1.0
  9
$DIMASZ
 40
0.18
  9
$DIMEXO
 40
0.0625
  9
$DIMDLI
 40
0.38
  9
$DIMRND
 40
0.0
  9
$DIMDLE
 40
0.0
  9
$DIMEXE
 40
0.18
  9
$DIMTP
 40
0.0
  9
$DIMTM
 40
0.0
  9
$DIMTXT
 40
0.18
  9
$DIMCEN
 40
0.09
  9
$DIMTSZ
 40
0.0
  9
$DIMTOL
 70
     0
  9
$DIMLIM
 70
     0
  9
$DIMTIH
 70
     1
  9
$DIMTOH
 70
     1
  9
$DIMSE1
 70
     0
  9
$DIMSE2
 70
     0
  9
$DIMTAD
 70
     0
  9
$DIMZIN
 70
     0
  9
$DIMBLK
  1

  9
$DIMASO
 70
     1
  9
$DIMSHO
 70
     1
  9
$DIMPOST
  1

  9
$DIMAPOST
  1

  9
$DIMALT
 70
     0
  9
$DIMALTD
 70
     2
  9
$DIMALTF
 40
25.4
  9
$DIMLFAC
 40
1.0
  9
$DIMTOFL
 70
     0
  9
$DIMTVP
 40
0.0
  9
$DIMTIX
 70
     0
  9
$DIMSOXD
 70
     0
  9
$DIMSAH
 70
     0
  9
$DIMBLK1
  1

  9
$DIMBLK2
  1

  9
$DIMSTYLE
  2
STANDARD
  9
$DIMCLRD
 70
     0
  9
$DIMCLRE
 70
     0
  9
$DIMCLRT
 70
     0
  9
$DIMTFAC
 40
1.0
  9
$DIMGAP
 40
0.09
  9
$DIMJUST
 70
     0
  9
$DIMSD1
 70
     0
  9
$DIMSD2
 70
     0
  9
$DIMTOLJ
 70
     1
  9
$DIMTZIN
 70
     0
  9
$DIMALTZ
 70
     0
  9
$DIMALTTZ
 70
     0
  9
$DIMFIT
 70
     3
  9
$DIMUPT
 70
     0
  9
$DIMUNIT
 70
     2
  9
$DIMDEC
 70
     4
  9
$DIMTDEC
 70
     4
  9
$DIMALTU
 70
     2
  9
$DIMALTTD
 70
     2
  9
$DIMTXSTY
  7
STANDARD
  9
$DIMAUNIT
 70
     0
  9
$LUNITS
 70
     2
  9
$LUPREC
 70
     4
  9
$SKETCHINC
 40
0.1
  9
$FILLETRAD
 40
0.0
  9
$AUNITS
 70
     0
  9
$AUPREC
 70
     0
  9
$MENU
  1
.
  9
$ELEVATION
 40
0.0
  9
$PELEVATION
 40
0.0
  9
$THICKNESS
 40
0.0
  9
$LIMCHECK
 70
     0
  9
$BLIPMODE
 70
     0
  9
$CHAMFERA
 40
0.0
  9
$CHAMFERB
 40
0.0
  9
$CHAMFERC
 40
0.0
  9
$CHAMFERD
 40
0.0
  9
$SKPOLY
 70
     0
  9
$TDCREATE
 40
2454690.737030521
  9
$TDUPDATE
 40
2454690.740728079
  9
$TDINDWG
 40
0.0036975579
  9
$TDUSRTIMER
 40
0.0036975579
  9
$USRTIMER
 70
     1
  9
$ANGBASE
 50
0.0
  9
$ANGDIR
 70
     0
  9
$PDMODE
 70
     0
  9
$PDSIZE
 40
0.0
  9
$PLINEWID
 40
0.0
  9
$COORDS
 70
     1
  9
$SPLFRAME
 70
     0
  9
$SPLINETYPE
 70
     6
  9
$SPLINESEGS
 70
     8
  9
$ATTDIA
 70
     0
  9
$ATTREQ
 70
     1
  9
$HANDLING
 70
 22529
  9
$HANDSEED
  5
14A
  9
$SURFTAB1
 70
     6
  9
$SURFTAB2
 70
     6
  9
$SURFTYPE
 70
     6
  9
$SURFU
 70
     6
  9
$SURFV
 70
     6
  9
$UCSNAME
  2

  9
$UCSORG
 10
0.0
 20
0.0
 30
0.0
  9
$UCSXDIR
 10
1.0
 20
0.0
 30
0.0
  9
$UCSYDIR
 10
0.0
 20
1.0
 30
0.0
  9
$PUCSNAME
  2

  9
$PUCSORG
 10
0.0
 20
0.0
 30
0.0
  9
$PUCSXDIR
 10
1.0
 20
0.0
 30
0.0
  9
$PUCSYDIR
 10
0.0
 20
1.0
 30
0.0
  9
$USERI1
 70
     0
  9
$USERI2
 70
     0
  9
$USERI3
 70
     0
  9
$USERI4
 70
     0
  9
$USERI5
 70
     0
  9
$USERR1
 40
0.0
  9
$USERR2
 40
0.0
  9
$USERR3
 40
0.0
  9
$USERR4
 40
0.0
  9
$USERR5
 40
0.0
  9
$WORLDVIEW
 70
     1
  9
$SHADEDGE
 70
     3
  9
$SHADEDIF
 70
    70
  9
$TILEMODE
 70
     1
  9
$MAXACTVP
 70
    64
  9
$PINSBASE
 10
0.0
 20
0.0
 30
0.0
  9
$PLIMCHECK
 70
     0
  9
$PEXTMIN
 10
1.000000000000000E+20
 20
1.000000000000000E+20
 30
1.000000000000000E+20
  9
$PEXTMAX
 10
-1.000000000000000E+20
 20
-1.000000000000000E+20
 30
-1.000000000000000E+20
  9
$PLIMMIN
 10
0.0
 20
0.0
  9
$PLIMMAX
 10
12.0
 20
9.0
  9
$UNITMODE
 70
     0
  9
$VISRETAIN
 70
     1
  9
$PLINEGEN
 70
     0
  9
$PSLTSCALE
 70
     1
  9
$TREEDEPTH
 70
  3020
  9
$PICKSTYLE
 70
     1
  9
$CMLSTYLE
  2
STANDARD
  9
$CMLJUST
 70
     0
  9
$CMLSCALE
 40
1.0
  9
$PROXYGRAPHICS
 70
     1
  9
$MEASUREMENT
 70
     0
  0
ENDSEC
  0
SECTION
  2
CLASSES
  0
CLASS
  1
ACDBDICTIONARYWDFLT
  2
AcDbDictionaryWithDefault
  3
AutoCAD 2000
 90
        0
280
     0
281
     0
  0
CLASS
  1
ACDBPLACEHOLDER
  2
AcDbPlaceHolder
  3
AutoCAD 2000
 90
        0
280
     0
281
     0
  0
CLASS
  1
LAYOUT
  2
AcDbLayout
  3
AutoCAD 2000
 90
        0
280
     0
281
     0
  0
CLASS
  1
DICTIONARYVAR
  2
AcDbDictionaryVar
  3
AutoCAD 2000
 90
        0
280
     0
281
     0
  0
CLASS
  1
LONG_TRANSACTION
  2
AcDbLongTransaction
  3
AutoCAD 2000
 90
        0
280
     0
281
     0
  0
CLASS
  1
LWPOLYLINE
  2
AcDbPolyline
  3
AutoCAD 2000
 90
        0
280
     0
281
     1
  0
CLASS
  1
HATCH
  2
AcDbHatch
  3
AutoCAD 2000
 90
        0
280
     0
281
     1
  0
CLASS
  1
XRECORD
  2
AcDbXrecord
  3
AutoCAD 2000
 90
        0
280
     0
281
     0
  0
ENDSEC
  0
SECTION
  2
TABLES
  0
TABLE
  2
VPORT
  5
8
330
0
100
AcDbSymbolTable
 70
     2
  0
VPORT
  5
125
330
8
100
AcDbSymbolTableRecord
100
AcDbViewportTableRecord
  2
*ACTIVE
 70
     0
 10
0.0
 20
0.0
 11
1.0
 21
1.0
 12
93.50000000000022
 22
92.5
 13
0.0
 23
0.0
 14
1.0
 24
1.0
 15
0.0
 25
0.0
 16
0.0
 26
0.0
 36
1.0
 17
0.0
 27
0.0
 37
0.0
 40
186.3428542199488
 41
2.043533930857874
 42
50.0
 43
0.0
 44
0.0
 50
0.0
 51
0.0
 71
     0
 72
   100
 73
     1
 74
     3
 75
     0
 76
     0
 77
     0
 78
     0
  0
ENDTAB
  0
TABLE
  2
LTYPE
  5
5
330
0
100
AcDbSymbolTable
 70
     1
  0
LTYPE
  5
13
330
5
100
AcDbSymbolTableRecord
100
AcDbLinetypeTableRecord
  2
BYBLOCK
 70
     0
  3

 72
    65
 73
     0
 40
0.0
  0
LTYPE
  5
14
330
5
100
AcDbSymbolTableRecord
100
AcDbLinetypeTableRecord
  2
BYLAYER
 70
     0
  3

 72
    65
 73
     0
 40
0.0
  0
LTYPE
  5
15
330
5
100
AcDbSymbolTableRecord
100
AcDbLinetypeTableRecord
  2
CONTINUOUS
 70
     0
  3
Solid line
 72
    65
 73
     0
 40
0.0
  0
ENDTAB
  0
TABLE
  2
LAYER
  5
2
330
0
100
AcDbSymbolTable
 70
     1
  0
LAYER
  5
10
330
2
100
AcDbSymbolTableRecord
100
AcDbLayerTableRecord
  2
0
 70
     0
 62
     7
  6
CONTINUOUS
  0
ENDTAB
  0
TABLE
  2
STYLE
  5
3
330
0
100
AcDbSymbolTable
 70
     1
  0
STYLE
  5
11
330
3
100
AcDbSymbolTableRecord
100
AcDbTextStyleTableRecord
  2
STANDARD
 70
     0
 40
0.0
 41
1.0
 50
0.0
 71
     0
 42
0.2
  3
txt
  4

  0
ENDTAB
  0
TABLE
  2
VIEW
  5
6
330
0
100
AcDbSymbolTable
 70
     0
  0
ENDTAB
  0
TABLE
  2
UCS
  5
7
330
0
100
AcDbSymbolTable
 70
     0
  0
ENDTAB
  0
TABLE
  2
APPID
  5
9
330
0
100
AcDbSymbolTable
 70
     1
  0
APPID
  5
12
330
9
100
AcDbSymbolTableRecord
100
AcDbRegAppTableRecord
  2
ACAD
 70
     0
  0
ENDTAB
  0
TABLE
  2
DIMSTYLE
  5
A
330
0
100
AcDbSymbolTable
 70
     1
  0
DIMSTYLE
105
11F
330
A
100
AcDbSymbolTableRecord
100
AcDbDimStyleTableRecord
  2
STANDARD
 70
     0
  3

  4

  5

  6

  7

 40
1.0
 41
0.18
 42
0.0625
 43
0.38
 44
0.18
 45
0.0
 46
0.0
 47
0.0
 48
0.0
140
0.18
141
0.09
142
0.0
143
25.4
144
1.0
145
0.0
146
1.0
147
0.09
 71
     0
 72
     0
 73
     1
 74
     1
 75
     0
 76
     0
 77
     0
 78
     0
170
     0
171
     2
172
     0
173
     0
174
     0
175
     0
176
     0
177
     0
178
     0
270
     2
271
     4
272
     4
273
     2
274
     2
340
11
275
     0
280
     0
281
     0
282
     0
283
     1
284
     0
285
     0
286
     0
287
     3
288
     0
  0
ENDTAB
  0
TABLE
  2
BLOCK_RECORD
  5
1
330
0
100
AcDbSymbolTable
 70
     0
  0
BLOCK_RECORD
  5
1E
102
{ACAD_XDICTIONARY
360
148
102
}
330
1
100
AcDbSymbolTableRecord
100
AcDbBlockTableRecord
  2
*MODEL_SPACE
  0
BLOCK_RECORD
  5
1A
102
{ACAD_XDICTIONARY
360
146
102
}
330
1
100
AcDbSymbolTableRecord
100
AcDbBlockTableRecord
  2
*PAPER_SPACE
  0
ENDTAB
  0
ENDSEC
  0
SECTION
  2
BLOCKS
  0
BLOCK
  5
1F
330
1E
100
AcDbEntity
  8
0
100
AcDbBlockBegin
  2
*MODEL_SPACE
 70
     0
 10
0.0
 20
0.0
 30
0.0
  3
*MODEL_SPACE
  1

  0
ENDBLK
  5
20
330
1E
100
AcDbEntity
  8
0
100
AcDbBlockEnd
  0
BLOCK
  5
1B
330
1A
100
AcDbEntity
 67
     1
  8
0
100
AcDbBlockBegin
  2
*PAPER_SPACE
 70
     0
 10
0.0
 20
0.0
 30
0.0
  3
*PAPER_SPACE
  1

  0
ENDBLK
  5
1C
330
1A
100
AcDbEntity
 67
     1
  8
0
100
AcDbBlockEnd
  0
ENDSEC
  0
SECTION
  2
ENTITIES
  0
LINE
  5
22
330
1E
100
AcDbEntity
  8
0
100
AcDbLine
 10
130.2825940253879
 20
0.0379999999999791
 30
0.0
 11
132.405420588829
 21
0.0379999999999789
 31
0.0
  0
LINE
  5
23
330
1E
100
AcDbEntity
  8
0
100
AcDbLine
 10
130.282594026628
 20
0.0379999999999791
 30
0.0
 11
132.405420588829
 21
0.0379999999999789
 31
0.0
  0
LINE
  5
24
330
1E
100
AcDbEntity
  8
0
100
AcDbLine
 10
130.282594026628
 20
0.0379999999999791
 30
0.0
 11
130.282594026628
 21
5.03799999999998
 31
0.0
  0
LINE
  5
25
330
1E
100
AcDbEntity
  8
0
100
AcDbLine
 10
132.405420588829
 20
0.0379999999999789
 30
0.0
 11
138.467856979013
 21
0.0379999999999786
 31
0.0
  0
LINE
  5
26
330
1E
100
AcDbEntity
  8
0
100
AcDbLine
 10
138.467856979013
 20
0.0379999999999786
 30
0.0
 11
147.546836656885
 21
0.037999999999978
 31
0.0
  0
LINE
  5
27
330
1E
100
AcDbEntity
  8
0
100
AcDbLine
 10
147.546836656885
 20
0.037999999999978
 30
0.0
 11
158.26029222844
 21
0.0379999999999774
 31
0.0
  0
LINE
  5
28
330
1E
100
AcDbEntity
  8
0
100
AcDbLine
 10
147.546836656885
 20
0.037999999999978
 30
0.0
 11
158.260283772667
 21
0.0379999999999774
 31
0.0
  0
LINE
  5
29
330
1E
100
AcDbEntity
  8
0
100
AcDbLine
 10
158.26029222844
 20
0.0379999999999774
 30
0.0
 11
168.977133862018
 21
0.0379999999999767
 31
0.0
  0
LINE
  5
2A
330
1E
100
AcDbEntity
  8
0
100
AcDbLine
 10
168.977133862018
 20
0.0379999999999767
 30
0.0
 11
178.065780423768
 21
0.0379999999999761
 31
0.0
  0
LINE
  5
2B
330
1E
100
AcDbEntity
  8
0
100
AcDbLine
 10
178.065780423768
 20
0.0379999999999761
 30
0.0
 11
184.1426841845839
 21
0.0379999999999758
 31
0.0
  0
LINE
  5
2C
330
1E
100
AcDbEntity
  8
0
100
AcDbLine
 10
184.1426841845839
 20
0.0379999999999758
 30
0.0
 11
186.28257626957
 21
0.0379999999999756
 31
0.0
  0
LINE
  5
2D
330
1E
100
AcDbEntity
  8
0
100
AcDbLine
 10
-0.0388414974225549
 20
117.666859324053
 30
0.0
 11
8.520803292900119
 21
135.8112239961789
 31
0.0
  0
LINE
  5
2E
330
1E
100
AcDbEntity
  8
0
100
AcDbLine
 10
-0.0388414974225554
 20
117.666859324053
 30
0.0
 11
0.9230846855180329
 21
117.2083694783929
 31
0.0
  0
LINE
  5
2F
330
1E
100
AcDbEntity
  8
0
100
AcDbLine
 10
-0.0388414974225555
 20
117.666859324053
 30
0.0
 11
8.520803292900119
 21
135.8112239961789
 31
0.0
  0
LINE
  5
30
330
1E
100
AcDbEntity
  8
0
100
AcDbLine
 10
-0.0388414974225555
 20
117.666859324053
 30
0.0
 11
0.9230846855180329
 21
117.2083694783929
 31
0.0
  0
LINE
  5
31
330
1E
100
AcDbEntity
  8
0
100
AcDbLine
 10
0.9230846855180329
 20
117.2083694783929
 30
0.0
 11
3.66627708841939
 21
115.910259309893
 31
0.0
  0
LINE
  5
32
330
1E
100
AcDbEntity
  8
0
100
AcDbLine
 10
0.923084685518032
 20
117.2083694783929
 30
0.0
 11
3.66627708841939
 21
115.910259309893
 31
0.0
  0
LINE
  5
33
330
1E
100
AcDbEntity
  8
0
100
AcDbLine
 10
3.66627708841939
 20
115.910259309893
 30
0.0
 11
7.7730132875458
 21
113.9702189708309
 31
0.0
  0
LINE
  5
34
330
1E
100
AcDbEntity
  8
0
100
AcDbLine
 10
7.7730132875458
 20
113.9702189708309
 30
0.0
 11
12.62826677120389
 21
111.6788778752759
 31
0.0
  0
LINE
  5
35
330
1E
100
AcDbEntity
  8
0
100
AcDbLine
 10
12.62826677120389
 20
111.6788778752759
 30
0.0
 11
17.4639664077713
 21
109.398550193766
 31
0.0
  0
LINE
  5
36
330
1E
100
AcDbEntity
  8
0
100
AcDbLine
 10
17.4639664077713
 20
109.398550193766
 30
0.0
 11
21.57277211176569
 21
107.4628408533889
 31
0.0
  0
LINE
  5
37
330
1E
100
AcDbEntity
  8
0
100
AcDbLine
 10
21.57277211176569
 20
107.4628408533889
 30
0.0
 11
24.29953177298
 21
106.180462862127
 31
0.0
  0
LINE
  5
39
330
1E
100
AcDbEntity
  8
0
100
AcDbLine
 10
24.29953177298
 20
106.180462862127
 30
0.0
 11
25.28475178837239
 21
105.7204738934869
 31
0.0
  0
LINE
  5
3A
330
1E
100
AcDbEntity
  8
0
100
AcDbLine
 10
25.28475178837239
 20
105.7204738934869
 30
0.0
 11
33.837042611982
 21
123.849250107647
 31
0.0
  0
LINE
  5
3C
330
1E
100
AcDbEntity
  8
0
100
AcDbLine
 10
33.92258514845369
 20
123.8089999999999
 30
0.0
 11
36.6575851484537
 21
128.917
 31
0.0
  0
LINE
  5
41
330
1E
100
AcDbEntity
  8
0
100
AcDbLine
 10
8.520803292900119
 20
135.8112239961789
 30
0.0
 11
33.92258514845369
 21
123.8089999999999
 31
0.0
  0
LINE
  5
4A
330
1E
100
AcDbEntity
  8
0
100
AcDbLine
 10
8.608585148453739
 20
135.776
 30
0.0
 11
12.66458514845369
 21
143.351
 31
0.0
  0
LINE
  5
4C
330
1E
100
AcDbEntity
  8
0
100
AcDbLine
 10
36.6575851484537
 20
128.917
 30
0.0
 11
43.58358514845369
 21
138.1879999999999
 31
0.0
  0
LINE
  5
4D
330
1E
100
AcDbEntity
  8
0
100
AcDbLine
 10
43.58358514845369
 20
138.1879999999999
 30
0.0
 11
52.2135851484537
 21
145.899
 31
0.0
  0
LINE
  5
4E
330
1E
100
AcDbEntity
  8
0
100
AcDbLine
 10
12.66458514845369
 20
143.351
 30
0.0
 11
22.9365851484537
 21
157.0999999999999
 31
0.0
  0
LINE
  5
4F
330
1E
100
AcDbEntity
  8
0
100
AcDbLine
 10
52.2135851484537
 20
145.899
 30
0.0
 11
62.2027851484537
 21
151.741
 31
0.0
  0
LINE
  5
50
330
1E
100
AcDbEntity
  8
0
100
AcDbLine
 10
62.2027851484537
 20
151.741
 30
0.0
 11
73.1540851484537
 21
155.482
 31
0.0
  0
LINE
  5
51
330
1E
100
AcDbEntity
  8
0
100
AcDbLine
 10
73.1540851484537
 20
155.482
 30
0.0
 11
84.63028514845371
 21
156.9729999999999
 31
0.0
  0
LINE
  5
52
330
1E
100
AcDbEntity
  8
0
100
AcDbLine
 10
22.9365851484537
 20
157.0999999999999
 30
0.0
 11
35.7355851484537
 21
168.5369999999999
 31
0.0
  0
LINE
  5
53
330
1E
100
AcDbEntity
  8
0
100
AcDbLine
 10
35.7355851484537
 20
168.5369999999999
 30
0.0
 11
50.5505851484537
 21
177.2009999999999
 31
0.0
  0
LINE
  5
54
330
1E
100
AcDbEntity
  8
0
100
AcDbLine
 10
50.5505851484537
 20
177.2009999999999
 30
0.0
 11
66.7922851484537
 21
182.75
 31
0.0
  0
LINE
  5
55
330
1E
100
AcDbEntity
  8
0
100
AcDbLine
 10
84.63028514845371
 20
156.9729999999999
 30
0.0
 11
96.17398514845371
 21
156.1549999999999
 31
0.0
  0
LINE
  5
56
330
1E
100
AcDbEntity
  8
0
100
AcDbLine
 10
96.17398514845371
 20
156.1549999999999
 30
0.0
 11
107.324785148454
 21
153.058
 31
0.0
  0
LINE
  5
57
330
1E
100
AcDbEntity
  8
0
100
AcDbLine
 10
107.324785148454
 20
153.058
 30
0.0
 11
117.638485148454
 21
147.8099999999999
 31
0.0
  0
LINE
  5
58
330
1E
100
AcDbEntity
  8
0
100
AcDbLine
 10
66.7922851484537
 20
182.75
 30
0.0
 11
83.81268514845379
 21
184.962
 31
0.0
  0
LINE
  5
59
330
1E
100
AcDbEntity
  8
0
100
AcDbLine
 10
83.81268514845379
 20
184.962
 30
0.0
 11
100.9329851484539
 21
183.748
 31
0.0
  0
LINE
  5
5A
330
1E
100
AcDbEntity
  8
0
100
AcDbLine
 10
100.9329851484539
 20
183.748
 30
0.0
 11
117.470885148454
 21
179.1559999999999
 31
0.0
  0
LINE
  5
5B
330
1E
100
AcDbEntity
  8
0
100
AcDbLine
 10
117.470885148454
 20
179.1559999999999
 30
0.0
 11
132.766985148454
 21
171.37
 31
0.0
  0
LINE
  5
5C
330
1E
100
AcDbEntity
  8
0
100
AcDbLine
 10
117.638485148454
 20
147.8099999999999
 30
0.0
 11
126.7037851484539
 21
140.616
 31
0.0
  0
LINE
  5
5D
330
1E
100
AcDbEntity
  8
0
100
AcDbLine
 10
126.7037851484539
 20
140.616
 30
0.0
 11
134.159085148454
 21
131.7649999999999
 31
0.0
  0
LINE
  5
5E
330
1E
100
AcDbEntity
  8
0
100
AcDbLine
 10
168.977133862018
 20
5.03799999999998
 30
0.0
 11
178.065780423768
 21
5.03799999999998
 31
0.0
  0
LINE
  5
5F
330
1E
100
AcDbEntity
  8
0
100
AcDbLine
 10
184.1426841845839
 20
5.03799999999998
 30
0.0
 11
186.28257626957
 21
5.03799999999998
 31
0.0
  0
LINE
  5
60
330
1E
100
AcDbEntity
  8
0
100
AcDbLine
 10
178.097313317895
 20
5.03799999999998
 30
0.0
 11
184.1426841845839
 21
5.03799999999998
 31
0.0
  0
LINE
  5
61
330
1E
100
AcDbEntity
  8
0
100
AcDbLine
 10
178.065780423768
 20
5.03799999999998
 30
0.0
 11
184.1426841845839
 21
5.03799999999998
 31
0.0
  0
LINE
  5
62
330
1E
100
AcDbEntity
  8
0
100
AcDbLine
 10
132.4225421123049
 20
5.03799999999998
 30
0.0
 11
138.4993898731399
 21
5.03799999999998
 31
0.0
  0
LINE
  5
63
330
1E
100
AcDbEntity
  8
0
100
AcDbLine
 10
130.282594026628
 20
5.03799999999998
 30
0.0
 11
130.282594026628
 21
0.0379999999999789
 31
0.0
  0
LINE
  5
64
330
1E
100
AcDbEntity
  8
0
100
AcDbLine
 10
130.282594026628
 20
5.03799999999998
 30
0.0
 11
132.405420588829
 21
5.03799999999998
 31
0.0
  0
LINE
  5
65
330
1E
100
AcDbEntity
  8
0
100
AcDbLine
 10
132.405420588829
 20
5.03799999999998
 30
0.0
 11
138.467856979013
 21
5.03799999999998
 31
0.0
  0
LINE
  5
66
330
1E
100
AcDbEntity
  8
0
100
AcDbLine
 10
138.4993898731399
 20
5.03799999999998
 30
0.0
 11
147.5880364348899
 21
5.03799999999998
 31
0.0
  0
LINE
  5
67
330
1E
100
AcDbEntity
  8
0
100
AcDbLine
 10
138.4993898731399
 20
5.03799999999998
 30
0.0
 11
144.2825851484539
 21
5.03799999999998
 31
0.0
  0
LINE
  5
68
330
1E
100
AcDbEntity
  8
0
100
AcDbLine
 10
138.467856979013
 20
5.03799999999998
 30
0.0
 11
147.546836656885
 21
5.03799999999998
 31
0.0
  0
LINE
  5
69
330
1E
100
AcDbEntity
  8
0
100
AcDbLine
 10
132.766985148454
 20
171.37
 30
0.0
 11
146.2114851484539
 21
160.702
 31
0.0
  0
LINE
  5
6A
330
1E
100
AcDbEntity
  8
0
100
AcDbLine
 10
134.159085148454
 20
131.7649999999999
 30
0.0
 11
139.7072851484539
 21
121.6089999999999
 31
0.0
  0
LINE
  5
6B
330
1E
100
AcDbEntity
  8
0
100
AcDbLine
 10
139.7072851484539
 20
121.6089999999999
 30
0.0
 11
143.127285148454
 21
110.5529999999999
 31
0.0
  0
LINE
  5
6C
330
1E
100
AcDbEntity
  8
0
100
AcDbLine
 10
143.127285148454
 20
110.5529999999999
 30
0.0
 11
144.2825851484539
 21
99.038
 31
0.0
  0
LINE
  5
6D
330
1E
100
AcDbEntity
  8
0
100
AcDbLine
 10
144.2825851484539
 20
99.038
 30
0.0
 11
144.2825851484539
 21
5.03799999999998
 31
0.0
  0
LINE
  5
6E
330
1E
100
AcDbEntity
  8
0
100
AcDbLine
 10
158.26029222844
 20
5.03799999999998
 30
0.0
 11
168.977133862018
 21
5.03799999999998
 31
0.0
  0
LINE
  5
6F
330
1E
100
AcDbEntity
  8
0
100
AcDbLine
 10
163.452286636617
 20
5.03799999999998
 30
0.0
 11
168.977133862018
 21
5.03799999999998
 31
0.0
  0
LINE
  5
70
330
1E
100
AcDbEntity
  8
0
100
AcDbLine
 10
153.116984039714
 20
5.03799999999998
 30
0.0
 11
153.77355414483
 21
5.414010248557349
 31
0.0
  0
LINE
  5
71
330
1E
100
AcDbEntity
  8
0
100
AcDbLine
 10
147.5880364348899
 20
5.03799999999998
 30
0.0
 11
153.116984039714
 21
5.03799999999998
 31
0.0
  0
LINE
  5
72
330
1E
100
AcDbEntity
  8
0
100
AcDbLine
 10
147.546836656885
 20
5.03799999999998
 30
0.0
 11
158.26029222844
 21
5.03799999999998
 31
0.0
  0
LINE
  5
73
330
1E
100
AcDbEntity
  8
0
100
AcDbLine
 10
175.970557237021
 20
5.03800014852998
 30
0.0
 11
176.5106142256779
 21
5.03800019816298
 31
0.0
  0
LINE
  5
74
330
1E
100
AcDbEntity
  8
0
100
AcDbLine
 10
176.5106142256779
 20
5.03800019816298
 30
0.0
 11
177.320319944548
 21
5.038000507580981
 31
0.0
  0
LINE
  5
75
330
1E
100
AcDbEntity
  8
0
100
AcDbLine
 10
177.320319944548
 20
5.038000507580981
 30
0.0
 11
178.2766126786869
 21
5.03800068020298
 31
0.0
  0
LINE
  5
76
330
1E
100
AcDbEntity
  8
0
100
AcDbLine
 10
178.2766126786869
 20
5.03800068020298
 30
0.0
 11
179.233814096878
 21
5.03800087492898
 31
0.0
  0
LINE
  5
77
330
1E
100
AcDbEntity
  8
0
100
AcDbLine
 10
180.04610525042
 20
5.038000651712979
 30
0.0
 11
180.5900455204589
 21
5.03800079658498
 31
0.0
  0
LINE
  5
78
330
1E
100
AcDbEntity
  8
0
100
AcDbLine
 10
175.782591489151
 20
5.03800068657298
 30
0.0
 11
175.970557237021
 21
5.03800014852998
 31
0.0
  0
LINE
  5
79
330
1E
100
AcDbEntity
  8
0
100
AcDbLine
 10
175.782591489151
 20
5.03800068657298
 30
0.0
 11
175.782591489342
 21
11.288
 31
0.0
  0
LINE
  5
7A
330
1E
100
AcDbEntity
  8
0
100
AcDbLine
 10
153.77355414483
 20
5.414010248557349
 30
0.0
 11
154.6223993880549
 21
5.79758740230618
 31
0.0
  0
LINE
  5
7B
330
1E
100
AcDbEntity
  8
0
100
AcDbLine
 10
155.92193917796
 20
5.31746767196329
 30
0.0
 11
156.0448234169349
 21
5.238477472454719
 31
0.0
  0
LINE
  5
7C
330
1E
100
AcDbEntity
  8
0
100
AcDbLine
 10
155.7990168343409
 20
5.388966657879739
 30
0.0
 11
155.92193917796
 21
5.31746767196329
 31
0.0
  0
LINE
  5
7D
330
1E
100
AcDbEntity
  8
0
100
AcDbLine
 10
155.676166249179
 20
5.45291079664134
 30
0.0
 11
155.7990168343409
 21
5.388966657879739
 31
0.0
  0
LINE
  5
7E
330
1E
100
AcDbEntity
  8
0
100
AcDbLine
 10
155.5534772534139
 20
5.50925536261325
 30
0.0
 11
155.676166249179
 21
5.45291079664134
 31
0.0
  0
LINE
  5
7F
330
1E
100
AcDbEntity
  8
0
100
AcDbLine
 10
156.0448234169349
 20
5.238477472454719
 30
0.0
 11
156.435885807088
 21
5.047003831219589
 31
0.0
  0
LINE
  5
80
330
1E
100
AcDbEntity
  8
0
100
AcDbLine
 10
160.2262049463089
 20
5.096429350981489
 30
0.0
 11
160.5169619989619
 21
5.238477472454719
 31
0.0
  0
LINE
  5
81
330
1E
100
AcDbEntity
  8
0
100
AcDbLine
 10
160.5169619989619
 20
5.238477472454719
 30
0.0
 11
160.640217681943
 21
5.31746767196329
 31
0.0
  0
LINE
  5
82
330
1E
100
AcDbEntity
  8
0
100
AcDbLine
 10
160.640217681943
 20
5.31746767196329
 30
0.0
 11
160.763515260256
 21
5.388966657879739
 31
0.0
  0
LINE
  5
83
330
1E
100
AcDbEntity
  8
0
100
AcDbLine
 10
162.795531284247
 20
5.414010248557349
 30
0.0
 11
163.452286636617
 21
5.03799999999998
 31
0.0
  0
LINE
  5
84
330
1E
100
AcDbEntity
  8
0
100
AcDbLine
 10
160.763515260256
 20
5.388966657879739
 30
0.0
 11
160.8867445970699
 21
5.45291079664134
 31
0.0
  0
LINE
  5
85
330
1E
100
AcDbEntity
  8
0
100
AcDbLine
 10
160.8867445970699
 20
5.45291079664134
 30
0.0
 11
161.009815523382
 21
5.50925536261325
 31
0.0
  0
LINE
  5
86
330
1E
100
AcDbEntity
  8
0
100
AcDbLine
 10
160.125044637373
 20
5.047003831219589
 30
0.0
 11
160.5169619989619
 21
5.238477472454719
 31
0.0
  0
LINE
  5
87
330
1E
100
AcDbEntity
  8
0
100
AcDbLine
 10
160.125044637373
 20
5.047003831219589
 30
0.0
 11
160.2262049463089
 21
5.096429350981489
 31
0.0
  0
LINE
  5
88
330
1E
100
AcDbEntity
  8
0
100
AcDbLine
 10
153.5905475308419
 20
31.32070713785939
 30
0.0
 11
153.6526245256899
 21
27.7101094952586
 31
0.0
  0
LINE
  5
89
330
1E
100
AcDbEntity
  8
0
100
AcDbLine
 10
153.5902359390019
 20
34.8967640031296
 30
0.0
 11
153.6516702516769
 21
38.4340785448826
 31
0.0
  0
LINE
  5
8A
330
1E
100
AcDbEntity
  8
0
100
AcDbLine
 10
153.5902359390019
 20
34.8967640031296
 30
0.0
 11
153.5905475308419
 21
31.32070713785939
 31
0.0
  0
LINE
  5
8B
330
1E
100
AcDbEntity
  8
0
100
AcDbLine
 10
153.776355289965
 20
24.0685234978956
 30
0.0
 11
153.9615584216849
 21
20.4002195751335
 31
0.0
  0
LINE
  5
8C
330
1E
100
AcDbEntity
  8
0
100
AcDbLine
 10
153.6526245256899
 20
27.7101094952586
 30
0.0
 11
153.776355289965
 21
24.0685234978956
 31
0.0
  0
LINE
  5
8D
330
1E
100
AcDbEntity
  8
0
100
AcDbLine
 10
153.6516702516769
 20
38.4340785448826
 30
0.0
 11
153.7747106439979
 21
41.9282177439877
 31
0.0
  0
LINE
  5
8E
330
1E
100
AcDbEntity
  8
0
100
AcDbLine
 10
153.7747106439979
 20
41.9282177439877
 30
0.0
 11
153.9593298983369
 21
45.3760754133887
 31
0.0
  0
LINE
  5
8F
330
1E
100
AcDbEntity
  8
0
100
AcDbLine
 10
154.2081758283399
 20
16.7096023222263
 30
0.0
 11
154.515743926683
 21
13.0003565012828
 31
0.0
  0
LINE
  5
90
330
1E
100
AcDbEntity
  8
0
100
AcDbLine
 10
153.9615584216849
 20
20.4002195751335
 30
0.0
 11
154.2081758283399
 21
16.7096023222263
 31
0.0
  0
LINE
  5
91
330
1E
100
AcDbEntity
  8
0
100
AcDbLine
 10
153.9593298983369
 20
45.3760754133887
 30
0.0
 11
154.2052890411949
 21
48.7736539158414
 31
0.0
  0
LINE
  5
92
330
1E
100
AcDbEntity
  8
0
100
AcDbLine
 10
154.2052890411949
 20
48.7736539158414
 30
0.0
 11
154.5121573750519
 21
52.11586718621251
 31
0.0
  0
LINE
  5
93
330
1E
100
AcDbEntity
  8
0
100
AcDbLine
 10
154.6223993880549
 20
5.79758740230618
 30
0.0
 11
155.256582728221
 21
6.01439096523893
 31
0.0
  0
LINE
  5
94
330
1E
100
AcDbEntity
  8
0
100
AcDbLine
 10
155.282712415122
 20
5.785631881344619
 30
0.0
 11
155.3420829660429
 21
5.64052114922765
 31
0.0
  0
LINE
  5
95
330
1E
100
AcDbEntity
  8
0
100
AcDbLine
 10
154.883942929494
 20
9.276762202338529
 30
0.0
 11
155.282712415122
 21
5.785631881344619
 31
0.0
  0
LINE
  5
96
330
1E
100
AcDbEntity
  8
0
100
AcDbLine
 10
154.515743926683
 20
13.0003565012828
 30
0.0
 11
154.883942929494
 21
9.276762202338529
 31
0.0
  0
LINE
  5
97
330
1E
100
AcDbEntity
  8
0
100
AcDbLine
 10
154.5121573750519
 20
52.11586718621251
 30
0.0
 11
154.879860195438
 21
55.40131800411519
 31
0.0
  0
LINE
  5
98
330
1E
100
AcDbEntity
  8
0
100
AcDbLine
 10
154.879860195438
 20
55.40131800411519
 30
0.0
 11
155.307745955082
 21
58.6244855135699
 31
0.0
  0
LINE
  5
99
330
1E
100
AcDbEntity
  8
0
100
AcDbLine
 10
157.7815048717949
 20
60.7012889882614
 30
0.0
 11
158.266083366837
 21
60.68134137431179
 31
0.0
  0
LINE
  5
9A
330
1E
100
AcDbEntity
  8
0
100
AcDbLine
 10
157.5829899697569
 20
60.7094601219756
 30
0.0
 11
158.266083366837
 21
60.68134137431179
 31
0.0
  0
LINE
  5
9B
330
1E
100
AcDbEntity
  8
0
100
AcDbLine
 10
157.5829899697569
 20
60.7094601219756
 30
0.0
 11
157.7815048717949
 21
60.7012889882614
 31
0.0
  0
LINE
  5
9C
330
1E
100
AcDbEntity
  8
0
100
AcDbLine
 10
158.750764564473
 20
60.7012889882614
 30
0.0
 11
158.9493215365369
 21
60.7094601219756
 31
0.0
  0
LINE
  5
9D
330
1E
100
AcDbEntity
  8
0
100
AcDbLine
 10
158.266083366837
 20
60.68134137431179
 30
0.0
 11
158.9493215365369
 21
60.7094601219756
 31
0.0
  0
LINE
  5
9E
330
1E
100
AcDbEntity
  8
0
100
AcDbLine
 10
158.266083366837
 20
60.68134137431179
 30
0.0
 11
158.750764564473
 21
60.7012889882614
 31
0.0
  0
LINE
  5
9F
330
1E
100
AcDbEntity
  8
0
100
AcDbLine
 10
156.20784942582
 20
61.0136272498839
 30
0.0
 11
156.4212628149819
 21
60.9217411520267
 31
0.0
  0
LINE
  5
A0
330
1E
100
AcDbEntity
  8
0
100
AcDbLine
 10
156.031065423271
 20
61.0897414343116
 30
0.0
 11
156.4212628149819
 21
60.9217411520267
 31
0.0
  0
LINE
  5
A1
330
1E
100
AcDbEntity
  8
0
100
AcDbLine
 10
156.031065423271
 20
61.0897414343116
 30
0.0
 11
156.20784942582
 21
61.0136272498839
 31
0.0
  0
LINE
  5
A2
330
1E
100
AcDbEntity
  8
0
100
AcDbLine
 10
157.318762697315
 20
60.7438941364558
 30
0.0
 11
157.5829899697569
 21
60.7094601219756
 31
0.0
  0
LINE
  5
A3
330
1E
100
AcDbEntity
  8
0
100
AcDbLine
 10
159.2137260964819
 20
60.7438941364558
 30
0.0
 11
159.5806969950519
 21
60.7916797538729
 31
0.0
  0
LINE
  5
A4
330
1E
100
AcDbEntity
  8
0
100
AcDbLine
 10
156.952037828517
 20
60.7916797538729
 30
0.0
 11
157.5829899697569
 21
60.7094601219756
 31
0.0
  0
LINE
  5
A5
330
1E
100
AcDbEntity
  8
0
100
AcDbLine
 10
156.952037828517
 20
60.7916797538729
 30
0.0
 11
157.318762697315
 21
60.7438941364558
 31
0.0
  0
LINE
  5
A6
330
1E
100
AcDbEntity
  8
0
100
AcDbLine
 10
158.9493215365369
 20
60.7094601219756
 30
0.0
 11
159.5806969950519
 21
60.7916797538729
 31
0.0
  0
LINE
  5
A7
330
1E
100
AcDbEntity
  8
0
100
AcDbLine
 10
158.9493215365369
 20
60.7094601219756
 30
0.0
 11
159.2137260964819
 21
60.7438941364558
 31
0.0
  0
LINE
  5
A8
330
1E
100
AcDbEntity
  8
0
100
AcDbLine
 10
160.326028120076
 20
61.0136272498839
 30
0.0
 11
160.503204005298
 21
61.0897414343116
 31
0.0
  0
LINE
  5
A9
330
1E
100
AcDbEntity
  8
0
100
AcDbLine
 10
160.112141644722
 20
60.9217411520267
 30
0.0
 11
160.503204005298
 21
61.0897414343116
 31
0.0
  0
LINE
  5
AA
330
1E
100
AcDbEntity
  8
0
100
AcDbLine
 10
160.112141644722
 20
60.9217411520267
 30
0.0
 11
160.326028120076
 21
61.0136272498839
 31
0.0
  0
LINE
  5
AB
330
1E
100
AcDbEntity
  8
0
100
AcDbLine
 10
155.3420829660429
 20
5.64052114922765
 30
0.0
 11
155.5534772534139
 21
5.50925536261325
 31
0.0
  0
LINE
  5
AC
330
1E
100
AcDbEntity
  8
0
100
AcDbLine
 10
155.307745955082
 20
58.6244855135699
 30
0.0
 11
155.796075205243
 21
61.7886310216405
 31
0.0
  0
LINE
  5
AD
330
1E
100
AcDbEntity
  8
0
100
AcDbLine
 10
155.796075205243
 20
61.7886310216405
 30
0.0
 11
155.822980224132
 21
61.8646825135006
 31
0.0
  0
LINE
  5
AE
330
1E
100
AcDbEntity
  8
0
100
AcDbLine
 10
155.796075205243
 20
61.7886310216405
 30
0.0
 11
155.820028490639
 21
61.8736087544719
 31
0.0
  0
LINE
  5
AF
330
1E
100
AcDbEntity
  8
0
100
AcDbLine
 10
155.796075205243
 20
61.7886310216405
 30
0.0
 11
155.815911273435
 21
61.8860594967117
 31
0.0
  0
LINE
  5
B0
330
1E
100
AcDbEntity
  8
0
100
AcDbLine
 10
155.796075205243
 20
61.7886310216405
 30
0.0
 11
155.8229803712039
 21
61.8646820687455
 31
0.0
  0
LINE
  5
B1
330
1E
100
AcDbEntity
  8
0
100
AcDbLine
 10
155.973689253093
 20
61.1930934620761
 30
0.0
 11
156.031065423271
 21
61.0897414343116
 31
0.0
  0
LINE
  5
B2
330
1E
100
AcDbEntity
  8
0
100
AcDbLine
 10
160.7128622478399
 20
61.8653124227651
 30
0.0
 11
160.7397936377469
 21
61.7886310216405
 31
0.0
  0
LINE
  5
B3
330
1E
100
AcDbEntity
  8
0
100
AcDbLine
 10
160.560807798663
 20
61.1930934620761
 30
0.0
 11
160.698169111129
 21
61.43981420997249
 31
0.0
  0
LINE
  5
B4
330
1E
100
AcDbEntity
  8
0
100
AcDbLine
 10
155.8368706524929
 20
61.43981420997249
 30
0.0
 11
156.031065423271
 21
61.0897414343116
 31
0.0
  0
LINE
  5
B5
330
1E
100
AcDbEntity
  8
0
100
AcDbLine
 10
155.8368706524929
 20
61.43981420997249
 30
0.0
 11
155.973689253093
 21
61.1930934620761
 31
0.0
  0
LINE
  5
B6
330
1E
100
AcDbEntity
  8
0
100
AcDbLine
 10
160.503204005298
 20
61.0897414343116
 30
0.0
 11
160.698169111129
 21
61.43981420997249
 31
0.0
  0
LINE
  5
B7
330
1E
100
AcDbEntity
  8
0
100
AcDbLine
 10
160.503204005298
 20
61.0897414343116
 30
0.0
 11
160.560807798663
 21
61.1930934620761
 31
0.0
  0
LINE
  5
B8
330
1E
100
AcDbEntity
  8
0
100
AcDbLine
 10
160.7397936377469
 20
61.7886310216405
 30
0.0
 11
161.23130407691
 21
58.6244855135699
 31
0.0
  0
LINE
  5
B9
330
1E
100
AcDbEntity
  8
0
100
AcDbLine
 10
155.815911273435
 20
61.8860594967117
 30
0.0
 11
155.958060858261
 21
62.3341123101116
 31
0.0
  0
LINE
  5
BA
330
1E
100
AcDbEntity
  8
0
100
AcDbLine
 10
155.963878367492
 20
62.34451393546989
 30
0.0
 11
156.002783642478
 21
62.46727365612921
 31
0.0
  0
LINE
  5
BB
330
1E
100
AcDbEntity
  8
0
100
AcDbLine
 10
155.973175953072
 20
62.36113788879911
 30
0.0
 11
156.002783642478
 21
62.46727365612921
 31
0.0
  0
LINE
  5
BC
330
1E
100
AcDbEntity
  8
0
100
AcDbLine
 10
155.958060858261
 20
62.3341123101116
 30
0.0
 11
156.002783642478
 21
62.46727365612921
 31
0.0
  0
LINE
  5
BD
330
1E
100
AcDbEntity
  8
0
100
AcDbLine
 10
156.002783642478
 20
62.46727365612921
 30
0.0
 11
156.229237572772
 21
62.8668507930165
 31
0.0
  0
LINE
  5
BE
330
1E
100
AcDbEntity
  8
0
100
AcDbLine
 10
156.229237572772
 20
62.8668507930165
 30
0.0
 11
156.634884440932
 21
63.3088081449978
 31
0.0
  0
LINE
  5
BF
330
1E
100
AcDbEntity
  8
0
100
AcDbLine
 10
156.634884440932
 20
63.3088081449978
 30
0.0
 11
156.984700873728
 21
63.5629789219861
 31
0.0
  0
LINE
  5
C0
330
1E
100
AcDbEntity
  8
0
100
AcDbLine
 10
156.984700873728
 20
63.5629789219861
 30
0.0
 11
157.286124576704
 21
63.69614032710771
 31
0.0
  0
LINE
  5
C1
330
1E
100
AcDbEntity
  8
0
100
AcDbLine
 10
157.286124576704
 20
63.69614032710771
 30
0.0
 11
157.5914615883879
 21
63.8266005221039
 31
0.0
  0
LINE
  5
C2
330
1E
100
AcDbEntity
  8
0
100
AcDbLine
 10
157.5914615883879
 20
63.8266005221039
 30
0.0
 11
157.901997262464
 21
63.887887866723
 31
0.0
  0
LINE
  5
C3
330
1E
100
AcDbEntity
  8
0
100
AcDbLine
 10
159.250361953907
 20
63.69614032710771
 30
0.0
 11
159.551100060004
 21
63.5629789219861
 31
0.0
  0
LINE
  5
C4
330
1E
100
AcDbEntity
  8
0
100
AcDbLine
 10
157.901997262464
 20
63.887887866723
 30
0.0
 11
158.268169549486
 21
63.90940942129329
 31
0.0
  0
LINE
  5
C5
330
1E
100
AcDbEntity
  8
0
100
AcDbLine
 10
158.634231030296
 20
63.887887866723
 30
0.0
 11
158.9444511593979
 21
63.8266005221039
 31
0.0
  0
LINE
  5
C6
330
1E
100
AcDbEntity
  8
0
100
AcDbLine
 10
158.268169549486
 20
63.90940942129329
 30
0.0
 11
158.634231030296
 21
63.887887866723
 31
0.0
  0
LINE
  5
C7
330
1E
100
AcDbEntity
  8
0
100
AcDbLine
 10
158.9444511593979
 20
63.8266005221039
 30
0.0
 11
159.250361953907
 21
63.69614032710771
 31
0.0
  0
LINE
  5
C8
330
1E
100
AcDbEntity
  8
0
100
AcDbLine
 10
159.551100060004
 20
63.5629789219861
 30
0.0
 11
159.901283405261
 21
63.3088081449978
 31
0.0
  0
LINE
  5
C9
330
1E
100
AcDbEntity
  8
0
100
AcDbLine
 10
159.901283405261
 20
63.3088081449978
 30
0.0
 11
160.3066962799389
 21
62.8668507930165
 31
0.0
  0
LINE
  5
CA
330
1E
100
AcDbEntity
  8
0
100
AcDbLine
 10
160.3066962799389
 20
62.8668507930165
 30
0.0
 11
160.533422205956
 21
62.46727365612921
 31
0.0
  0
LINE
  5
CB
330
1E
100
AcDbEntity
  8
0
100
AcDbLine
 10
160.533422205956
 20
62.46727365612921
 30
0.0
 11
160.5774593935969
 21
62.3341123101116
 31
0.0
  0
LINE
  5
CC
330
1E
100
AcDbEntity
  8
0
100
AcDbLine
 10
160.533422205956
 20
62.46727365612921
 30
0.0
 11
160.5734023616899
 21
62.34135984237251
 31
0.0
  0
LINE
  5
CD
330
1E
100
AcDbEntity
  8
0
100
AcDbLine
 10
160.533422205956
 20
62.46727365612921
 30
0.0
 11
160.563850430096
 21
62.35842353178259
 31
0.0
  0
LINE
  5
CE
330
1E
100
AcDbEntity
  8
0
100
AcDbLine
 10
160.71586973731
 20
61.87426783986829
 30
0.0
 11
160.7397936377469
 21
61.7886310216405
 31
0.0
  0
LINE
  5
CF
330
1E
100
AcDbEntity
  8
0
100
AcDbLine
 10
160.719829718558
 20
61.8860594967117
 30
0.0
 11
160.7397936377469
 21
61.7886310216405
 31
0.0
  0
LINE
  5
D0
330
1E
100
AcDbEntity
  8
0
100
AcDbLine
 10
160.5774593935969
 20
62.3341123101116
 30
0.0
 11
160.719829718558
 21
61.8860594967117
 31
0.0
  0
LINE
  5
D1
330
1E
100
AcDbEntity
  8
0
100
AcDbLine
 10
160.712862399463
 20
61.8653128742541
 30
0.0
 11
160.7397936377469
 21
61.7886310216405
 31
0.0
  0
LINE
  5
D2
330
1E
100
AcDbEntity
  8
0
100
AcDbLine
 10
161.23130407691
 20
58.6244855135699
 30
0.0
 11
161.662218044967
 21
55.40131800411519
 31
0.0
  0
LINE
  5
D3
330
1E
100
AcDbEntity
  8
0
100
AcDbLine
 10
161.2221310485709
 20
5.640510991394759
 30
0.0
 11
161.2824907335449
 21
5.785696702353529
 31
0.0
  0
LINE
  5
D4
330
1E
100
AcDbEntity
  8
0
100
AcDbLine
 10
161.308724479608
 20
6.015581278832769
 30
0.0
 11
161.946497065816
 21
5.79758740230617
 31
0.0
  0
LINE
  5
D5
330
1E
100
AcDbEntity
  8
0
100
AcDbLine
 10
161.946497065816
 20
5.79758740230617
 30
0.0
 11
162.795531284247
 21
5.414010248557349
 31
0.0
  0
LINE
  5
D6
330
1E
100
AcDbEntity
  8
0
100
AcDbLine
 10
161.662218044967
 20
55.40131800411519
 30
0.0
 11
162.0327749905019
 21
52.11586718621251
 31
0.0
  0
LINE
  5
D7
330
1E
100
AcDbEntity
  8
0
100
AcDbLine
 10
162.0327749905019
 20
52.11586718621251
 30
0.0
 11
162.342326461198
 21
48.7736539158414
 31
0.0
  0
LINE
  5
D8
330
1E
100
AcDbEntity
  8
0
100
AcDbLine
 10
162.342326461198
 20
48.7736539158414
 30
0.0
 11
162.5907871615759
 21
45.3760754133887
 31
0.0
  0
LINE
  5
D9
330
1E
100
AcDbEntity
  8
0
100
AcDbLine
 10
162.5907871615759
 20
45.3760754133887
 30
0.0
 11
162.7777277894269
 21
41.9282177439877
 31
0.0
  0
LINE
  5
DA
330
1E
100
AcDbEntity
  8
0
100
AcDbLine
 10
162.7777277894269
 20
41.9282177439877
 30
0.0
 11
162.902907318404
 21
38.4340785448826
 31
0.0
  0
LINE
  5
DB
330
1E
100
AcDbEntity
  8
0
100
AcDbLine
 10
162.902907318404
 20
38.4340785448826
 30
0.0
 11
162.9662929661519
 21
34.8967640031296
 31
0.0
  0
LINE
  5
DC
330
1E
100
AcDbEntity
  8
0
100
AcDbLine
 10
162.9662929661519
 20
34.8967640031296
 30
0.0
 11
162.9677445576309
 21
31.32070713785939
 31
0.0
  0
LINE
  5
DD
330
1E
100
AcDbEntity
  8
0
100
AcDbLine
 10
162.9072415913439
 20
27.7101094952586
 30
0.0
 11
162.9677445576309
 21
31.32070713785939
 31
0.0
  0
LINE
  5
DE
330
1E
100
AcDbEntity
  8
0
100
AcDbLine
 10
162.784892433644
 20
24.0685234978956
 30
0.0
 11
162.9072415913439
 21
27.7101094952586
 31
0.0
  0
LINE
  5
DF
330
1E
100
AcDbEntity
  8
0
100
AcDbLine
 10
162.600875682432
 20
20.4002195751335
 30
0.0
 11
162.784892433644
 21
24.0685234978956
 31
0.0
  0
LINE
  5
E0
330
1E
100
AcDbEntity
  8
0
100
AcDbLine
 10
162.35525324516
 20
16.7096023222263
 30
0.0
 11
162.600875682432
 21
20.4002195751335
 31
0.0
  0
LINE
  5
E1
330
1E
100
AcDbEntity
  8
0
100
AcDbLine
 10
162.0484815382909
 20
13.0003565012828
 30
0.0
 11
162.35525324516
 21
16.7096023222263
 31
0.0
  0
LINE
  5
E2
330
1E
100
AcDbEntity
  8
0
100
AcDbLine
 10
161.680880774401
 20
9.276762202338529
 30
0.0
 11
162.0484815382909
 21
13.0003565012828
 31
0.0
  0
LINE
  5
E3
330
1E
100
AcDbEntity
  8
0
100
AcDbLine
 10
161.2824907335449
 20
5.785696702353529
 30
0.0
 11
161.680880774401
 21
9.276762202338529
 31
0.0
  0
LINE
  5
E4
330
1E
100
AcDbEntity
  8
0
100
AcDbLine
 10
161.009815523382
 20
5.50925536261325
 30
0.0
 11
161.2221310485709
 21
5.640510991394759
 31
0.0
  0
LINE
  5
E5
330
1E
100
AcDbEntity
  8
0
100
AcDbLine
 10
178.869178660587
 20
15.9074
 30
0.0
 11
180.7785988175019
 21
16.288
 31
0.0
  0
LINE
  5
E6
330
1E
100
AcDbEntity
  8
0
100
AcDbLine
 10
177.247057774943
 20
14.82353999999999
 30
0.0
 11
178.869178660587
 21
15.9074
 31
0.0
  0
LINE
  5
E7
330
1E
100
AcDbEntity
  8
0
100
AcDbLine
 10
176.170890504519
 20
13.21987999999999
 30
0.0
 11
177.247057774943
 21
14.82353999999999
 31
0.0
  0
LINE
  5
E8
330
1E
100
AcDbEntity
  8
0
100
AcDbLine
 10
175.782591489342
 20
11.288
 30
0.0
 11
176.170890504519
 21
13.21987999999999
 31
0.0
  0
LINE
  5
E9
330
1E
100
AcDbEntity
  8
0
100
AcDbLine
 10
179.233814096878
 20
5.03800087492898
 30
0.0
 11
180.04610525042
 21
5.038000651712979
 31
0.0
  0
LINE
  5
EF
330
1E
100
AcDbEntity
  8
0
100
AcDbLine
 10
180.5900455204589
 20
5.03800079658498
 30
0.0
 11
180.7825788070399
 21
5.03800096718098
 31
0.0
  0
LINE
  5
F0
330
1E
100
AcDbEntity
  8
0
100
AcDbLine
 10
175.782591489151
 20
5.03800068657298
 30
0.0
 11
175.782591489342
 21
11.288
 31
0.0
  0
LINE
  5
F1
330
1E
100
AcDbEntity
  8
0
100
AcDbLine
 10
180.7825788070399
 20
5.03800096718098
 30
0.0
 11
180.782578807247
 21
11.288
 31
0.0
  0
LINE
  5
F3
330
1E
100
AcDbEntity
  8
0
100
AcDbLine
 10
180.7825788070399
 20
5.03800096718098
 30
0.0
 11
180.782578807247
 21
11.288
 31
0.0
  0
LINE
  5
FA
330
1E
100
AcDbEntity
  8
0
100
AcDbLine
 10
180.784568802143
 20
11.28551
 30
0.0
 11
187.034552949507
 21
11.29048999999999
 31
0.0
  0
LINE
  5
FD
330
1E
100
AcDbEntity
  8
0
100
AcDbLine
 10
180.780588812621
 20
16.28549999999999
 30
0.0
 11
187.0305729599859
 21
16.2905
 31
0.0
  0
LINE
  5
102
330
1E
100
AcDbEntity
  8
0
100
AcDbLine
 10
146.2114851484539
 20
160.702
 30
0.0
 11
157.2684351484539
 21
147.5749999999999
 31
0.0
  0
LINE
  5
103
330
1E
100
AcDbEntity
  8
0
100
AcDbLine
 10
157.2684351484539
 20
147.5749999999999
 30
0.0
 11
165.496985148454
 21
132.512
 31
0.0
  0
LINE
  5
104
330
1E
100
AcDbEntity
  8
0
100
AcDbLine
 10
165.496985148454
 20
132.512
 30
0.0
 11
170.569085148454
 21
116.1159999999999
 31
0.0
  0
LINE
  5
105
330
1E
100
AcDbEntity
  8
0
100
AcDbLine
 10
170.569085148454
 20
116.1159999999999
 30
0.0
 11
172.282585148454
 21
99.038
 31
0.0
  0
LINE
  5
106
330
1E
100
AcDbEntity
  8
0
100
AcDbLine
 10
144.2825851484539
 20
5.03799999999998
 30
0.0
 11
144.2825851484539
 21
99.038
 31
0.0
  0
LINE
  5
107
330
1E
100
AcDbEntity
  8
0
100
AcDbLine
 10
172.282585148454
 20
5.03799999999998
 30
0.0
 11
172.282585148454
 21
99.038
 31
0.0
  0
LINE
  5
108
330
1E
100
AcDbEntity
  8
0
100
AcDbLine
 10
130.2825851484539
 20
5.03799999999998
 30
0.0
 11
130.2825851484539
 21
0.0379999999999789
 31
0.0
  0
LINE
  5
109
330
1E
100
AcDbEntity
  8
0
100
AcDbLine
 10
130.2825851484539
 20
0.0379999999999791
 30
0.0
 11
132.405420588829
 21
0.0379999999999789
 31
0.0
  0
LINE
  5
10A
330
1E
100
AcDbEntity
  8
0
100
AcDbLine
 10
130.2825851484539
 20
0.0379999999999791
 30
0.0
 11
130.2825851484539
 21
5.03799999999998
 31
0.0
  0
LINE
  5
10B
330
1E
100
AcDbEntity
  8
0
100
AcDbLine
 10
186.282585148454
 20
5.03799999999998
 30
0.0
 11
186.282585148454
 21
0.0379999999999757
 31
0.0
  0
LINE
  5
10C
330
1E
100
AcDbEntity
  8
0
100
AcDbLine
 10
186.28257626957
 20
5.03799999999998
 30
0.0
 11
186.28257626957
 21
0.0379999999999757
 31
0.0
  0
LINE
  5
10D
330
1E
100
AcDbEntity
  8
0
100
AcDbLine
 10
186.28257626957
 20
0.0379999999999756
 30
0.0
 11
186.28257626957
 21
5.03799999999998
 31
0.0
  0
LINE
  5
10E
330
1E
100
AcDbEntity
  8
0
100
AcDbLine
 10
187.032109245135
 20
11.48078999999999
 30
0.0
 11
187.034552949507
 21
11.29048999999999
 31
0.0
  0
LINE
  5
10F
330
1E
100
AcDbEntity
  8
0
100
AcDbLine
 10
187.034552949507
 20
11.29048999999999
 30
0.0
 11
187.036686655546
 21
11.48078999999999
 31
0.0
  0
LINE
  5
110
330
1E
100
AcDbEntity
  8
0
100
AcDbLine
 10
187.026591320512
 20
13.79049
 30
0.0
 11
187.027804401207
 21
12.83378
 31
0.0
  0
LINE
  5
111
330
1E
100
AcDbEntity
  8
0
100
AcDbLine
 10
187.027804401207
 20
12.83378
 30
0.0
 11
187.0297475221589
 21
12.02272
 31
0.0
  0
LINE
  5
112
330
1E
100
AcDbEntity
  8
0
100
AcDbLine
 10
187.0297475221589
 20
12.02272
 30
0.0
 11
187.032109245135
 21
11.48078999999999
 31
0.0
  0
LINE
  5
113
330
1E
100
AcDbEntity
  8
0
100
AcDbLine
 10
187.036686655546
 20
11.48078999999999
 30
0.0
 11
187.038188390761
 21
12.02272
 31
0.0
  0
LINE
  5
114
330
1E
100
AcDbEntity
  8
0
100
AcDbLine
 10
187.038188390761
 20
12.02272
 30
0.0
 11
187.038841497423
 21
12.83378
 31
0.0
  0
LINE
  5
115
330
1E
100
AcDbEntity
  8
0
100
AcDbLine
 10
187.038534580046
 20
13.79049
 30
0.0
 11
187.038841497423
 21
12.83378
 31
0.0
  0
LINE
  5
116
330
1E
100
AcDbEntity
  8
0
100
AcDbLine
 10
187.0373114993629
 20
14.7472
 30
0.0
 11
187.038534580046
 21
13.79049
 31
0.0
  0
LINE
  5
117
330
1E
100
AcDbEntity
  8
0
100
AcDbLine
 10
187.0353783943249
 20
15.5583
 30
0.0
 11
187.0373114993629
 21
14.7472
 31
0.0
  0
LINE
  5
118
330
1E
100
AcDbEntity
  8
0
100
AcDbLine
 10
187.0330066649909
 20
16.1002
 30
0.0
 11
187.0353783943249
 21
15.5583
 31
0.0
  0
LINE
  5
119
330
1E
100
AcDbEntity
  8
0
100
AcDbLine
 10
187.0305729599859
 20
16.2905
 30
0.0
 11
187.0330066649909
 21
16.1002
 31
0.0
  0
LINE
  5
11A
330
1E
100
AcDbEntity
  8
0
100
AcDbLine
 10
187.0284292577659
 20
16.1002
 30
0.0
 11
187.0305729599859
 21
16.2905
 31
0.0
  0
LINE
  5
11B
330
1E
100
AcDbEntity
  8
0
100
AcDbLine
 10
187.026927525736
 20
15.5583
 30
0.0
 11
187.0284292577659
 21
16.1002
 31
0.0
  0
LINE
  5
11C
330
1E
100
AcDbEntity
  8
0
100
AcDbLine
 10
187.026274403148
 20
14.7472
 30
0.0
 11
187.026591320512
 21
13.79049
 31
0.0
  0
LINE
  5
11D
330
1E
100
AcDbEntity
  8
0
100
AcDbLine
 10
187.026274403148
 20
14.7472
 30
0.0
 11
187.026927525736
 21
15.5583
 31
0.0
  0
LINE
  5
11E
330
1E
100
AcDbEntity
  8
0
100
AcDbLine
 10
186.282585148454
 20
0.0379999999999756
 30
0.0
 11
186.282585148454
 21
5.03799999999998
 31
0.0
  0
ENDSEC
  0
SECTION
  2
OBJECTS
  0
DICTIONARY
  5
C
330
0
100
AcDbDictionary
  3
ACAD_GROUP
350
D
  3
ACAD_LAYOUT
350
19
  3
ACAD_MLINESTYLE
350
16
  3
ACAD_PLOTSETTINGS
350
18
  3
ACAD_PLOTSTYLENAME
350
E
  3
ACDBHEADERROUNDTRIPXREC
350
126
  3
ACDBVARIABLEDICTIONARY
350
123
  0
DICTIONARY
  5
148
330
1E
100
AcDbDictionary
280
     1
  3
ACAD_LAYOUTSELFREF
360
149
  0
DICTIONARY
  5
146
330
1A
100
AcDbDictionary
280
     1
  3
ACAD_LAYOUTSELFREF
360
147
  0
DICTIONARY
  5
D
102
{ACAD_REACTORS
330
C
102
}
330
C
100
AcDbDictionary
  0
DICTIONARY
  5
19
102
{ACAD_REACTORS
330
C
102
}
330
C
100
AcDbDictionary
  0
DICTIONARY
  5
16
102
{ACAD_REACTORS
330
C
102
}
330
C
100
AcDbDictionary
  3
STANDARD
350
17
  0
DICTIONARY
  5
18
102
{ACAD_REACTORS
330
C
102
}
330
C
100
AcDbDictionary
  0
ACDBDICTIONARYWDFLT
  5
E
102
{ACAD_REACTORS
330
C
102
}
330
C
100
AcDbDictionary
281
     1
  3
Normal
350
F
100
AcDbDictionaryWithDefault
340
F
  0
DICTIONARY
  5
126
102
{ACAD_REACTORS
330
C
102
}
330
C
100
AcDbDictionary
  3
CEPSNTYPE
350
130
  3
FINGERPRINTGUID
350
131
  3
HYPERLINKBASE
350
129
  3
INSUNITS
350
12F
  3
LAYOUTDICT
350
12B
  3
LWETCUNION
350
12E
  3
PLOTSETDICT
350
12C
  3
PLOTSTYLNAMDICT
350
12D
  3
PSVPSCALE
350
133
  3
PUCSBASE
350
136
  3
PUCSORGBACK
350
13C
  3
PUCSORGBOTTOM
350
138
  3
PUCSORGFRONT
350
13B
  3
PUCSORGLEFT
350
139
  3
PUCSORGRIGHT
350
13A
  3
PUCSORGTOP
350
137
  3
PUCSORTHOREF
350
134
  3
PUCSORTHOVIEW
350
135
  3
STYLESHEET
350
12A
  3
TSTACKALIGN
350
127
  3
TSTACKSIZE
350
128
  3
UCSBASE
350
13F
  3
UCSORGBACK
350
145
  3
UCSORGBOTTOM
350
141
  3
UCSORGFRONT
350
144
  3
UCSORGLEFT
350
142
  3
UCSORGRIGHT
350
143
  3
UCSORGTOP
350
140
  3
UCSORTHOREF
350
13D
  3
UCSORTHOVIEW
350
13E
  3
VERSIONGUID
350
132
  0
DICTIONARY
  5
123
102
{ACAD_REACTORS
330
C
102
}
330
C
100
AcDbDictionary
  3
DIMASSOC
350
124
  0
XRECORD
  5
149
102
{ACAD_REACTORS
330
148
102
}
330
148
100
AcDbXrecord
340
1E
  0
XRECORD
  5
147
102
{ACAD_REACTORS
330
146
102
}
330
146
100
AcDbXrecord
340
1A
  0
MLINESTYLE
  5
17
102
{ACAD_REACTORS
330
16
102
}
330
16
100
AcDbMlineStyle
  2
STANDARD
 70
     0
  3

 62
   256
 51
90.0
 52
90.0
 71
     2
 49
0.5
 62
   256
  6
BYLAYER
 49
-0.5
 62
   256
  6
BYLAYER
  0
ACDBPLACEHOLDER
  5
F
102
{ACAD_REACTORS
330
E
102
}
330
E
100
AcDbPlaceHolder
280
     0
  0
XRECORD
  5
130
102
{ACAD_REACTORS
330
126
102
}
330
126
100
AcDbXrecord
 90
        0
  0
XRECORD
  5
131
102
{ACAD_REACTORS
330
126
102
}
330
126
100
AcDbXrecord
  1
{59A196F1-B651-4D50-A4D5-2A51E5359FA6}
  0
XRECORD
  5
129
102
{ACAD_REACTORS
330
126
102
}
330
126
100
AcDbXrecord
  1

  0
XRECORD
  5
12F
102
{ACAD_REACTORS
330
126
102
}
330
126
100
AcDbXrecord
 90
        0
  0
XRECORD
  5
12B
102
{ACAD_REACTORS
330
126
102
}
330
126
100
AcDbXrecord
340
19
  0
XRECORD
  5
12E
102
{ACAD_REACTORS
330
126
102
}
330
126
100
AcDbXrecord
 90
    10781
  0
XRECORD
  5
12C
102
{ACAD_REACTORS
330
126
102
}
330
126
100
AcDbXrecord
340
18
  0
XRECORD
  5
12D
102
{ACAD_REACTORS
330
126
102
}
330
126
100
AcDbXrecord
340
E
  0
XRECORD
  5
133
102
{ACAD_REACTORS
330
126
102
}
330
126
100
AcDbXrecord
 40
0.0
  0
XRECORD
  5
136
102
{ACAD_REACTORS
330
126
102
}
330
126
100
AcDbXrecord
340
0
  0
XRECORD
  5
13C
102
{ACAD_REACTORS
330
126
102
}
330
126
100
AcDbXrecord
 10
0.0
 20
0.0
 30
0.0
  0
XRECORD
  5
138
102
{ACAD_REACTORS
330
126
102
}
330
126
100
AcDbXrecord
 10
0.0
 20
0.0
 30
0.0
  0
XRECORD
  5
13B
102
{ACAD_REACTORS
330
126
102
}
330
126
100
AcDbXrecord
 10
0.0
 20
0.0
 30
0.0
  0
XRECORD
  5
139
102
{ACAD_REACTORS
330
126
102
}
330
126
100
AcDbXrecord
 10
0.0
 20
0.0
 30
0.0
  0
XRECORD
  5
13A
102
{ACAD_REACTORS
330
126
102
}
330
126
100
AcDbXrecord
 10
0.0
 20
0.0
 30
0.0
  0
XRECORD
  5
137
102
{ACAD_REACTORS
330
126
102
}
330
126
100
AcDbXrecord
 10
0.0
 20
0.0
 30
0.0
  0
XRECORD
  5
134
102
{ACAD_REACTORS
330
126
102
}
330
126
100
AcDbXrecord
340
0
  0
XRECORD
  5
135
102
{ACAD_REACTORS
330
126
102
}
330
126
100
AcDbXrecord
 70
     0
  0
XRECORD
  5
12A
102
{ACAD_REACTORS
330
126
102
}
330
126
100
AcDbXrecord
  1

  0
XRECORD
  5
127
102
{ACAD_REACTORS
330
126
102
}
330
126
100
AcDbXrecord
 90
        1
  0
XRECORD
  5
128
102
{ACAD_REACTORS
330
126
102
}
330
126
100
AcDbXrecord
 90
       70
  0
XRECORD
  5
13F
102
{ACAD_REACTORS
330
126
102
}
330
126
100
AcDbXrecord
340
0
  0
XRECORD
  5
145
102
{ACAD_REACTORS
330
126
102
}
330
126
100
AcDbXrecord
 10
0.0
 20
0.0
 30
0.0
  0
XRECORD
  5
141
102
{ACAD_REACTORS
330
126
102
}
330
126
100
AcDbXrecord
 10
0.0
 20
0.0
 30
0.0
  0
XRECORD
  5
144
102
{ACAD_REACTORS
330
126
102
}
330
126
100
AcDbXrecord
 10
0.0
 20
0.0
 30
0.0
  0
XRECORD
  5
142
102
{ACAD_REACTORS
330
126
102
}
330
126
100
AcDbXrecord
 10
0.0
 20
0.0
 30
0.0
  0
XRECORD
  5
143
102
{ACAD_REACTORS
330
126
102
}
330
126
100
AcDbXrecord
 10
0.0
 20
0.0
 30
0.0
  0
XRECORD
  5
140
102
{ACAD_REACTORS
330
126
102
}
330
126
100
AcDbXrecord
 10
0.0
 20
0.0
 30
0.0
  0
XRECORD
  5
13D
102
{ACAD_REACTORS
330
126
102
}
330
126
100
AcDbXrecord
340
0
  0
XRECORD
  5
13E
102
{ACAD_REACTORS
330
126
102
}
330
126
100
AcDbXrecord
 70
     1
  0
XRECORD
  5
132
102
{ACAD_REACTORS
330
126
102
}
330
126
100
AcDbXrecord
  1
{47ECD159-A80A-4918-A5B4-162F5147C29F}
  0
DICTIONARYVAR
  5
124
102
{ACAD_REACTORS
330
123
102
}
330
123
100
DictionaryVariables
280
     0
  1
1
  0
ENDSEC
  0
EOF
