  0
SECTION
  2
HEADER
  9
$ACADVER
  1
AC1014
  9
$ACADMAINTVER
 70
     9
  9
$DWGCODEPAGE
  3
ANSI_1252
  9
$INSBASE
 10
0.0
 20
0.0
 30
0.0
  9
$EXTMIN
 10
0.0000088779086267
 20
0.0379999999999756
 30
0.0
  9
$EXTMAX
 10
255.9999911220913
 20
184.962
 30
0.0
  9
$LIMMIN
 10
0.0
 20
0.0
  9
$LIMMAX
 10
12.0
 20
9.0
  9
$ORTHOMODE
 70
     0
  9
$REGENMODE
 70
     1
  9
$FILLMODE
 70
     1
  9
$QTEXTMODE
 70
     0
  9
$MIRRTEXT
 70
     1
  9
$DRAGMODE
 70
     2
  9
$LTSCALE
 40
1.0
  9
$OSMODE
 70
    37
  9
$ATTMODE
 70
     1
  9
$TEXTSIZE
 40
0.2
  9
$TRACEWID
 40
0.05
  9
$TEXTSTYLE
  7
STANDARD
  9
$CLAYER
  8
0
  9
$CELTYPE
  6
CONTINUOUS
  9
$CECOLOR
 62
   256
  9
$CELTSCALE
 40
1.0
  9
$DELOBJ
 70
     1
  9
$DISPSILH
 70
     0
  9
$DIMSCALE
 40
1.0
  9
$DIMASZ
 40
0.18
  9
$DIMEXO
 40
0.0625
  9
$DIMDLI
 40
0.38
  9
$DIMRND
 40
0.0
  9
$DIMDLE
 40
0.0
  9
$DIMEXE
 40
0.18
  9
$DIMTP
 40
0.0
  9
$DIMTM
 40
0.0
  9
$DIMTXT
 40
0.18
  9
$DIMCEN
 40
0.09
  9
$DIMTSZ
 40
0.0
  9
$DIMTOL
 70
     0
  9
$DIMLIM
 70
     0
  9
$DIMTIH
 70
     1
  9
$DIMTOH
 70
     1
  9
$DIMSE1
 70
     0
  9
$DIMSE2
 70
     0
  9
$DIMTAD
 70
     0
  9
$DIMZIN
 70
     0
  9
$DIMBLK
  1

  9
$DIMASO
 70
     1
  9
$DIMSHO
 70
     1
  9
$DIMPOST
  1

  9
$DIMAPOST
  1

  9
$DIMALT
 70
     0
  9
$DIMALTD
 70
     2
  9
$DIMALTF
 40
25.4
  9
$DIMLFAC
 40
1.0
  9
$DIMTOFL
 70
     0
  9
$DIMTVP
 40
0.0
  9
$DIMTIX
 70
     0
  9
$DIMSOXD
 70
     0
  9
$DIMSAH
 70
     0
  9
$DIMBLK1
  1

  9
$DIMBLK2
  1

  9
$DIMSTYLE
  2
STANDARD
  9
$DIMCLRD
 70
     0
  9
$DIMCLRE
 70
     0
  9
$DIMCLRT
 70
     0
  9
$DIMTFAC
 40
1.0
  9
$DIMGAP
 40
0.09
  9
$DIMJUST
 70
     0
  9
$DIMSD1
 70
     0
  9
$DIMSD2
 70
     0
  9
$DIMTOLJ
 70
     1
  9
$DIMTZIN
 70
     0
  9
$DIMALTZ
 70
     0
  9
$DIMALTTZ
 70
     0
  9
$DIMFIT
 70
     3
  9
$DIMUPT
 70
     0
  9
$DIMUNIT
 70
     2
  9
$DIMDEC
 70
     4
  9
$DIMTDEC
 70
     4
  9
$DIMALTU
 70
     2
  9
$DIMALTTD
 70
     2
  9
$DIMTXSTY
  7
STANDARD
  9
$DIMAUNIT
 70
     0
  9
$LUNITS
 70
     2
  9
$LUPREC
 70
     4
  9
$SKETCHINC
 40
0.1
  9
$FILLETRAD
 40
0.0
  9
$AUNITS
 70
     0
  9
$AUPREC
 70
     0
  9
$MENU
  1
.
  9
$ELEVATION
 40
0.0
  9
$PELEVATION
 40
0.0
  9
$THICKNESS
 40
0.0
  9
$LIMCHECK
 70
     0
  9
$BLIPMODE
 70
     0
  9
$CHAMFERA
 40
0.0
  9
$CHAMFERB
 40
0.0
  9
$CHAMFERC
 40
0.0
  9
$CHAMFERD
 40
0.0
  9
$SKPOLY
 70
     0
  9
$TDCREATE
 40
2454690.737028171
  9
$TDUPDATE
 40
2454690.743409097
  9
$TDINDWG
 40
0.0063809259
  9
$TDUSRTIMER
 40
0.0063809259
  9
$USRTIMER
 70
     1
  9
$ANGBASE
 50
0.0
  9
$ANGDIR
 70
     0
  9
$PDMODE
 70
     0
  9
$PDSIZE
 40
0.0
  9
$PLINEWID
 40
0.0
  9
$COORDS
 70
     1
  9
$SPLFRAME
 70
     0
  9
$SPLINETYPE
 70
     6
  9
$SPLINESEGS
 70
     8
  9
$ATTDIA
 70
     0
  9
$ATTREQ
 70
     1
  9
$HANDLING
 70
 22529
  9
$HANDSEED
  5
25D
  9
$SURFTAB1
 70
     6
  9
$SURFTAB2
 70
     6
  9
$SURFTYPE
 70
     6
  9
$SURFU
 70
     6
  9
$SURFV
 70
     6
  9
$UCSNAME
  2

  9
$UCSORG
 10
0.0
 20
0.0
 30
0.0
  9
$UCSXDIR
 10
1.0
 20
0.0
 30
0.0
  9
$UCSYDIR
 10
0.0
 20
1.0
 30
0.0
  9
$PUCSNAME
  2

  9
$PUCSORG
 10
0.0
 20
0.0
 30
0.0
  9
$PUCSXDIR
 10
1.0
 20
0.0
 30
0.0
  9
$PUCSYDIR
 10
0.0
 20
1.0
 30
0.0
  9
$USERI1
 70
     0
  9
$USERI2
 70
     0
  9
$USERI3
 70
     0
  9
$USERI4
 70
     0
  9
$USERI5
 70
     0
  9
$USERR1
 40
0.0
  9
$USERR2
 40
0.0
  9
$USERR3
 40
0.0
  9
$USERR4
 40
0.0
  9
$USERR5
 40
0.0
  9
$WORLDVIEW
 70
     1
  9
$SHADEDGE
 70
     3
  9
$SHADEDIF
 70
    70
  9
$TILEMODE
 70
     1
  9
$MAXACTVP
 70
    64
  9
$PINSBASE
 10
0.0
 20
0.0
 30
0.0
  9
$PLIMCHECK
 70
     0
  9
$PEXTMIN
 10
1.000000000000000E+20
 20
1.000000000000000E+20
 30
1.000000000000000E+20
  9
$PEXTMAX
 10
-1.000000000000000E+20
 20
-1.000000000000000E+20
 30
-1.000000000000000E+20
  9
$PLIMMIN
 10
0.0
 20
0.0
  9
$PLIMMAX
 10
12.0
 20
9.0
  9
$UNITMODE
 70
     0
  9
$VISRETAIN
 70
     1
  9
$PLINEGEN
 70
     0
  9
$PSLTSCALE
 70
     1
  9
$TREEDEPTH
 70
  3020
  9
$PICKSTYLE
 70
     1
  9
$CMLSTYLE
  2
STANDARD
  9
$CMLJUST
 70
     0
  9
$CMLSCALE
 40
1.0
  9
$PROXYGRAPHICS
 70
     1
  9
$MEASUREMENT
 70
     0
  0
ENDSEC
  0
SECTION
  2
CLASSES
  0
CLASS
  1
ACDBDICTIONARYWDFLT
  2
AcDbDictionaryWithDefault
  3
AutoCAD 2000
 90
        0
280
     0
281
     0
  0
CLASS
  1
ACDBPLACEHOLDER
  2
AcDbPlaceHolder
  3
AutoCAD 2000
 90
        0
280
     0
281
     0
  0
CLASS
  1
LAYOUT
  2
AcDbLayout
  3
AutoCAD 2000
 90
        0
280
     0
281
     0
  0
CLASS
  1
DICTIONARYVAR
  2
AcDbDictionaryVar
  3
AutoCAD 2000
 90
        0
280
     0
281
     0
  0
CLASS
  1
LONG_TRANSACTION
  2
AcDbLongTransaction
  3
AutoCAD 2000
 90
        0
280
     0
281
     0
  0
CLASS
  1
LWPOLYLINE
  2
AcDbPolyline
  3
AutoCAD 2000
 90
        0
280
     0
281
     1
  0
CLASS
  1
HATCH
  2
AcDbHatch
  3
AutoCAD 2000
 90
        0
280
     0
281
     1
  0
CLASS
  1
XRECORD
  2
AcDbXrecord
  3
AutoCAD 2000
 90
        0
280
     0
281
     0
  0
ENDSEC
  0
SECTION
  2
TABLES
  0
TABLE
  2
VPORT
  5
8
330
0
100
AcDbSymbolTable
 70
     3
  0
VPORT
  5
238
330
8
100
AcDbSymbolTableRecord
100
AcDbViewportTableRecord
  2
*ACTIVE
 70
     0
 10
0.0
 20
0.0
 11
1.0
 21
1.0
 12
128.0
 22
92.5
 13
0.0
 23
0.0
 14
1.0
 24
1.0
 15
0.0
 25
0.0
 16
0.0
 26
0.0
 36
1.0
 17
0.0
 27
0.0
 37
0.0
 40
186.3428542199488
 41
2.043533930857874
 42
50.0
 43
0.0
 44
0.0
 50
0.0
 51
0.0
 71
     0
 72
   100
 73
     1
 74
     3
 75
     0
 76
     0
 77
     0
 78
     0
  0
ENDTAB
  0
TABLE
  2
LTYPE
  5
5
330
0
100
AcDbSymbolTable
 70
     1
  0
LTYPE
  5
13
330
5
100
AcDbSymbolTableRecord
100
AcDbLinetypeTableRecord
  2
BYBLOCK
 70
     0
  3

 72
    65
 73
     0
 40
0.0
  0
LTYPE
  5
14
330
5
100
AcDbSymbolTableRecord
100
AcDbLinetypeTableRecord
  2
BYLAYER
 70
     0
  3

 72
    65
 73
     0
 40
0.0
  0
LTYPE
  5
15
330
5
100
AcDbSymbolTableRecord
100
AcDbLinetypeTableRecord
  2
CONTINUOUS
 70
     0
  3
Solid line
 72
    65
 73
     0
 40
0.0
  0
ENDTAB
  0
TABLE
  2
LAYER
  5
2
330
0
100
AcDbSymbolTable
 70
     1
  0
LAYER
  5
10
330
2
100
AcDbSymbolTableRecord
100
AcDbLayerTableRecord
  2
0
 70
     0
 62
     7
  6
CONTINUOUS
  0
ENDTAB
  0
TABLE
  2
STYLE
  5
3
330
0
100
AcDbSymbolTable
 70
     1
  0
STYLE
  5
11
330
3
100
AcDbSymbolTableRecord
100
AcDbTextStyleTableRecord
  2
STANDARD
 70
     0
 40
0.0
 41
1.0
 50
0.0
 71
     0
 42
0.2
  3
txt
  4

  0
ENDTAB
  0
TABLE
  2
VIEW
  5
6
330
0
100
AcDbSymbolTable
 70
     0
  0
ENDTAB
  0
TABLE
  2
UCS
  5
7
330
0
100
AcDbSymbolTable
 70
     0
  0
ENDTAB
  0
TABLE
  2
APPID
  5
9
330
0
100
AcDbSymbolTable
 70
     1
  0
APPID
  5
12
330
9
100
AcDbSymbolTableRecord
100
AcDbRegAppTableRecord
  2
ACAD
 70
     0
  0
ENDTAB
  0
TABLE
  2
DIMSTYLE
  5
A
330
0
100
AcDbSymbolTable
 70
     1
  0
DIMSTYLE
105
1B9
330
A
100
AcDbSymbolTableRecord
100
AcDbDimStyleTableRecord
  2
STANDARD
 70
     0
  3

  4

  5

  6

  7

 40
1.0
 41
0.18
 42
0.0625
 43
0.38
 44
0.18
 45
0.0
 46
0.0
 47
0.0
 48
0.0
140
0.18
141
0.09
142
0.0
143
25.4
144
1.0
145
0.0
146
1.0
147
0.09
 71
     0
 72
     0
 73
     1
 74
     1
 75
     0
 76
     0
 77
     0
 78
     0
170
     0
171
     2
172
     0
173
     0
174
     0
175
     0
176
     0
177
     0
178
     0
270
     2
271
     4
272
     4
273
     2
274
     2
340
11
275
     0
280
     0
281
     0
282
     0
283
     1
284
     0
285
     0
286
     0
287
     3
288
     0
  0
ENDTAB
  0
TABLE
  2
BLOCK_RECORD
  5
1
330
0
100
AcDbSymbolTable
 70
     0
  0
BLOCK_RECORD
  5
1E
102
{ACAD_XDICTIONARY
360
25B
102
}
330
1
100
AcDbSymbolTableRecord
100
AcDbBlockTableRecord
  2
*MODEL_SPACE
  0
BLOCK_RECORD
  5
1A
102
{ACAD_XDICTIONARY
360
259
102
}
330
1
100
AcDbSymbolTableRecord
100
AcDbBlockTableRecord
  2
*PAPER_SPACE
  0
ENDTAB
  0
ENDSEC
  0
SECTION
  2
BLOCKS
  0
BLOCK
  5
1F
330
1E
100
AcDbEntity
  8
0
100
AcDbBlockBegin
  2
*MODEL_SPACE
 70
     0
 10
0.0
 20
0.0
 30
0.0
  3
*MODEL_SPACE
  1

  0
ENDBLK
  5
20
330
1E
100
AcDbEntity
  8
0
100
AcDbBlockEnd
  0
BLOCK
  5
1B
330
1A
100
AcDbEntity
 67
     1
  8
0
100
AcDbBlockBegin
  2
*PAPER_SPACE
 70
     0
 10
0.0
 20
0.0
 30
0.0
  3
*PAPER_SPACE
  1

  0
ENDBLK
  5
1C
330
1A
100
AcDbEntity
 67
     1
  8
0
100
AcDbBlockEnd
  0
ENDSEC
  0
SECTION
  2
ENTITIES
  0
LINE
  5
22
330
1E
100
AcDbEntity
  8
0
100
AcDbLine
 10
47.7831952719474
 20
0.0379999999999761
 30
0.0
 11
53.8600990327638
 21
0.0379999999999767
 31
0.0
  0
LINE
  5
23
330
1E
100
AcDbEntity
  8
0
100
AcDbLine
 10
38.6945487547916
 20
0.0379999999999758
 30
0.0
 11
47.7831952719474
 21
0.0379999999999761
 31
0.0
  0
LINE
  5
24
330
1E
100
AcDbEntity
  8
0
100
AcDbLine
 10
27.9777031826298
 20
0.0379999999999756
 30
0.0
 11
38.6945487547916
 21
0.0379999999999758
 31
0.0
  0
LINE
  5
25
330
1E
100
AcDbEntity
  8
0
100
AcDbLine
 10
17.2642515050645
 20
0.0379999999999758
 30
0.0
 11
27.9777031826298
 21
0.0379999999999756
 31
0.0
  0
LINE
  5
26
330
1E
100
AcDbEntity
  8
0
100
AcDbLine
 10
2.12283543700828
 20
0.0379999999999767
 30
0.0
 11
8.18527182719233
 21
0.0379999999999761
 31
0.0
  0
LINE
  5
27
330
1E
100
AcDbEntity
  8
0
100
AcDbLine
 10
53.8600990327638
 20
0.0379999999999767
 30
0.0
 11
55.9999911187246
 21
0.0379999999999774
 31
0.0
  0
LINE
  5
28
330
1E
100
AcDbEntity
  8
0
100
AcDbLine
 10
8.18527182719233
 20
0.0379999999999761
 30
0.0
 11
17.2642515050645
 21
0.0379999999999758
 31
0.0
  0
LINE
  5
29
330
1E
100
AcDbEntity
  8
0
100
AcDbLine
 10
2.12283543700828
 20
0.0379999999999767
 30
0.0
 11
8.18527182719233
 21
0.0379999999999761
 31
0.0
  0
LINE
  5
2A
330
1E
100
AcDbEntity
  8
0
100
AcDbLine
 10
0.0000088779086269
 20
0.0379999999999774
 30
0.0
 11
2.12283543700828
 21
0.0379999999999767
 31
0.0
  0
LINE
  5
2B
330
1E
100
AcDbEntity
  8
0
100
AcDbLine
 10
0.0000088779086269
 20
0.0379999999999774
 30
0.0
 11
2.13990096050261
 21
0.037999999999978
 31
0.0
  0
LINE
  5
2C
330
1E
100
AcDbEntity
  8
0
100
AcDbLine
 10
0.0000088779086267
 20
0.0379999999999774
 30
0.0
 11
2.13990096050261
 21
0.037999999999978
 31
0.0
  0
LINE
  5
2D
330
1E
100
AcDbEntity
  8
0
100
AcDbLine
 10
0.0000088779086267
 20
0.0379999999999774
 30
0.0
 11
0.0000088779086267
 21
5.03799999999998
 31
0.0
  0
LINE
  5
2E
330
1E
100
AcDbEntity
  8
0
100
AcDbLine
 10
0.0000088779086267
 20
0.0379999999999774
 30
0.0
 11
2.12283543700828
 21
0.0379999999999767
 31
0.0
  0
LINE
  5
2F
330
1E
100
AcDbEntity
  8
0
100
AcDbLine
 10
2.13990096050261
 20
0.037999999999978
 30
0.0
 11
8.21680472131903
 21
0.0379999999999786
 31
0.0
  0
LINE
  5
30
330
1E
100
AcDbEntity
  8
0
100
AcDbLine
 10
53.8771645562582
 20
0.037999999999978
 30
0.0
 11
55.9999911187246
 21
0.0379999999999774
 31
0.0
  0
LINE
  5
31
330
1E
100
AcDbEntity
  8
0
100
AcDbLine
 10
55.9999911187246
 20
0.0379999999999774
 30
0.0
 11
55.9999911187246
 21
5.03799999999998
 31
0.0
  0
LINE
  5
32
330
1E
100
AcDbEntity
  8
0
100
AcDbLine
 10
108.201031996633
 20
0.0379999999999761
 30
0.0
 11
117.2848479966329
 21
0.0379999999999758
 31
0.0
  0
LINE
  5
33
330
1E
100
AcDbEntity
  8
0
100
AcDbLine
 10
102.131415996633
 20
0.0379999999999767
 30
0.0
 11
108.201031996633
 21
0.0379999999999761
 31
0.0
  0
LINE
  5
34
330
1E
100
AcDbEntity
  8
0
100
AcDbLine
 10
99.99999999663321
 20
0.0379999999999774
 30
0.0
 11
102.1313599966329
 21
0.037999999999978
 31
0.0
  0
LINE
  5
35
330
1E
100
AcDbEntity
  8
0
100
AcDbLine
 10
99.99999999663321
 20
0.0379999999999774
 30
0.0
 11
102.131415996633
 21
0.0379999999999767
 31
0.0
  0
LINE
  5
36
330
1E
100
AcDbEntity
  8
0
100
AcDbLine
 10
99.99999999663321
 20
0.0379999999999774
 30
0.0
 11
99.99999999663321
 21
5.03799999999998
 31
0.0
  0
LINE
  5
37
330
1E
100
AcDbEntity
  8
0
100
AcDbLine
 10
8.21680472131903
 20
0.0379999999999786
 30
0.0
 11
17.3054512830691
 21
0.0379999999999789
 31
0.0
  0
LINE
  5
38
330
1E
100
AcDbEntity
  8
0
100
AcDbLine
 10
17.3054512830691
 20
0.0379999999999789
 30
0.0
 11
28.0222959206149
 21
0.0379999999999791
 31
0.0
  0
LINE
  5
39
330
1E
100
AcDbEntity
  8
0
100
AcDbLine
 10
38.73574848820199
 20
0.0379999999999789
 30
0.0
 11
47.8147281660741
 21
0.0379999999999786
 31
0.0
  0
LINE
  5
3A
330
1E
100
AcDbEntity
  8
0
100
AcDbLine
 10
47.8147281660741
 20
0.0379999999999786
 30
0.0
 11
53.8771645562582
 21
0.037999999999978
 31
0.0
  0
LINE
  5
3B
330
1E
100
AcDbEntity
  8
0
100
AcDbLine
 10
102.1313599966329
 20
0.037999999999978
 30
0.0
 11
108.201031996633
 21
0.0379999999999786
 31
0.0
  0
LINE
  5
3C
330
1E
100
AcDbEntity
  8
0
100
AcDbLine
 10
117.2848479966329
 20
0.0379999999999758
 30
0.0
 11
127.999999996633
 21
0.0379999999999756
 31
0.0
  0
LINE
  5
3D
330
1E
100
AcDbEntity
  8
0
100
AcDbLine
 10
108.201031996633
 20
0.0379999999999786
 30
0.0
 11
117.2848479966329
 21
0.0379999999999789
 31
0.0
  0
LINE
  5
3E
330
1E
100
AcDbEntity
  8
0
100
AcDbLine
 10
55.9999911187246
 20
5.03799999999998
 30
0.0
 11
55.9999911187246
 21
0.0379999999999776
 31
0.0
  0
LINE
  5
3F
330
1E
100
AcDbEntity
  8
0
100
AcDbLine
 10
0.0000088779086269
 20
5.03799999999998
 30
0.0
 11
2.13990096050261
 21
5.03799999999998
 31
0.0
  0
LINE
  5
40
330
1E
100
AcDbEntity
  8
0
100
AcDbLine
 10
0.0000088779086267
 20
5.03799999999998
 30
0.0
 11
0.0000088779086267
 21
0.0379999999999776
 31
0.0
  0
LINE
  5
41
330
1E
100
AcDbEntity
  8
0
100
AcDbLine
 10
0.0000088779086267
 20
5.03799999999998
 30
0.0
 11
2.13990096050261
 21
5.03799999999998
 31
0.0
  0
LINE
  5
42
330
1E
100
AcDbEntity
  8
0
100
AcDbLine
 10
28.0222959206149
 20
0.0379999999999791
 30
0.0
 11
38.73574848820199
 21
0.0379999999999789
 31
0.0
  0
LINE
  5
43
330
1E
100
AcDbEntity
  8
0
100
AcDbLine
 10
2.13990096050261
 20
5.03799999999998
 30
0.0
 11
8.21680472131903
 21
5.03799999999998
 31
0.0
  0
LINE
  5
44
330
1E
100
AcDbEntity
  8
0
100
AcDbLine
 10
8.21680472131903
 20
5.03799999999998
 30
0.0
 11
17.3054512830691
 21
5.03799999999998
 31
0.0
  0
LINE
  5
45
330
1E
100
AcDbEntity
  8
0
100
AcDbLine
 10
47.8147281660741
 20
5.03799999999998
 30
0.0
 11
53.8771645562582
 21
5.03799999999998
 31
0.0
  0
LINE
  5
46
330
1E
100
AcDbEntity
  8
0
100
AcDbLine
 10
53.8771645562582
 20
5.03799999999998
 30
0.0
 11
55.9999911187246
 21
5.03799999999998
 31
0.0
  0
LINE
  5
47
330
1E
100
AcDbEntity
  8
0
100
AcDbLine
 10
99.99999999663321
 20
5.03799999999998
 30
0.0
 11
99.99999999663321
 21
0.0379999999999776
 31
0.0
  0
LINE
  5
48
330
1E
100
AcDbEntity
  8
0
100
AcDbLine
 10
99.99999999663321
 20
5.03799999999998
 30
0.0
 11
102.1313599966329
 21
5.03799999999998
 31
0.0
  0
LINE
  5
49
330
1E
100
AcDbEntity
  8
0
100
AcDbLine
 10
113.9999999966329
 20
5.03799999999998
 30
0.0
 11
113.9999999966329
 21
99.038
 31
0.0
  0
LINE
  5
4A
330
1E
100
AcDbEntity
  8
0
100
AcDbLine
 10
102.1313599966329
 20
5.03799999999998
 30
0.0
 11
108.201031996633
 21
5.03799999999998
 31
0.0
  0
LINE
  5
4B
330
1E
100
AcDbEntity
  8
0
100
AcDbLine
 10
17.3054512830691
 20
5.03799999999998
 30
0.0
 11
28.0222959206149
 21
5.03799999999998
 31
0.0
  0
LINE
  5
4F
330
1E
100
AcDbEntity
  8
0
100
AcDbLine
 10
28.0222959206149
 20
5.03799999999998
 30
0.0
 11
38.73574848820199
 21
5.03799999999998
 31
0.0
  0
LINE
  5
54
330
1E
100
AcDbEntity
  8
0
100
AcDbLine
 10
25.88938678164439
 20
32.2823797138432
 30
0.0
 11
25.9654298834379
 21
32.0074747622182
 31
0.0
  0
LINE
  5
56
330
1E
100
AcDbEntity
  8
0
100
AcDbLine
 10
23.5375321946563
 20
39.4019608631151
 30
0.0
 11
23.610561004018
 21
39.1924855523003
 31
0.0
  0
LINE
  5
57
330
1E
100
AcDbEntity
  8
0
100
AcDbLine
 10
23.610561004018
 20
39.1924855523003
 30
0.0
 11
24.7718541969434
 21
35.8613779201144
 31
0.0
  0
LINE
  5
58
330
1E
100
AcDbEntity
  8
0
100
AcDbLine
 10
20.7241432200888
 20
46.3521396144849
 30
0.0
 11
20.785980128097
 21
46.2062980414991
 31
0.0
  0
LINE
  5
59
330
1E
100
AcDbEntity
  8
0
100
AcDbLine
 10
20.785980128097
 20
46.2062980414991
 30
0.0
 11
22.1878348594763
 21
42.9000649239729
 31
0.0
  0
LINE
  5
5A
330
1E
100
AcDbEntity
  8
0
100
AcDbLine
 10
7.27763044344341
 20
60.68134137431179
 30
0.0
 11
24.4901275223844
 21
5.03799999999998
 31
0.0
  0
LINE
  5
5C
330
1E
100
AcDbEntity
  8
0
100
AcDbLine
 10
7.2776304434434
 20
60.68134137431179
 30
0.0
 11
24.4901275223844
 21
5.03799999999998
 31
0.0
  0
LINE
  5
61
330
1E
100
AcDbEntity
  8
0
100
AcDbLine
 10
7.17670682761078
 20
61.65154928878589
 30
0.0
 11
7.17939963473814
 21
61.1614557707864
 31
0.0
  0
LINE
  5
62
330
1E
100
AcDbEntity
  8
0
100
AcDbLine
 10
7.17670682761078
 20
61.65154928878589
 30
0.0
 11
7.26969435389104
 21
62.132719752731
 31
0.0
  0
LINE
  5
64
330
1E
100
AcDbEntity
  8
0
100
AcDbLine
 10
7.17939963473814
 20
61.1614557707864
 30
0.0
 11
7.2776304434434
 21
60.68134137431179
 31
0.0
  0
LINE
  5
6B
330
1E
100
AcDbEntity
  8
0
100
AcDbLine
 10
7.26969435389104
 20
62.132719752731
 30
0.0
 11
7.45476535539674
 21
62.58647844706279
 31
0.0
  0
LINE
  5
75
330
1E
100
AcDbEntity
  8
0
100
AcDbLine
 10
7.45476535539674
 20
62.58647844706279
 30
0.0
 11
7.724807713064199
 21
62.9954474366235
 31
0.0
  0
LINE
  5
7F
330
1E
100
AcDbEntity
  8
0
100
AcDbLine
 10
11.7553881878577
 20
62.7928155371183
 30
0.0
 11
13.7629557856176
 21
59.62583088438439
 31
0.0
  0
LINE
  5
80
330
1E
100
AcDbEntity
  8
0
100
AcDbLine
 10
11.58978680623
 20
63.0166753314373
 30
0.0
 11
11.7553881878577
 21
62.7928155371183
 31
0.0
  0
LINE
  5
81
330
1E
100
AcDbEntity
  8
0
100
AcDbLine
 10
11.24135169430599
 20
63.3612977286924
 30
0.0
 11
11.58978680623
 21
63.0166753314373
 31
0.0
  0
LINE
  5
82
330
1E
100
AcDbEntity
  8
0
100
AcDbLine
 10
10.8323946552208
 20
63.63130195852221
 30
0.0
 11
11.24135169430599
 21
63.3612977286924
 31
0.0
  0
LINE
  5
83
330
1E
100
AcDbEntity
  8
0
100
AcDbLine
 10
10.3785940699693
 20
63.8163600158189
 30
0.0
 11
10.8323946552208
 21
63.63130195852221
 31
0.0
  0
LINE
  5
84
330
1E
100
AcDbEntity
  8
0
100
AcDbLine
 10
9.89738683146497
 20
63.90940942129329
 30
0.0
 11
10.3785940699693
 21
63.8163600158189
 31
0.0
  0
LINE
  5
85
330
1E
100
AcDbEntity
  8
0
100
AcDbLine
 10
9.407327154179562
 20
63.9066642283103
 30
0.0
 11
9.89738683146497
 21
63.90940942129329
 31
0.0
  0
LINE
  5
86
330
1E
100
AcDbEntity
  8
0
100
AcDbLine
 10
8.927170626587219
 20
63.80848311377921
 30
0.0
 11
9.407327154179562
 21
63.9066642283103
 31
0.0
  0
LINE
  5
87
330
1E
100
AcDbEntity
  8
0
100
AcDbLine
 10
8.4754428472609
 20
63.6183985403381
 30
0.0
 11
8.927170626587219
 21
63.80848311377921
 31
0.0
  0
LINE
  5
88
330
1E
100
AcDbEntity
  8
0
100
AcDbLine
 10
8.06942842136635
 20
63.34395544298359
 30
0.0
 11
8.4754428472609
 21
63.6183985403381
 31
0.0
  0
LINE
  5
89
330
1E
100
AcDbEntity
  8
0
100
AcDbLine
 10
7.724807713064199
 20
62.9954474366235
 30
0.0
 11
8.06942842136635
 21
63.34395544298359
 31
0.0
  0
LINE
  5
8B
330
1E
100
AcDbEntity
  8
0
100
AcDbLine
 10
13.7629557856176
 20
59.62583088438439
 30
0.0
 11
15.6655924969305
 21
56.3947897474594
 31
0.0
  0
LINE
  5
8C
330
1E
100
AcDbEntity
  8
0
100
AcDbLine
 10
15.6655924969305
 20
56.3947897474594
 30
0.0
 11
17.4612569683741
 21
53.1031431048586
 31
0.0
  0
LINE
  5
8D
330
1E
100
AcDbEntity
  8
0
100
AcDbLine
 10
19.1480512026967
 20
49.7543862631285
 30
0.0
 11
19.20132028809039
 21
49.63939029158689
 31
0.0
  0
LINE
  5
8E
330
1E
100
AcDbEntity
  8
0
100
AcDbLine
 10
19.20132028809039
 20
49.63939029158689
 30
0.0
 11
20.7241432200888
 21
46.3521396144849
 31
0.0
  0
LINE
  5
8F
330
1E
100
AcDbEntity
  8
0
100
AcDbLine
 10
17.4612569683741
 20
53.1031431048586
 30
0.0
 11
19.1480512026967
 21
49.7543862631285
 31
0.0
  0
LINE
  5
91
330
1E
100
AcDbEntity
  8
0
100
AcDbLine
 10
22.1878348594763
 20
42.9000649239729
 30
0.0
 11
22.2562516785785
 21
42.722763067513
 31
0.0
  0
LINE
  5
95
330
1E
100
AcDbEntity
  8
0
100
AcDbLine
 10
24.7718541969434
 20
35.8613779201144
 30
0.0
 11
24.8473793316004
 21
35.6194936523085
 31
0.0
  0
LINE
  5
96
330
1E
100
AcDbEntity
  8
0
100
AcDbLine
 10
24.8473793316004
 20
35.6194936523085
 30
0.0
 11
25.88938678164439
 21
32.2823797138432
 31
0.0
  0
LINE
  5
99
330
1E
100
AcDbEntity
  8
0
100
AcDbLine
 10
26.8889974030417
 20
28.6685935677579
 30
0.0
 11
27.7695891247573
 21
25.0239718238888
 31
0.0
  0
LINE
  5
9E
330
1E
100
AcDbEntity
  8
0
100
AcDbLine
 10
27.7695891247573
 20
25.0239718238888
 30
0.0
 11
27.8402793927436
 21
24.6827247729293
 31
0.0
  0
LINE
  5
A0
330
1E
100
AcDbEntity
  8
0
100
AcDbLine
 10
28.5301988052589
 20
21.3525081970951
 30
0.0
 11
29.17003707923239
 21
17.6580407973628
 31
0.0
  0
LINE
  5
A4
330
1E
100
AcDbEntity
  8
0
100
AcDbLine
 10
29.17003707923239
 20
17.6580407973628
 30
0.0
 11
29.2269638699507
 21
17.2501537632668
 31
0.0
  0
LINE
  5
A5
330
1E
100
AcDbEntity
  8
0
100
AcDbLine
 10
29.17003707923239
 20
17.6580407973628
 30
0.0
 11
29.6883797506778
 21
13.94463721960289
 31
0.0
  0
LINE
  5
A7
330
1E
100
AcDbEntity
  8
0
100
AcDbLine
 10
32.0762488398965
 20
6.31202183699129
 30
0.0
 11
33.0294782977131
 21
6.07878847173313
 31
0.0
  0
LINE
  5
A9
330
1E
100
AcDbEntity
  8
0
100
AcDbLine
 10
30.0847109615413
 20
10.21619921272939
 30
0.0
 11
30.3585875091884
 21
6.476766119893129
 31
0.0
  0
LINE
  5
B0
330
1E
100
AcDbEntity
  8
0
100
AcDbLine
 10
31.104737566658
 20
6.450694124961069
 30
0.0
 11
32.0762488398965
 21
6.31202183699129
 31
0.0
  0
LINE
  5
B1
330
1E
100
AcDbEntity
  8
0
100
AcDbLine
 10
30.3585875091884
 20
6.476766119893129
 30
0.0
 11
31.104737566658
 21
6.450694124961069
 31
0.0
  0
LINE
  5
BE
330
1E
100
AcDbEntity
  8
0
100
AcDbLine
 10
38.73574848820199
 20
5.03799999999998
 30
0.0
 11
47.8147281660741
 21
5.03799999999998
 31
0.0
  0
LINE
  5
BF
330
1E
100
AcDbEntity
  8
0
100
AcDbLine
 10
33.0294782977131
 20
6.07878847173313
 30
0.0
 11
33.9552616336526
 21
5.753244295378879
 31
0.0
  0
LINE
  5
C0
330
1E
100
AcDbEntity
  8
0
100
AcDbLine
 10
33.9552616336526
 20
5.753244295378879
 30
0.0
 11
35.3073803411238
 21
5.055816231393691
 31
0.0
  0
LINE
  5
C9
330
1E
100
AcDbEntity
  8
0
100
AcDbLine
 10
113.983999996633
 20
111.703737341184
 30
0.0
 11
113.9999999966329
 21
129.848012915874
 31
0.0
  0
LINE
  5
CA
330
1E
100
AcDbEntity
  8
0
100
AcDbLine
 10
113.983999996633
 20
111.703737341184
 30
0.0
 11
115.0496999966329
 21
113.98876165478
 31
0.0
  0
LINE
  5
CB
330
1E
100
AcDbEntity
  8
0
100
AcDbLine
 10
113.983999996633
 20
111.703737341184
 30
0.0
 11
115.049799996633
 21
109.4170928777149
 31
0.0
  0
LINE
  5
CC
330
1E
100
AcDbEntity
  8
0
100
AcDbLine
 10
113.8908999966329
 20
129.7919999999999
 30
0.0
 11
113.8935999966329
 21
136.1339999999999
 31
0.0
  0
LINE
  5
CD
330
1E
100
AcDbEntity
  8
0
100
AcDbLine
 10
113.8908999966329
 20
129.7919999999999
 30
0.0
 11
113.999745049738
 21
129.5588987453389
 31
0.0
  0
LINE
  5
CE
330
1E
100
AcDbEntity
  8
0
100
AcDbLine
 10
113.8908999966329
 20
129.7919999999999
 30
0.0
 11
114.952399996633
 21
132.0819999999999
 31
0.0
  0
LINE
  5
CF
330
1E
100
AcDbEntity
  8
0
100
AcDbLine
 10
113.8935999966329
 20
136.1339999999999
 30
0.0
 11
113.900499996633
 21
147.6449999999999
 31
0.0
  0
LINE
  5
D0
330
1E
100
AcDbEntity
  8
0
100
AcDbLine
 10
113.900499996633
 20
147.6449999999999
 30
0.0
 11
113.9089999966329
 21
157.2179999999999
 31
0.0
  0
LINE
  5
D1
330
1E
100
AcDbEntity
  8
0
100
AcDbLine
 10
113.9089999966329
 20
157.2179999999999
 30
0.0
 11
113.9187999966329
 21
164.4709999999999
 31
0.0
  0
LINE
  5
D2
330
1E
100
AcDbEntity
  8
0
100
AcDbLine
 10
113.9187999966329
 20
164.4709999999999
 30
0.0
 11
113.9296999966329
 21
169.1159999999999
 31
0.0
  0
LINE
  5
D3
330
1E
100
AcDbEntity
  8
0
100
AcDbLine
 10
113.9296999966329
 20
169.1159999999999
 30
0.0
 11
113.9410999966329
 21
170.967
 31
0.0
  0
LINE
  5
D4
330
1E
100
AcDbEntity
  8
0
100
AcDbLine
 10
113.9410999966329
 20
170.967
 30
0.0
 11
115.0062999966329
 21
176.322
 31
0.0
  0
LINE
  5
D5
330
1E
100
AcDbEntity
  8
0
100
AcDbLine
 10
113.99442535366
 20
129.570291342382
 30
0.0
 11
113.995499996633
 21
127.061
 31
0.0
  0
LINE
  5
D6
330
1E
100
AcDbEntity
  8
0
100
AcDbLine
 10
113.9999999966329
 20
129.848012915874
 30
0.0
 11
115.0655999966329
 21
132.133116775788
 31
0.0
  0
LINE
  5
D7
330
1E
100
AcDbEntity
  8
0
100
AcDbLine
 10
113.995499996633
 20
127.061
 30
0.0
 11
113.9959478594849
 21
125.2528195981329
 31
0.0
  0
LINE
  5
D8
330
1E
100
AcDbEntity
  8
0
100
AcDbLine
 10
113.999027917388
 20
111.6714953522629
 30
0.0
 11
113.9999999966329
 21
99.038
 31
0.0
  0
LINE
  5
D9
330
1E
100
AcDbEntity
  8
0
100
AcDbLine
 10
115.049799996633
 20
109.4170928777149
 30
0.0
 11
118.084659996633
 21
107.4770653600499
 31
0.0
  0
LINE
  5
DA
330
1E
100
AcDbEntity
  8
0
100
AcDbLine
 10
115.0496999966329
 20
113.98876165478
 30
0.0
 11
118.084429996633
 21
115.924483816553
 31
0.0
  0
LINE
  5
DB
330
1E
100
AcDbEntity
  8
0
100
AcDbLine
 10
115.0655999966329
 20
132.133116775788
 30
0.0
 11
118.1004099966329
 21
134.068804722603
 31
0.0
  0
LINE
  5
DC
330
1E
100
AcDbEntity
  8
0
100
AcDbLine
 10
114.952399996633
 20
132.0819999999999
 30
0.0
 11
117.9843999966329
 21
134.023
 31
0.0
  0
LINE
  5
DD
330
1E
100
AcDbEntity
  8
0
100
AcDbLine
 10
115.0062999966329
 20
176.322
 30
0.0
 11
118.0414099966329
 21
180.8619999999999
 31
0.0
  0
LINE
  5
DE
330
1E
100
AcDbEntity
  8
0
100
AcDbLine
 10
113.9999999966329
 20
99.038
 30
0.0
 11
113.9999999966329
 21
5.03799999999998
 31
0.0
  0
LINE
  5
DF
330
1E
100
AcDbEntity
  8
0
100
AcDbLine
 10
108.201031996633
 20
5.03799999999998
 30
0.0
 11
117.2848479966329
 21
5.03799999999998
 31
0.0
  0
LINE
  5
E0
330
1E
100
AcDbEntity
  8
0
100
AcDbLine
 10
117.9843999966329
 20
134.023
 30
0.0
 11
122.523789996633
 21
135.3199999999999
 31
0.0
  0
LINE
  5
E1
330
1E
100
AcDbEntity
  8
0
100
AcDbLine
 10
118.084659996633
 20
107.4770653600499
 30
0.0
 11
122.6214699966329
 21
106.179903974883
 31
0.0
  0
LINE
  5
E2
330
1E
100
AcDbEntity
  8
0
100
AcDbLine
 10
122.6214699966329
 20
106.179903974883
 30
0.0
 11
127.984032896633
 21
105.7204738934869
 31
0.0
  0
LINE
  5
E3
330
1E
100
AcDbEntity
  8
0
100
AcDbLine
 10
121.387829996633
 20
113.098800693163
 30
0.0
 11
124.4125199966329
 21
112.233979424599
 31
0.0
  0
LINE
  5
E4
330
1E
100
AcDbEntity
  8
0
100
AcDbLine
 10
119.3644799966329
 20
114.392217903188
 30
0.0
 11
121.387829996633
 21
113.098800693163
 31
0.0
  0
LINE
  5
E5
330
1E
100
AcDbEntity
  8
0
100
AcDbLine
 10
118.653939996633
 20
115.9166945945689
 30
0.0
 11
118.745199918579
 21
116.1123920508029
 31
0.0
  0
LINE
  5
E6
330
1E
100
AcDbEntity
  8
0
100
AcDbLine
 10
118.653939996633
 20
115.9166945945689
 30
0.0
 11
119.3644799966329
 21
114.392217903188
 31
0.0
  0
LINE
  5
E7
330
1E
100
AcDbEntity
  8
0
100
AcDbLine
 10
118.084429996633
 20
115.924483816553
 30
0.0
 11
122.6263399966329
 21
117.2161017608259
 31
0.0
  0
LINE
  5
E8
330
1E
100
AcDbEntity
  8
0
100
AcDbLine
 10
118.1004099966329
 20
134.068804722603
 30
0.0
 11
122.6423199966329
 21
135.3604054984899
 31
0.0
  0
LINE
  5
E9
330
1E
100
AcDbEntity
  8
0
100
AcDbLine
 10
124.4125199966329
 20
112.233979424599
 30
0.0
 11
127.9877423966329
 21
111.9276611433299
 31
0.0
  0
LINE
  5
EA
330
1E
100
AcDbEntity
  8
0
100
AcDbLine
 10
122.6263399966329
 20
117.2161017608259
 30
0.0
 11
128.006310786633
 21
117.666859324053
 31
0.0
  0
LINE
  5
EB
330
1E
100
AcDbEntity
  8
0
100
AcDbLine
 10
122.6423199966329
 20
135.3604054984899
 30
0.0
 11
128.0222867966329
 21
135.8112239961789
 31
0.0
  0
LINE
  5
EC
330
1E
100
AcDbEntity
  8
0
100
AcDbLine
 10
127.9877423966329
 20
111.9276611433299
 30
0.0
 11
131.5940999966329
 21
112.234373604235
 31
0.0
  0
LINE
  5
ED
330
1E
100
AcDbEntity
  8
0
100
AcDbLine
 10
127.984032896633
 20
105.7204738934869
 30
0.0
 11
133.393299996633
 21
106.180462862127
 31
0.0
  0
LINE
  5
EE
330
1E
100
AcDbEntity
  8
0
100
AcDbLine
 10
122.5829199966329
 20
183.8959999999999
 30
0.0
 11
127.940702596633
 21
184.962
 31
0.0
  0
LINE
  5
EF
330
1E
100
AcDbEntity
  8
0
100
AcDbLine
 10
118.0414099966329
 20
180.8619999999999
 30
0.0
 11
122.5829199966329
 21
183.8959999999999
 31
0.0
  0
LINE
  5
F0
330
1E
100
AcDbEntity
  8
0
100
AcDbLine
 10
127.940702596633
 20
184.962
 30
0.0
 11
133.298519996633
 21
183.8959999999999
 31
0.0
  0
LINE
  5
F1
330
1E
100
AcDbEntity
  8
0
100
AcDbLine
 10
117.2848479966329
 20
5.03799999999998
 30
0.0
 11
128.000004224521
 21
5.03799999999998
 31
0.0
  0
LINE
  5
F2
330
1E
100
AcDbEntity
  8
0
100
AcDbLine
 10
117.2848479966329
 20
0.0379999999999789
 30
0.0
 11
128.000004224521
 21
0.0379999999999791
 31
0.0
  0
LINE
  5
F6
330
1E
100
AcDbEntity
  8
0
100
AcDbLine
 10
128.006310786633
 20
117.666859324053
 30
0.0
 11
133.3414999966329
 21
117.2083694783929
 31
0.0
  0
LINE
  5
F7
330
1E
100
AcDbEntity
  8
0
100
AcDbLine
 10
128.0222867966329
 20
135.8112239961789
 30
0.0
 11
133.357479996633
 21
135.3526916837529
 31
0.0
  0
LINE
  5
F8
330
1E
100
AcDbEntity
  8
0
100
AcDbLine
 10
133.3414999966329
 20
117.2083694783929
 30
0.0
 11
137.883459996633
 21
115.910259309893
 31
0.0
  0
LINE
  5
F9
330
1E
100
AcDbEntity
  8
0
100
AcDbLine
 10
133.357479996633
 20
135.3526916837529
 30
0.0
 11
137.8994299966329
 21
134.054615524828
 31
0.0
  0
LINE
  5
FA
330
1E
100
AcDbEntity
  8
0
100
AcDbLine
 10
137.229978457307
 20
116.097026923682
 30
0.0
 11
137.3215299966329
 21
115.900181760559
 31
0.0
  0
LINE
  5
FB
330
1E
100
AcDbEntity
  8
0
100
AcDbLine
 10
136.611049996633
 20
114.3798876742269
 30
0.0
 11
137.3215299966329
 21
115.900181760559
 31
0.0
  0
LINE
  5
FC
330
1E
100
AcDbEntity
  8
0
100
AcDbLine
 10
134.5877399966329
 20
113.08935067366
 30
0.0
 11
136.611049996633
 21
114.3798876742269
 31
0.0
  0
LINE
  5
FD
330
1E
100
AcDbEntity
  8
0
100
AcDbLine
 10
131.5940999966329
 20
112.234373604235
 30
0.0
 11
134.5877399966329
 21
113.08935067366
 31
0.0
  0
LINE
  5
FE
330
1E
100
AcDbEntity
  8
0
100
AcDbLine
 10
133.393299996633
 20
106.180462862127
 30
0.0
 11
137.883539996633
 21
107.4628408533889
 31
0.0
  0
LINE
  5
FF
330
1E
100
AcDbEntity
  8
0
100
AcDbLine
 10
137.883459996633
 20
115.910259309893
 30
0.0
 11
140.9182999966329
 21
113.9702189708309
 31
0.0
  0
LINE
  5
100
330
1E
100
AcDbEntity
  8
0
100
AcDbLine
 10
137.8994299966329
 20
134.054615524828
 30
0.0
 11
140.934299996633
 21
132.11457509536
 31
0.0
  0
LINE
  5
101
330
1E
100
AcDbEntity
  8
0
100
AcDbLine
 10
137.883539996633
 20
107.4628408533889
 30
0.0
 11
140.9183999966329
 21
109.398550193766
 31
0.0
  0
LINE
  5
102
330
1E
100
AcDbEntity
  8
0
100
AcDbLine
 10
137.840199996633
 20
180.8619999999999
 30
0.0
 11
140.8754999966329
 21
176.322
 31
0.0
  0
LINE
  5
103
330
1E
100
AcDbEntity
  8
0
100
AcDbLine
 10
133.298519996633
 20
183.8959999999999
 30
0.0
 11
137.840199996633
 21
180.8619999999999
 31
0.0
  0
LINE
  5
104
330
1E
100
AcDbEntity
  8
0
100
AcDbLine
 10
128.000004224521
 20
5.03799999999998
 30
0.0
 11
138.7151519966329
 21
5.03799999999998
 31
0.0
  0
LINE
  5
105
330
1E
100
AcDbEntity
  8
0
100
AcDbLine
 10
128.000004224521
 20
0.0379999999999791
 30
0.0
 11
138.7151519966329
 21
0.0379999999999789
 31
0.0
  0
LINE
  5
106
330
1E
100
AcDbEntity
  8
0
100
AcDbLine
 10
140.9183999966329
 20
109.398550193766
 30
0.0
 11
141.9839999966329
 21
111.6788778752759
 31
0.0
  0
LINE
  5
107
330
1E
100
AcDbEntity
  8
0
100
AcDbLine
 10
141.9839999966329
 20
111.6788778752759
 30
0.0
 11
141.9999999966329
 21
129.8231650190979
 31
0.0
  0
LINE
  5
108
330
1E
100
AcDbEntity
  8
0
100
AcDbLine
 10
140.9182999966329
 20
113.9702189708309
 30
0.0
 11
141.9839999966329
 21
111.6788778752759
 31
0.0
  0
LINE
  5
109
330
1E
100
AcDbEntity
  8
0
100
AcDbLine
 10
140.934299996633
 20
132.11457509536
 30
0.0
 11
141.9999999966329
 21
129.8231650190979
 31
0.0
  0
LINE
  5
110
330
1E
100
AcDbEntity
  8
0
100
AcDbLine
 10
141.9409999966329
 20
170.967
 30
0.0
 11
141.952399996633
 21
169.951
 31
0.0
  0
LINE
  5
111
330
1E
100
AcDbEntity
  8
0
100
AcDbLine
 10
140.8754999966329
 20
176.322
 30
0.0
 11
141.9409999966329
 21
170.967
 31
0.0
  0
LINE
  5
112
330
1E
100
AcDbEntity
  8
0
100
AcDbLine
 10
141.952399996633
 20
169.951
 30
0.0
 11
141.963499996633
 21
166.108
 31
0.0
  0
LINE
  5
113
330
1E
100
AcDbEntity
  8
0
100
AcDbLine
 10
141.963499996633
 20
166.108
 30
0.0
 11
141.973699996633
 21
159.591
 31
0.0
  0
LINE
  5
114
330
1E
100
AcDbEntity
  8
0
100
AcDbLine
 10
141.973699996633
 20
159.591
 30
0.0
 11
141.9825999966329
 21
150.6589999999999
 31
0.0
  0
LINE
  5
115
330
1E
100
AcDbEntity
  8
0
100
AcDbLine
 10
141.9825999966329
 20
150.6589999999999
 30
0.0
 11
141.989999996633
 21
139.6699999999999
 31
0.0
  0
LINE
  5
116
330
1E
100
AcDbEntity
  8
0
100
AcDbLine
 10
141.989999996633
 20
139.6699999999999
 30
0.0
 11
141.994289794768
 21
129.835442784032
 31
0.0
  0
LINE
  5
117
330
1E
100
AcDbEntity
  8
0
100
AcDbLine
 10
141.995952664947
 20
125.233418251622
 30
0.0
 11
141.998899996633
 21
113.334
 31
0.0
  0
LINE
  5
118
330
1E
100
AcDbEntity
  8
0
100
AcDbLine
 10
141.998899996633
 20
113.334
 30
0.0
 11
141.9999999966329
 21
99.038
 31
0.0
  0
LINE
  5
119
330
1E
100
AcDbEntity
  8
0
100
AcDbLine
 10
141.9999999966329
 20
99.038
 30
0.0
 11
141.9999999966329
 21
5.03799999999998
 31
0.0
  0
LINE
  5
11A
330
1E
100
AcDbEntity
  8
0
100
AcDbLine
 10
141.9999999966329
 20
5.03799999999998
 30
0.0
 11
141.9999999966329
 21
99.038
 31
0.0
  0
LINE
  5
11B
330
1E
100
AcDbEntity
  8
0
100
AcDbLine
 10
138.7151519966329
 20
5.03799999999998
 30
0.0
 11
147.7989679966329
 21
5.03799999999998
 31
0.0
  0
LINE
  5
11C
330
1E
100
AcDbEntity
  8
0
100
AcDbLine
 10
138.7151519966329
 20
0.0379999999999789
 30
0.0
 11
147.7989679966329
 21
0.0379999999999786
 31
0.0
  0
LINE
  5
11D
330
1E
100
AcDbEntity
  8
0
100
AcDbLine
 10
147.7989679966329
 20
5.03799999999998
 30
0.0
 11
153.868639996633
 21
5.03799999999998
 31
0.0
  0
LINE
  5
11E
330
1E
100
AcDbEntity
  8
0
100
AcDbLine
 10
147.7989679966329
 20
0.0379999999999786
 30
0.0
 11
153.868639996633
 21
0.037999999999978
 31
0.0
  0
LINE
  5
123
330
1E
100
AcDbEntity
  8
0
100
AcDbLine
 10
153.868639996633
 20
5.03799999999998
 30
0.0
 11
155.9999999966329
 21
5.03799999999998
 31
0.0
  0
LINE
  5
124
330
1E
100
AcDbEntity
  8
0
100
AcDbLine
 10
153.868639996633
 20
0.037999999999978
 30
0.0
 11
155.9999999966329
 21
0.0379999999999774
 31
0.0
  0
LINE
  5
125
330
1E
100
AcDbEntity
  8
0
100
AcDbLine
 10
155.9999999966329
 20
0.0379999999999774
 30
0.0
 11
155.9999999966329
 21
5.03799999999998
 31
0.0
  0
LINE
  5
1B4
330
1E
100
AcDbEntity
  8
0
100
AcDbLine
 10
155.9999999966329
 20
5.03799999999998
 30
0.0
 11
155.9999999966329
 21
0.0379999999999776
 31
0.0
  0
LINE
  5
1B5
330
1E
100
AcDbEntity
  8
0
100
AcDbLine
 10
153.868639996633
 20
0.0379999999999767
 30
0.0
 11
155.9999999966329
 21
0.0379999999999774
 31
0.0
  0
LINE
  5
1B6
330
1E
100
AcDbEntity
  8
0
100
AcDbLine
 10
147.7989679966329
 20
0.0379999999999761
 30
0.0
 11
153.868639996633
 21
0.0379999999999767
 31
0.0
  0
LINE
  5
1B7
330
1E
100
AcDbEntity
  8
0
100
AcDbLine
 10
138.7151519966329
 20
0.0379999999999758
 30
0.0
 11
147.7989679966329
 21
0.0379999999999761
 31
0.0
  0
LINE
  5
1B8
330
1E
100
AcDbEntity
  8
0
100
AcDbLine
 10
127.999999996633
 20
0.0379999999999756
 30
0.0
 11
138.7151519966329
 21
0.0379999999999758
 31
0.0
  0
LINE
  5
1BD
330
1E
100
AcDbEntity
  8
0
100
AcDbLine
 10
22.2562516785785
 20
42.722763067513
 30
0.0
 11
23.5375321946563
 21
39.4019608631151
 31
0.0
  0
LINE
  5
1BE
330
1E
100
AcDbEntity
  8
0
100
AcDbLine
 10
29.6883797506778
 20
13.94463721960289
 30
0.0
 11
30.0847109615413
 21
10.21619921272939
 31
0.0
  0
LINE
  5
1BF
330
1E
100
AcDbEntity
  8
0
100
AcDbLine
 10
28.5301988052589
 20
21.3525081970951
 30
0.0
 11
27.8402793927436
 21
24.6827247729293
 31
0.0
  0
LINE
  5
1C0
330
1E
100
AcDbEntity
  8
0
100
AcDbLine
 10
25.9654298834379
 20
32.0074747622182
 30
0.0
 11
26.8889974030417
 21
28.6685935677579
 31
0.0
  0
LINE
  5
1C1
330
1E
100
AcDbEntity
  8
0
100
AcDbLine
 10
30.3585875091884
 20
6.476766119893129
 30
0.0
 11
24.4901275223844
 21
5.037999999999982
 31
0.0
  0
LINE
  5
1C2
330
1E
100
AcDbEntity
  8
0
100
AcDbLine
 10
225.6414124908116
 20
6.476766119893129
 30
0.0
 11
231.5098724776155
 21
5.037999999999982
 31
0.0
  0
LINE
  5
1C3
330
1E
100
AcDbEntity
  8
0
100
AcDbLine
 10
226.8299629207676
 20
17.6580407973628
 30
0.0
 11
226.3116202493221
 21
13.94463721960289
 31
0.0
  0
LINE
  5
1C4
330
1E
100
AcDbEntity
  8
0
100
AcDbLine
 10
227.9777040793851
 20
5.03799999999998
 30
0.0
 11
217.264251511798
 21
5.03799999999998
 31
0.0
  0
LINE
  5
1C5
330
1E
100
AcDbEntity
  8
0
100
AcDbLine
 10
227.9777040793851
 20
0.0379999999999791
 30
0.0
 11
217.264251511798
 21
0.0379999999999789
 31
0.0
  0
LINE
  5
1C6
330
1E
100
AcDbEntity
  8
0
100
AcDbLine
 10
228.0222968173702
 20
0.0379999999999756
 30
0.0
 11
217.3054512452083
 21
0.0379999999999758
 31
0.0
  0
LINE
  5
1C7
330
1E
100
AcDbEntity
  8
0
100
AcDbLine
 10
231.1526206683996
 20
35.6194936523085
 30
0.0
 11
230.1106132183555
 21
32.2823797138432
 31
0.0
  0
LINE
  5
1C8
330
1E
100
AcDbEntity
  8
0
100
AcDbLine
 10
248.7223695565566
 20
60.68134137431179
 30
0.0
 11
231.5098724776155
 21
5.03799999999998
 31
0.0
  0
LINE
  5
1C9
330
1E
100
AcDbEntity
  8
0
100
AcDbLine
 10
248.7223695565566
 20
60.68134137431179
 30
0.0
 11
231.5098724776155
 21
5.03799999999998
 31
0.0
  0
LINE
  5
1CA
330
1E
100
AcDbEntity
  8
0
100
AcDbLine
 10
253.8600990394973
 20
5.03799999999998
 30
0.0
 11
247.783195278681
 21
5.03799999999998
 31
0.0
  0
LINE
  5
1CB
330
1E
100
AcDbEntity
  8
0
100
AcDbLine
 10
253.8600990394973
 20
0.037999999999978
 30
0.0
 11
247.783195278681
 21
0.0379999999999786
 31
0.0
  0
LINE
  5
1CC
330
1E
100
AcDbEntity
  8
0
100
AcDbLine
 10
253.8771645629917
 20
0.0379999999999767
 30
0.0
 11
247.8147281728076
 21
0.0379999999999761
 31
0.0
  0
LINE
  5
1CD
330
1E
100
AcDbEntity
  8
0
100
AcDbLine
 10
253.8771645629917
 20
0.0379999999999767
 30
0.0
 11
247.8147281728076
 21
0.0379999999999761
 31
0.0
  0
LINE
  5
1CE
330
1E
100
AcDbEntity
  8
0
100
AcDbLine
 10
255.9999911220913
 20
5.03799999999998
 30
0.0
 11
253.8600990394973
 21
5.03799999999998
 31
0.0
  0
LINE
  5
1CF
330
1E
100
AcDbEntity
  8
0
100
AcDbLine
 10
255.9999911220913
 20
5.03799999999998
 30
0.0
 11
253.8600990394973
 21
5.03799999999998
 31
0.0
  0
LINE
  5
1D0
330
1E
100
AcDbEntity
  8
0
100
AcDbLine
 10
255.9999911220913
 20
0.0379999999999774
 30
0.0
 11
253.8771645629917
 21
0.0379999999999767
 31
0.0
  0
LINE
  5
1D1
330
1E
100
AcDbEntity
  8
0
100
AcDbLine
 10
255.9999911220913
 20
0.0379999999999774
 30
0.0
 11
253.8600990394973
 21
0.037999999999978
 31
0.0
  0
LINE
  5
1D2
330
1E
100
AcDbEntity
  8
0
100
AcDbLine
 10
255.9999911220913
 20
0.0379999999999774
 30
0.0
 11
253.8600990394973
 21
0.037999999999978
 31
0.0
  0
LINE
  5
1D3
330
1E
100
AcDbEntity
  8
0
100
AcDbLine
 10
255.9999911220913
 20
0.0379999999999774
 30
0.0
 11
253.8771645629917
 21
0.0379999999999767
 31
0.0
  0
LINE
  5
1D4
330
1E
100
AcDbEntity
  8
0
100
AcDbLine
 10
255.9999911220913
 20
5.03799999999998
 30
0.0
 11
255.9999911220913
 21
0.0379999999999776
 31
0.0
  0
LINE
  5
1D5
330
1E
100
AcDbEntity
  8
0
100
AcDbLine
 10
255.9999911220913
 20
0.0379999999999774
 30
0.0
 11
255.9999911220913
 21
5.03799999999998
 31
0.0
  0
LINE
  5
1D6
330
1E
100
AcDbEntity
  8
0
100
AcDbLine
 10
247.783195278681
 20
5.03799999999998
 30
0.0
 11
238.6945487169309
 21
5.03799999999998
 31
0.0
  0
LINE
  5
1D7
330
1E
100
AcDbEntity
  8
0
100
AcDbLine
 10
247.783195278681
 20
0.0379999999999786
 30
0.0
 11
238.6945487169309
 21
0.0379999999999789
 31
0.0
  0
LINE
  5
1D8
330
1E
100
AcDbEntity
  8
0
100
AcDbLine
 10
247.8147281728076
 20
0.0379999999999761
 30
0.0
 11
238.7357484949355
 21
0.0379999999999758
 31
0.0
  0
LINE
  5
1D9
330
1E
100
AcDbEntity
  8
0
100
AcDbLine
 10
238.7357484949355
 20
0.0379999999999758
 30
0.0
 11
228.0222968173702
 21
0.0379999999999756
 31
0.0
  0
LINE
  5
1DA
330
1E
100
AcDbEntity
  8
0
100
AcDbLine
 10
238.6945487169309
 20
5.03799999999998
 30
0.0
 11
227.9777040793851
 21
5.03799999999998
 31
0.0
  0
LINE
  5
1DB
330
1E
100
AcDbEntity
  8
0
100
AcDbLine
 10
238.6945487169309
 20
0.0379999999999789
 30
0.0
 11
227.9777040793851
 21
0.0379999999999791
 31
0.0
  0
LINE
  5
1DC
330
1E
100
AcDbEntity
  8
0
100
AcDbLine
 10
227.469801194741
 20
21.3525081970951
 30
0.0
 11
226.8299629207676
 21
17.6580407973628
 31
0.0
  0
LINE
  5
1DD
330
1E
100
AcDbEntity
  8
0
100
AcDbLine
 10
226.8299629207676
 20
17.6580407973628
 30
0.0
 11
226.7730361300492
 21
17.2501537632668
 31
0.0
  0
LINE
  5
1DE
330
1E
100
AcDbEntity
  8
0
100
AcDbLine
 10
229.1110025969583
 20
28.6685935677579
 30
0.0
 11
228.2304108752426
 21
25.0239718238888
 31
0.0
  0
LINE
  5
1DF
330
1E
100
AcDbEntity
  8
0
100
AcDbLine
 10
227.469801194741
 20
21.3525081970951
 30
0.0
 11
228.1597206072563
 21
24.6827247729293
 31
0.0
  0
LINE
  5
1E0
330
1E
100
AcDbEntity
  8
0
100
AcDbLine
 10
228.2304108752426
 20
25.0239718238888
 30
0.0
 11
228.1597206072563
 21
24.6827247729293
 31
0.0
  0
LINE
  5
1E1
330
1E
100
AcDbEntity
  8
0
100
AcDbLine
 10
230.0345701165621
 20
32.0074747622182
 30
0.0
 11
229.1110025969583
 21
28.6685935677579
 31
0.0
  0
LINE
  5
1E2
330
1E
100
AcDbEntity
  8
0
100
AcDbLine
 10
230.1106132183555
 20
32.2823797138432
 30
0.0
 11
230.0345701165621
 21
32.0074747622182
 31
0.0
  0
LINE
  5
1E3
330
1E
100
AcDbEntity
  8
0
100
AcDbLine
 10
247.9305715786336
 20
63.34395544298359
 30
0.0
 11
247.5245571527391
 21
63.6183985403381
 31
0.0
  0
LINE
  5
1E4
330
1E
100
AcDbEntity
  8
0
100
AcDbLine
 10
245.1676053447791
 20
63.63130195852221
 30
0.0
 11
244.758648305694
 21
63.3612977286924
 31
0.0
  0
LINE
  5
1E5
330
1E
100
AcDbEntity
  8
0
100
AcDbLine
 10
240.3344075030695
 20
56.3947897474594
 30
0.0
 11
238.5387430316259
 21
53.1031431048586
 31
0.0
  0
LINE
  5
1E6
330
1E
100
AcDbEntity
  8
0
100
AcDbLine
 10
248.2751922869358
 20
62.9954474366235
 30
0.0
 11
247.9305715786336
 21
63.34395544298359
 31
0.0
  0
LINE
  5
1E7
330
1E
100
AcDbEntity
  8
0
100
AcDbLine
 10
248.5452346446032
 20
62.58647844706279
 30
0.0
 11
248.2751922869358
 21
62.9954474366235
 31
0.0
  0
LINE
  5
1E8
330
1E
100
AcDbEntity
  8
0
100
AcDbLine
 10
248.7303056461089
 20
62.132719752731
 30
0.0
 11
248.5452346446032
 21
62.58647844706279
 31
0.0
  0
LINE
  5
1E9
330
1E
100
AcDbEntity
  8
0
100
AcDbLine
 10
248.8206003652618
 20
61.1614557707864
 30
0.0
 11
248.7223695565566
 21
60.68134137431179
 31
0.0
  0
LINE
  5
1EA
330
1E
100
AcDbEntity
  8
0
100
AcDbLine
 10
248.8232931723892
 20
61.65154928878589
 30
0.0
 11
248.7303056461089
 21
62.132719752731
 31
0.0
  0
LINE
  5
1EB
330
1E
100
AcDbEntity
  8
0
100
AcDbLine
 10
248.8232931723892
 20
61.65154928878589
 30
0.0
 11
248.8206003652618
 21
61.1614557707864
 31
0.0
  0
LINE
  5
1EC
330
1E
100
AcDbEntity
  8
0
100
AcDbLine
 10
242.2370442143824
 20
59.62583088438439
 30
0.0
 11
240.3344075030695
 21
56.3947897474594
 31
0.0
  0
LINE
  5
1ED
330
1E
100
AcDbEntity
  8
0
100
AcDbLine
 10
244.2446118121423
 20
62.7928155371183
 30
0.0
 11
242.2370442143824
 21
59.62583088438439
 31
0.0
  0
LINE
  5
1EE
330
1E
100
AcDbEntity
  8
0
100
AcDbLine
 10
244.758648305694
 20
63.3612977286924
 30
0.0
 11
244.41021319377
 21
63.0166753314373
 31
0.0
  0
LINE
  5
1EF
330
1E
100
AcDbEntity
  8
0
100
AcDbLine
 10
244.41021319377
 20
63.0166753314373
 30
0.0
 11
244.2446118121423
 21
62.7928155371183
 31
0.0
  0
LINE
  5
1F0
330
1E
100
AcDbEntity
  8
0
100
AcDbLine
 10
236.7986797119096
 20
49.63939029158689
 30
0.0
 11
235.2758567799112
 21
46.3521396144849
 31
0.0
  0
LINE
  5
1F1
330
1E
100
AcDbEntity
  8
0
100
AcDbLine
 10
233.7437483214214
 20
42.722763067513
 30
0.0
 11
232.4624678053436
 21
39.4019608631151
 31
0.0
  0
LINE
  5
1F2
330
1E
100
AcDbEntity
  8
0
100
AcDbLine
 10
235.214019871903
 20
46.2062980414991
 30
0.0
 11
233.8121651405236
 21
42.9000649239729
 31
0.0
  0
LINE
  5
1F3
330
1E
100
AcDbEntity
  8
0
100
AcDbLine
 10
233.8121651405236
 20
42.9000649239729
 30
0.0
 11
233.7437483214214
 21
42.722763067513
 31
0.0
  0
LINE
  5
1F4
330
1E
100
AcDbEntity
  8
0
100
AcDbLine
 10
235.2758567799112
 20
46.3521396144849
 30
0.0
 11
235.214019871903
 21
46.2062980414991
 31
0.0
  0
LINE
  5
1F5
330
1E
100
AcDbEntity
  8
0
100
AcDbLine
 10
232.389438995982
 20
39.1924855523003
 30
0.0
 11
231.2281458030565
 21
35.8613779201144
 31
0.0
  0
LINE
  5
1F6
330
1E
100
AcDbEntity
  8
0
100
AcDbLine
 10
231.2281458030565
 20
35.8613779201144
 30
0.0
 11
231.1526206683996
 21
35.6194936523085
 31
0.0
  0
LINE
  5
1F7
330
1E
100
AcDbEntity
  8
0
100
AcDbLine
 10
232.4624678053436
 20
39.4019608631151
 30
0.0
 11
232.389438995982
 21
39.1924855523003
 31
0.0
  0
LINE
  5
1F8
330
1E
100
AcDbEntity
  8
0
100
AcDbLine
 10
238.5387430316259
 20
53.1031431048586
 30
0.0
 11
236.8519487973033
 21
49.7543862631285
 31
0.0
  0
LINE
  5
1F9
330
1E
100
AcDbEntity
  8
0
100
AcDbLine
 10
236.8519487973033
 20
49.7543862631285
 30
0.0
 11
236.7986797119096
 21
49.63939029158689
 31
0.0
  0
LINE
  5
1FA
330
1E
100
AcDbEntity
  8
0
100
AcDbLine
 10
246.5926728458204
 20
63.9066642283103
 30
0.0
 11
246.102613168535
 21
63.90940942129329
 31
0.0
  0
LINE
  5
1FB
330
1E
100
AcDbEntity
  8
0
100
AcDbLine
 10
247.5245571527391
 20
63.6183985403381
 30
0.0
 11
247.0728293734127
 21
63.80848311377921
 31
0.0
  0
LINE
  5
1FC
330
1E
100
AcDbEntity
  8
0
100
AcDbLine
 10
247.0728293734127
 20
63.80848311377921
 30
0.0
 11
246.5926728458204
 21
63.9066642283103
 31
0.0
  0
LINE
  5
1FD
330
1E
100
AcDbEntity
  8
0
100
AcDbLine
 10
245.6214059300307
 20
63.8163600158189
 30
0.0
 11
245.1676053447791
 21
63.63130195852221
 31
0.0
  0
LINE
  5
1FE
330
1E
100
AcDbEntity
  8
0
100
AcDbLine
 10
246.102613168535
 20
63.90940942129329
 30
0.0
 11
245.6214059300307
 21
63.8163600158189
 31
0.0
  0
LINE
  5
1FF
330
1E
100
AcDbEntity
  8
0
100
AcDbLine
 10
208.1852718339258
 20
5.03799999999998
 30
0.0
 11
202.1228354437417
 21
5.03799999999998
 31
0.0
  0
LINE
  5
200
330
1E
100
AcDbEntity
  8
0
100
AcDbLine
 10
208.1852718339258
 20
0.0379999999999786
 30
0.0
 11
202.1228354437417
 21
0.037999999999978
 31
0.0
  0
LINE
  5
201
330
1E
100
AcDbEntity
  8
0
100
AcDbLine
 10
208.2168047280525
 20
0.0379999999999761
 30
0.0
 11
202.1399009672362
 21
0.0379999999999767
 31
0.0
  0
LINE
  5
202
330
1E
100
AcDbEntity
  8
0
100
AcDbLine
 10
222.9705217022869
 20
6.07878847173313
 30
0.0
 11
222.0447383663473
 21
5.753244295378879
 31
0.0
  0
LINE
  5
203
330
1E
100
AcDbEntity
  8
0
100
AcDbLine
 10
217.264251511798
 20
5.03799999999998
 30
0.0
 11
208.1852718339258
 21
5.03799999999998
 31
0.0
  0
LINE
  5
204
330
1E
100
AcDbEntity
  8
0
100
AcDbLine
 10
217.264251511798
 20
0.0379999999999789
 30
0.0
 11
208.1852718339258
 21
0.0379999999999786
 31
0.0
  0
LINE
  5
205
330
1E
100
AcDbEntity
  8
0
100
AcDbLine
 10
217.3054512452083
 20
0.0379999999999758
 30
0.0
 11
208.2168047280525
 21
0.0379999999999761
 31
0.0
  0
LINE
  5
206
330
1E
100
AcDbEntity
  8
0
100
AcDbLine
 10
222.0447383663473
 20
5.753244295378879
 30
0.0
 11
220.6926196588761
 21
5.055816231393691
 31
0.0
  0
LINE
  5
207
330
1E
100
AcDbEntity
  8
0
100
AcDbLine
 10
226.3116202493221
 20
13.94463721960289
 30
0.0
 11
225.9152890384587
 21
10.21619921272939
 31
0.0
  0
LINE
  5
208
330
1E
100
AcDbEntity
  8
0
100
AcDbLine
 10
223.9237511601035
 20
6.31202183699129
 30
0.0
 11
222.9705217022869
 21
6.07878847173313
 31
0.0
  0
LINE
  5
209
330
1E
100
AcDbEntity
  8
0
100
AcDbLine
 10
225.9152890384587
 20
10.21619921272939
 30
0.0
 11
225.6414124908116
 21
6.476766119893129
 31
0.0
  0
LINE
  5
20A
330
1E
100
AcDbEntity
  8
0
100
AcDbLine
 10
225.6414124908116
 20
6.476766119893129
 30
0.0
 11
224.895262433342
 21
6.450694124961069
 31
0.0
  0
LINE
  5
20B
330
1E
100
AcDbEntity
  8
0
100
AcDbLine
 10
224.895262433342
 20
6.450694124961069
 30
0.0
 11
223.9237511601035
 21
6.31202183699129
 31
0.0
  0
LINE
  5
20C
330
1E
100
AcDbEntity
  8
0
100
AcDbLine
 10
200.0000088812754
 20
5.03799999999998
 30
0.0
 11
200.0000088812754
 21
0.0379999999999776
 31
0.0
  0
LINE
  5
20D
330
1E
100
AcDbEntity
  8
0
100
AcDbLine
 10
200.0000088812754
 20
0.0379999999999774
 30
0.0
 11
200.0000088812754
 21
5.03799999999998
 31
0.0
  0
LINE
  5
20E
330
1E
100
AcDbEntity
  8
0
100
AcDbLine
 10
202.1228354437417
 20
0.037999999999978
 30
0.0
 11
200.0000088812754
 21
0.0379999999999774
 31
0.0
  0
LINE
  5
20F
330
1E
100
AcDbEntity
  8
0
100
AcDbLine
 10
202.1399009672362
 20
0.0379999999999767
 30
0.0
 11
200.0000088812754
 21
0.0379999999999774
 31
0.0
  0
LINE
  5
210
330
1E
100
AcDbEntity
  8
0
100
AcDbLine
 10
202.1228354437417
 20
5.03799999999998
 30
0.0
 11
200.0000088812754
 21
5.03799999999998
 31
0.0
  0
ENDSEC
  0
SECTION
  2
OBJECTS
  0
DICTIONARY
  5
C
330
0
100
AcDbDictionary
  3
ACAD_GROUP
350
D
  3
ACAD_LAYOUT
350
19
  3
ACAD_MLINESTYLE
350
16
  3
ACAD_PLOTSETTINGS
350
18
  3
ACAD_PLOTSTYLENAME
350
E
  3
ACDBHEADERROUNDTRIPXREC
350
239
  3
ACDBVARIABLEDICTIONARY
350
211
  0
DICTIONARY
  5
25B
330
1E
100
AcDbDictionary
280
     1
  3
ACAD_LAYOUTSELFREF
360
25C
  0
DICTIONARY
  5
259
330
1A
100
AcDbDictionary
280
     1
  3
ACAD_LAYOUTSELFREF
360
25A
  0
DICTIONARY
  5
D
102
{ACAD_REACTORS
330
C
102
}
330
C
100
AcDbDictionary
  0
DICTIONARY
  5
19
102
{ACAD_REACTORS
330
C
102
}
330
C
100
AcDbDictionary
  0
DICTIONARY
  5
16
102
{ACAD_REACTORS
330
C
102
}
330
C
100
AcDbDictionary
  3
STANDARD
350
17
  0
DICTIONARY
  5
18
102
{ACAD_REACTORS
330
C
102
}
330
C
100
AcDbDictionary
  0
ACDBDICTIONARYWDFLT
  5
E
102
{ACAD_REACTORS
330
C
102
}
330
C
100
AcDbDictionary
281
     1
  3
Normal
350
F
100
AcDbDictionaryWithDefault
340
F
  0
DICTIONARY
  5
239
102
{ACAD_REACTORS
330
C
102
}
330
C
100
AcDbDictionary
  3
CEPSNTYPE
350
243
  3
FINGERPRINTGUID
350
244
  3
HYPERLINKBASE
350
23C
  3
INSUNITS
350
242
  3
LAYOUTDICT
350
23E
  3
LWETCUNION
350
241
  3
PLOTSETDICT
350
23F
  3
PLOTSTYLNAMDICT
350
240
  3
PSVPSCALE
350
246
  3
PUCSBASE
350
249
  3
PUCSORGBACK
350
24F
  3
PUCSORGBOTTOM
350
24B
  3
PUCSORGFRONT
350
24E
  3
PUCSORGLEFT
350
24C
  3
PUCSORGRIGHT
350
24D
  3
PUCSORGTOP
350
24A
  3
PUCSORTHOREF
350
247
  3
PUCSORTHOVIEW
350
248
  3
STYLESHEET
350
23D
  3
TSTACKALIGN
350
23A
  3
TSTACKSIZE
350
23B
  3
UCSBASE
350
252
  3
UCSORGBACK
350
258
  3
UCSORGBOTTOM
350
254
  3
UCSORGFRONT
350
257
  3
UCSORGLEFT
350
255
  3
UCSORGRIGHT
350
256
  3
UCSORGTOP
350
253
  3
UCSORTHOREF
350
250
  3
UCSORTHOVIEW
350
251
  3
VERSIONGUID
350
245
  0
DICTIONARY
  5
211
102
{ACAD_REACTORS
330
C
102
}
330
C
100
AcDbDictionary
  3
DIMASSOC
350
212
  0
XRECORD
  5
25C
102
{ACAD_REACTORS
330
25B
102
}
330
25B
100
AcDbXrecord
340
1E
  0
XRECORD
  5
25A
102
{ACAD_REACTORS
330
259
102
}
330
259
100
AcDbXrecord
340
1A
  0
MLINESTYLE
  5
17
102
{ACAD_REACTORS
330
16
102
}
330
16
100
AcDbMlineStyle
  2
STANDARD
 70
     0
  3

 62
   256
 51
90.0
 52
90.0
 71
     2
 49
0.5
 62
   256
  6
BYLAYER
 49
-0.5
 62
   256
  6
BYLAYER
  0
ACDBPLACEHOLDER
  5
F
102
{ACAD_REACTORS
330
E
102
}
330
E
100
AcDbPlaceHolder
280
     0
  0
XRECORD
  5
243
102
{ACAD_REACTORS
330
239
102
}
330
239
100
AcDbXrecord
 90
        0
  0
XRECORD
  5
244
102
{ACAD_REACTORS
330
239
102
}
330
239
100
AcDbXrecord
  1
{07E13FFA-D86B-4334-9904-DBD0B9F0ADA1}
  0
XRECORD
  5
23C
102
{ACAD_REACTORS
330
239
102
}
330
239
100
AcDbXrecord
  1

  0
XRECORD
  5
242
102
{ACAD_REACTORS
330
239
102
}
330
239
100
AcDbXrecord
 90
        0
  0
XRECORD
  5
23E
102
{ACAD_REACTORS
330
239
102
}
330
239
100
AcDbXrecord
340
19
  0
XRECORD
  5
241
102
{ACAD_REACTORS
330
239
102
}
330
239
100
AcDbXrecord
 90
    10781
  0
XRECORD
  5
23F
102
{ACAD_REACTORS
330
239
102
}
330
239
100
AcDbXrecord
340
18
  0
XRECORD
  5
240
102
{ACAD_REACTORS
330
239
102
}
330
239
100
AcDbXrecord
340
E
  0
XRECORD
  5
246
102
{ACAD_REACTORS
330
239
102
}
330
239
100
AcDbXrecord
 40
0.0
  0
XRECORD
  5
249
102
{ACAD_REACTORS
330
239
102
}
330
239
100
AcDbXrecord
340
0
  0
XRECORD
  5
24F
102
{ACAD_REACTORS
330
239
102
}
330
239
100
AcDbXrecord
 10
0.0
 20
0.0
 30
0.0
  0
XRECORD
  5
24B
102
{ACAD_REACTORS
330
239
102
}
330
239
100
AcDbXrecord
 10
0.0
 20
0.0
 30
0.0
  0
XRECORD
  5
24E
102
{ACAD_REACTORS
330
239
102
}
330
239
100
AcDbXrecord
 10
0.0
 20
0.0
 30
0.0
  0
XRECORD
  5
24C
102
{ACAD_REACTORS
330
239
102
}
330
239
100
AcDbXrecord
 10
0.0
 20
0.0
 30
0.0
  0
XRECORD
  5
24D
102
{ACAD_REACTORS
330
239
102
}
330
239
100
AcDbXrecord
 10
0.0
 20
0.0
 30
0.0
  0
XRECORD
  5
24A
102
{ACAD_REACTORS
330
239
102
}
330
239
100
AcDbXrecord
 10
0.0
 20
0.0
 30
0.0
  0
XRECORD
  5
247
102
{ACAD_REACTORS
330
239
102
}
330
239
100
AcDbXrecord
340
0
  0
XRECORD
  5
248
102
{ACAD_REACTORS
330
239
102
}
330
239
100
AcDbXrecord
 70
     0
  0
XRECORD
  5
23D
102
{ACAD_REACTORS
330
239
102
}
330
239
100
AcDbXrecord
  1

  0
XRECORD
  5
23A
102
{ACAD_REACTORS
330
239
102
}
330
239
100
AcDbXrecord
 90
        1
  0
XRECORD
  5
23B
102
{ACAD_REACTORS
330
239
102
}
330
239
100
AcDbXrecord
 90
       70
  0
XRECORD
  5
252
102
{ACAD_REACTORS
330
239
102
}
330
239
100
AcDbXrecord
340
0
  0
XRECORD
  5
258
102
{ACAD_REACTORS
330
239
102
}
330
239
100
AcDbXrecord
 10
0.0
 20
0.0
 30
0.0
  0
XRECORD
  5
254
102
{ACAD_REACTORS
330
239
102
}
330
239
100
AcDbXrecord
 10
0.0
 20
0.0
 30
0.0
  0
XRECORD
  5
257
102
{ACAD_REACTORS
330
239
102
}
330
239
100
AcDbXrecord
 10
0.0
 20
0.0
 30
0.0
  0
XRECORD
  5
255
102
{ACAD_REACTORS
330
239
102
}
330
239
100
AcDbXrecord
 10
0.0
 20
0.0
 30
0.0
  0
XRECORD
  5
256
102
{ACAD_REACTORS
330
239
102
}
330
239
100
AcDbXrecord
 10
0.0
 20
0.0
 30
0.0
  0
XRECORD
  5
253
102
{ACAD_REACTORS
330
239
102
}
330
239
100
AcDbXrecord
 10
0.0
 20
0.0
 30
0.0
  0
XRECORD
  5
250
102
{ACAD_REACTORS
330
239
102
}
330
239
100
AcDbXrecord
340
0
  0
XRECORD
  5
251
102
{ACAD_REACTORS
330
239
102
}
330
239
100
AcDbXrecord
 70
     1
  0
XRECORD
  5
245
102
{ACAD_REACTORS
330
239
102
}
330
239
100
AcDbXrecord
  1
{D71D623B-CF94-4159-BD22-C1CDF90AB764}
  0
DICTIONARYVAR
  5
212
102
{ACAD_REACTORS
330
211
102
}
330
211
100
DictionaryVariables
280
     0
  1
1
  0
ENDSEC
  0
EOF
