  0
SECTION
  2
HEADER
  9
$ACADVER
  1
AC1014
  9
$ACADMAINTVER
 70
     9
  9
$DWGCODEPAGE
  3
ANSI_1252
  9
$INSBASE
 10
0.0
 20
0.0
 30
0.0
  9
$EXTMIN
 10
-0.0000000000000026
 20
0.154376184142771
 30
0.0
  9
$EXTMAX
 10
48.0
 20
134.598770052227
 30
0.0
  9
$LIMMIN
 10
0.0
 20
0.0
  9
$LIMMAX
 10
12.0
 20
9.0
  9
$ORTHOMODE
 70
     0
  9
$REGENMODE
 70
     1
  9
$FILLMODE
 70
     1
  9
$QTEXTMODE
 70
     0
  9
$MIRRTEXT
 70
     1
  9
$DRAGMODE
 70
     2
  9
$LTSCALE
 40
1.0
  9
$OSMODE
 70
    37
  9
$ATTMODE
 70
     1
  9
$TEXTSIZE
 40
0.2
  9
$TRACEWID
 40
0.05
  9
$TEXTSTYLE
  7
STANDARD
  9
$CLAYER
  8
0
  9
$CELTYPE
  6
CONTINUOUS
  9
$CECOLOR
 62
   256
  9
$CELTSCALE
 40
1.0
  9
$DELOBJ
 70
     1
  9
$DISPSILH
 70
     0
  9
$DIMSCALE
 40
1.0
  9
$DIMASZ
 40
0.18
  9
$DIMEXO
 40
0.0625
  9
$DIMDLI
 40
0.38
  9
$DIMRND
 40
0.0
  9
$DIMDLE
 40
0.0
  9
$DIMEXE
 40
0.18
  9
$DIMTP
 40
0.0
  9
$DIMTM
 40
0.0
  9
$DIMTXT
 40
0.18
  9
$DIMCEN
 40
0.09
  9
$DIMTSZ
 40
0.0
  9
$DIMTOL
 70
     0
  9
$DIMLIM
 70
     0
  9
$DIMTIH
 70
     1
  9
$DIMTOH
 70
     1
  9
$DIMSE1
 70
     0
  9
$DIMSE2
 70
     0
  9
$DIMTAD
 70
     0
  9
$DIMZIN
 70
     0
  9
$DIMBLK
  1

  9
$DIMASO
 70
     1
  9
$DIMSHO
 70
     1
  9
$DIMPOST
  1

  9
$DIMAPOST
  1

  9
$DIMALT
 70
     0
  9
$DIMALTD
 70
     2
  9
$DIMALTF
 40
25.4
  9
$DIMLFAC
 40
1.0
  9
$DIMTOFL
 70
     0
  9
$DIMTVP
 40
0.0
  9
$DIMTIX
 70
     0
  9
$DIMSOXD
 70
     0
  9
$DIMSAH
 70
     0
  9
$DIMBLK1
  1

  9
$DIMBLK2
  1

  9
$DIMSTYLE
  2
STANDARD
  9
$DIMCLRD
 70
     0
  9
$DIMCLRE
 70
     0
  9
$DIMCLRT
 70
     0
  9
$DIMTFAC
 40
1.0
  9
$DIMGAP
 40
0.09
  9
$DIMJUST
 70
     0
  9
$DIMSD1
 70
     0
  9
$DIMSD2
 70
     0
  9
$DIMTOLJ
 70
     1
  9
$DIMTZIN
 70
     0
  9
$DIMALTZ
 70
     0
  9
$DIMALTTZ
 70
     0
  9
$DIMFIT
 70
     3
  9
$DIMUPT
 70
     0
  9
$DIMUNIT
 70
     2
  9
$DIMDEC
 70
     4
  9
$DIMTDEC
 70
     4
  9
$DIMALTU
 70
     2
  9
$DIMALTTD
 70
     2
  9
$DIMTXSTY
  7
STANDARD
  9
$DIMAUNIT
 70
     0
  9
$LUNITS
 70
     2
  9
$LUPREC
 70
     4
  9
$SKETCHINC
 40
0.1
  9
$FILLETRAD
 40
0.0
  9
$AUNITS
 70
     0
  9
$AUPREC
 70
     0
  9
$MENU
  1
.
  9
$ELEVATION
 40
0.0
  9
$PELEVATION
 40
0.0
  9
$THICKNESS
 40
0.0
  9
$LIMCHECK
 70
     0
  9
$BLIPMODE
 70
     0
  9
$CHAMFERA
 40
0.0
  9
$CHAMFERB
 40
0.0
  9
$CHAMFERC
 40
0.0
  9
$CHAMFERD
 40
0.0
  9
$SKPOLY
 70
     0
  9
$TDCREATE
 40
2454690.723590127
  9
$TDUPDATE
 40
2454690.732097801
  9
$TDINDWG
 40
0.0064662963
  9
$TDUSRTIMER
 40
0.0064662963
  9
$USRTIMER
 70
     1
  9
$ANGBASE
 50
0.0
  9
$ANGDIR
 70
     0
  9
$PDMODE
 70
     0
  9
$PDSIZE
 40
0.0
  9
$PLINEWID
 40
0.0
  9
$COORDS
 70
     1
  9
$SPLFRAME
 70
     0
  9
$SPLINETYPE
 70
     6
  9
$SPLINESEGS
 70
     8
  9
$ATTDIA
 70
     0
  9
$ATTREQ
 70
     1
  9
$HANDLING
 70
 22529
  9
$HANDSEED
  5
245
  9
$SURFTAB1
 70
     6
  9
$SURFTAB2
 70
     6
  9
$SURFTYPE
 70
     6
  9
$SURFU
 70
     6
  9
$SURFV
 70
     6
  9
$UCSNAME
  2

  9
$UCSORG
 10
0.0
 20
0.0
 30
0.0
  9
$UCSXDIR
 10
1.0
 20
0.0
 30
0.0
  9
$UCSYDIR
 10
0.0
 20
1.0
 30
0.0
  9
$PUCSNAME
  2

  9
$PUCSORG
 10
0.0
 20
0.0
 30
0.0
  9
$PUCSXDIR
 10
1.0
 20
0.0
 30
0.0
  9
$PUCSYDIR
 10
0.0
 20
1.0
 30
0.0
  9
$USERI1
 70
     0
  9
$USERI2
 70
     0
  9
$USERI3
 70
     0
  9
$USERI4
 70
     0
  9
$USERI5
 70
     0
  9
$USERR1
 40
0.0
  9
$USERR2
 40
0.0
  9
$USERR3
 40
0.0
  9
$USERR4
 40
0.0
  9
$USERR5
 40
0.0
  9
$WORLDVIEW
 70
     1
  9
$SHADEDGE
 70
     3
  9
$SHADEDIF
 70
    70
  9
$TILEMODE
 70
     1
  9
$MAXACTVP
 70
    64
  9
$PINSBASE
 10
0.0
 20
0.0
 30
0.0
  9
$PLIMCHECK
 70
     0
  9
$PEXTMIN
 10
1.000000000000000E+20
 20
1.000000000000000E+20
 30
1.000000000000000E+20
  9
$PEXTMAX
 10
-1.000000000000000E+20
 20
-1.000000000000000E+20
 30
-1.000000000000000E+20
  9
$PLIMMIN
 10
0.0
 20
0.0
  9
$PLIMMAX
 10
12.0
 20
9.0
  9
$UNITMODE
 70
     0
  9
$VISRETAIN
 70
     1
  9
$PLINEGEN
 70
     0
  9
$PSLTSCALE
 70
     1
  9
$TREEDEPTH
 70
  3020
  9
$PICKSTYLE
 70
     1
  9
$CMLSTYLE
  2
STANDARD
  9
$CMLJUST
 70
     0
  9
$CMLSCALE
 40
1.0
  9
$PROXYGRAPHICS
 70
     1
  9
$MEASUREMENT
 70
     0
  0
ENDSEC
  0
SECTION
  2
CLASSES
  0
CLASS
  1
ACDBDICTIONARYWDFLT
  2
AcDbDictionaryWithDefault
  3
AutoCAD 2000
 90
        0
280
     0
281
     0
  0
CLASS
  1
ACDBPLACEHOLDER
  2
AcDbPlaceHolder
  3
AutoCAD 2000
 90
        0
280
     0
281
     0
  0
CLASS
  1
LAYOUT
  2
AcDbLayout
  3
AutoCAD 2000
 90
        0
280
     0
281
     0
  0
CLASS
  1
DICTIONARYVAR
  2
AcDbDictionaryVar
  3
AutoCAD 2000
 90
        0
280
     0
281
     0
  0
CLASS
  1
LONG_TRANSACTION
  2
AcDbLongTransaction
  3
AutoCAD 2000
 90
        0
280
     0
281
     0
  0
CLASS
  1
LWPOLYLINE
  2
AcDbPolyline
  3
AutoCAD 2000
 90
        0
280
     0
281
     1
  0
CLASS
  1
HATCH
  2
AcDbHatch
  3
AutoCAD 2000
 90
        0
280
     0
281
     1
  0
CLASS
  1
XRECORD
  2
AcDbXrecord
  3
AutoCAD 2000
 90
        0
280
     0
281
     0
  0
CLASS
  1
LONG_TRANSACTION
  2
AcDbLongTransaction
  3
AutoCAD 2000
 90
        0
280
     0
281
     0
  0
CLASS
  1
LWPOLYLINE
  2
AcDbPolyline
  3
AutoCAD 2000
 90
        0
280
     0
281
     1
  0
CLASS
  1
HATCH
  2
AcDbHatch
  3
AutoCAD 2000
 90
        0
280
     0
281
     1
  0
CLASS
  1
XRECORD
  2
AcDbXrecord
  3
AutoCAD 2000
 90
        0
280
     0
281
     0
  0
ENDSEC
  0
SECTION
  2
TABLES
  0
TABLE
  2
VPORT
  5
8
330
0
100
AcDbSymbolTable
 70
     3
  0
VPORT
  5
222
330
8
100
AcDbSymbolTableRecord
100
AcDbViewportTableRecord
  2
*ACTIVE
 70
     0
 10
0.0
 20
0.0
 11
1.0
 21
1.0
 12
23.99999999999999
 22
67.37657311818489
 13
0.0
 23
0.0
 14
1.0
 24
1.0
 15
0.0
 25
0.0
 16
0.0
 26
0.0
 36
1.0
 17
0.0
 27
0.0
 37
0.0
 40
135.4759365320337
 41
2.043533930857874
 42
50.0
 43
0.0
 44
0.0
 50
0.0
 51
0.0
 71
     0
 72
   100
 73
     1
 74
     3
 75
     0
 76
     0
 77
     0
 78
     0
  0
ENDTAB
  0
TABLE
  2
LTYPE
  5
5
330
0
100
AcDbSymbolTable
 70
     1
  0
LTYPE
  5
13
330
5
100
AcDbSymbolTableRecord
100
AcDbLinetypeTableRecord
  2
BYBLOCK
 70
     0
  3

 72
    65
 73
     0
 40
0.0
  0
LTYPE
  5
14
330
5
100
AcDbSymbolTableRecord
100
AcDbLinetypeTableRecord
  2
BYLAYER
 70
     0
  3

 72
    65
 73
     0
 40
0.0
  0
LTYPE
  5
15
330
5
100
AcDbSymbolTableRecord
100
AcDbLinetypeTableRecord
  2
CONTINUOUS
 70
     0
  3
Solid line
 72
    65
 73
     0
 40
0.0
  0
ENDTAB
  0
TABLE
  2
LAYER
  5
2
330
0
100
AcDbSymbolTable
 70
     1
  0
LAYER
  5
10
330
2
100
AcDbSymbolTableRecord
100
AcDbLayerTableRecord
  2
0
 70
     0
 62
     7
  6
CONTINUOUS
  0
ENDTAB
  0
TABLE
  2
STYLE
  5
3
330
0
100
AcDbSymbolTable
 70
     1
  0
STYLE
  5
11
330
3
100
AcDbSymbolTableRecord
100
AcDbTextStyleTableRecord
  2
STANDARD
 70
     0
 40
0.0
 41
1.0
 50
0.0
 71
     0
 42
0.2
  3
txt
  4

  0
ENDTAB
  0
TABLE
  2
VIEW
  5
6
330
0
100
AcDbSymbolTable
 70
     0
  0
ENDTAB
  0
TABLE
  2
UCS
  5
7
330
0
100
AcDbSymbolTable
 70
     0
  0
ENDTAB
  0
TABLE
  2
APPID
  5
9
330
0
100
AcDbSymbolTable
 70
     1
  0
APPID
  5
12
330
9
100
AcDbSymbolTableRecord
100
AcDbRegAppTableRecord
  2
ACAD
 70
     0
  0
ENDTAB
  0
TABLE
  2
DIMSTYLE
  5
A
330
0
100
AcDbSymbolTable
 70
     1
  0
DIMSTYLE
105
1CD
330
A
100
AcDbSymbolTableRecord
100
AcDbDimStyleTableRecord
  2
STANDARD
 70
     0
  3

  4

  5

  6

  7

 40
1.0
 41
0.18
 42
0.0625
 43
0.38
 44
0.18
 45
0.0
 46
0.0
 47
0.0
 48
0.0
140
0.18
141
0.09
142
0.0
143
25.4
144
1.0
145
0.0
146
1.0
147
0.09
 71
     0
 72
     0
 73
     1
 74
     1
 75
     0
 76
     0
 77
     0
 78
     0
170
     0
171
     2
172
     0
173
     0
174
     0
175
     0
176
     0
177
     0
178
     0
270
     2
271
     4
272
     4
273
     2
274
     2
340
11
275
     0
280
     0
281
     0
282
     0
283
     1
284
     0
285
     0
286
     0
287
     3
288
     0
  0
ENDTAB
  0
TABLE
  2
BLOCK_RECORD
  5
1
330
0
100
AcDbSymbolTable
 70
     0
  0
BLOCK_RECORD
  5
1E
102
{ACAD_XDICTIONARY
360
1F7
102
}
330
1
100
AcDbSymbolTableRecord
100
AcDbBlockTableRecord
  2
*MODEL_SPACE
  0
BLOCK_RECORD
  5
1A
102
{ACAD_XDICTIONARY
360
1F5
102
}
330
1
100
AcDbSymbolTableRecord
100
AcDbBlockTableRecord
  2
*PAPER_SPACE
  0
ENDTAB
  0
ENDSEC
  0
SECTION
  2
BLOCKS
  0
BLOCK
  5
1F
330
1E
100
AcDbEntity
  8
0
100
AcDbBlockBegin
  2
*MODEL_SPACE
 70
     0
 10
0.0
 20
0.0
 30
0.0
  3
*MODEL_SPACE
  1

  0
ENDBLK
  5
20
330
1E
100
AcDbEntity
  8
0
100
AcDbBlockEnd
  0
BLOCK
  5
1B
330
1A
100
AcDbEntity
 67
     1
  8
0
100
AcDbBlockBegin
  2
*PAPER_SPACE
 70
     0
 10
0.0
 20
0.0
 30
0.0
  3
*PAPER_SPACE
  1

  0
ENDBLK
  5
1C
330
1A
100
AcDbEntity
 67
     1
  8
0
100
AcDbBlockEnd
  0
ENDSEC
  0
SECTION
  2
ENTITIES
  0
LINE
  5
22
330
1E
100
AcDbEntity
  8
0
100
AcDbLine
 10
-0.0000000000000026
 20
110.8436354058569
 30
0.0
 11
-0.0000000000000026
 21
110.740520405857
 31
0.0
  0
LINE
  5
23
330
1E
100
AcDbEntity
  8
0
100
AcDbLine
 10
-0.0000000000000026
 20
110.8436354058569
 30
0.0
 11
0.461199999999999
 21
115.5258054058569
 31
0.0
  0
LINE
  5
24
330
1E
100
AcDbEntity
  8
0
100
AcDbLine
 10
-0.0000000000000026
 20
110.740520405857
 30
0.0
 11
-0.0000000000000026
 21
110.8436354058569
 31
0.0
  0
LINE
  5
27
330
1E
100
AcDbEntity
  8
0
100
AcDbLine
 10
-0.0000000000000026
 20
110.7241964058569
 30
0.0
 11
0.461199999999999
 21
106.0420254058569
 31
0.0
  0
LINE
  5
28
330
1E
100
AcDbEntity
  8
0
100
AcDbLine
 10
0.461199999999999
 20
106.0420254058569
 30
0.0
 11
1.8269
 21
101.539795405857
 31
0.0
  0
LINE
  5
29
330
1E
100
AcDbEntity
  8
0
100
AcDbLine
 10
1.8269
 20
101.539795405857
 30
0.0
 11
4.04469999999999
 21
97.39053540585722
 31
0.0
  0
LINE
  5
2A
330
1E
100
AcDbEntity
  8
0
100
AcDbLine
 10
0.461199999999999
 20
106.0420254058569
 30
0.0
 11
1.8269
 21
101.539795405857
 31
0.0
  0
LINE
  5
2B
330
1E
100
AcDbEntity
  8
0
100
AcDbLine
 10
-0.0000000000000026
 20
110.7241964058569
 30
0.0
 11
0.461199999999999
 21
106.0420254058569
 31
0.0
  0
LINE
  5
2D
330
1E
100
AcDbEntity
  8
0
100
AcDbLine
 10
-0.0000000000000026
 20
110.8436354058569
 30
0.0
 11
0.461199999999999
 21
115.5258054058569
 31
0.0
  0
LINE
  5
35
330
1E
100
AcDbEntity
  8
0
100
AcDbLine
 10
0.461199999999999
 20
115.5258054058569
 30
0.0
 11
1.8269
 21
120.028035405857
 31
0.0
  0
LINE
  5
36
330
1E
100
AcDbEntity
  8
0
100
AcDbLine
 10
0.461199999999999
 20
115.5258054058569
 30
0.0
 11
1.8269
 21
120.028035405857
 31
0.0
  0
LINE
  5
37
330
1E
100
AcDbEntity
  8
0
100
AcDbLine
 10
1.8269
 20
120.028035405857
 30
0.0
 11
4.04469999999999
 21
124.177335405857
 31
0.0
  0
LINE
  5
3C
330
1E
100
AcDbEntity
  8
0
100
AcDbLine
 10
7.02939999999999
 20
93.7536354058572
 30
0.0
 11
10.66629999999999
 21
90.7689354058572
 31
0.0
  0
LINE
  5
3E
330
1E
100
AcDbEntity
  8
0
100
AcDbLine
 10
4.04469999999999
 20
97.39053540585722
 30
0.0
 11
7.02939999999999
 21
93.7536354058572
 31
0.0
  0
LINE
  5
40
330
1E
100
AcDbEntity
  8
0
100
AcDbLine
 10
4.04469999999999
 20
124.177335405857
 30
0.0
 11
7.02939999999999
 21
127.8142354058569
 31
0.0
  0
LINE
  5
41
330
1E
100
AcDbEntity
  8
0
100
AcDbLine
 10
7.02939999999999
 20
127.8142354058569
 30
0.0
 11
10.66629999999999
 21
130.7989354058569
 31
0.0
  0
LINE
  5
46
330
1E
100
AcDbEntity
  8
0
100
AcDbLine
 10
9.992599999999999
 20
7.17379920187288
 30
0.0
 11
10.0
 21
15.2533663327989
 31
0.0
  0
LINE
  5
47
330
1E
100
AcDbEntity
  8
0
100
AcDbLine
 10
9.992599999999999
 20
7.17379920187288
 30
0.0
 11
11.0582
 21
4.49055343562216
 31
0.0
  0
LINE
  5
48
330
1E
100
AcDbEntity
  8
0
100
AcDbLine
 10
11.0582
 20
4.49055343562216
 30
0.0
 11
14.09297999999999
 21
2.214332052726009
 31
0.0
  0
LINE
  5
49
330
1E
100
AcDbEntity
  8
0
100
AcDbLine
 10
14.09297999999999
 20
2.214332052726009
 30
0.0
 11
18.63488
 21
0.69167340201068
 31
0.0
  0
LINE
  5
4A
330
1E
100
AcDbEntity
  8
0
100
AcDbLine
 10
14.10041
 20
10.2938935620665
 30
0.0
 11
18.64232
 21
8.771206097703139
 31
0.0
  0
LINE
  5
4B
330
1E
100
AcDbEntity
  8
0
100
AcDbLine
 10
10.0
 20
15.2533663327989
 30
0.0
 11
11.06559999999999
 21
12.5701173903924
 31
0.0
  0
LINE
  5
4C
330
1E
100
AcDbEntity
  8
0
100
AcDbLine
 10
10.0
 20
15.2533663327989
 30
0.0
 11
10.0724112074619
 21
15.43556735291868
 31
0.0
  0
LINE
  5
4D
330
1E
100
AcDbEntity
  8
0
100
AcDbLine
 10
11.06559999999999
 20
12.5701173903924
 30
0.0
 11
14.10041
 21
10.2938935620665
 31
0.0
  0
LINE
  5
4E
330
1E
100
AcDbEntity
  8
0
100
AcDbLine
 10
10.0
 20
15.61783540585718
 30
0.0
 11
10.02909999999999
 21
88.9759354058572
 31
0.0
  0
LINE
  5
53
330
1E
100
AcDbEntity
  8
0
100
AcDbLine
 10
10.0
 20
15.61783540585718
 30
0.0
 11
11.0657
 21
12.9353354058572
 31
0.0
  0
LINE
  5
54
330
1E
100
AcDbEntity
  8
0
100
AcDbLine
 10
10.0
 20
15.61783540585718
 30
0.0
 11
10.02909999999999
 21
88.9759354058572
 31
0.0
  0
LINE
  5
58
330
1E
100
AcDbEntity
  8
0
100
AcDbLine
 10
11.0657
 20
12.9353354058572
 30
0.0
 11
14.10051
 21
10.66163540585719
 31
0.0
  0
LINE
  5
5A
330
1E
100
AcDbEntity
  8
0
100
AcDbLine
 10
14.10051
 20
10.66163540585719
 30
0.0
 11
18.64242999999998
 21
9.141635405857226
 31
0.0
  0
LINE
  5
5C
330
1E
100
AcDbEntity
  8
0
100
AcDbLine
 10
8.3086
 20
92.5979354058572
 30
0.0
 11
9.56480202543333
 21
90.903850750552
 31
0.0
  0
LINE
  5
5D
330
1E
100
AcDbEntity
  8
0
100
AcDbLine
 10
9.56480202543333
 20
90.903850750552
 30
0.0
 11
10.02909999999999
 21
88.9759354058572
 31
0.0
  0
LINE
  5
5F
330
1E
100
AcDbEntity
  8
0
100
AcDbLine
 10
7.200033864670229
 20
93.61360106455521
 30
0.0
 11
8.3086
 21
92.5979354058572
 31
0.0
  0
LINE
  5
61
330
1E
100
AcDbEntity
  8
0
100
AcDbLine
 10
10.66629999999999
 20
90.7689354058572
 30
0.0
 11
14.81559999999999
 21
88.55113540585717
 31
0.0
  0
LINE
  5
63
330
1E
100
AcDbEntity
  8
0
100
AcDbLine
 10
10.66629999999999
 20
130.7989354058569
 30
0.0
 11
14.81559999999999
 21
133.0167354058569
 31
0.0
  0
LINE
  5
64
330
1E
100
AcDbEntity
  8
0
100
AcDbLine
 10
14.81559999999999
 20
133.0167354058569
 30
0.0
 11
19.31782999999998
 21
134.3824354058569
 31
0.0
  0
LINE
  5
69
330
1E
100
AcDbEntity
  8
0
100
AcDbLine
 10
18.63488
 20
0.69167340201068
 30
0.0
 11
24.01485389999999
 21
0.154376184142771
 31
0.0
  0
LINE
  5
6A
330
1E
100
AcDbEntity
  8
0
100
AcDbLine
 10
18.63488
 20
0.69167340201068
 30
0.0
 11
24.01485389999999
 21
0.154376184142771
 31
0.0
  0
LINE
  5
6B
330
1E
100
AcDbEntity
  8
0
100
AcDbLine
 10
18.64232
 20
8.771206097703139
 30
0.0
 11
24.0222873
 21
8.2339069659245
 31
0.0
  0
LINE
  5
6C
330
1E
100
AcDbEntity
  8
0
100
AcDbLine
 10
20.74729
 20
86.9662354058572
 30
0.0
 11
24.00000000000019
 21
86.7242354058572
 31
0.0
  0
LINE
  5
6D
330
1E
100
AcDbEntity
  8
0
100
AcDbLine
 10
19.042332360747
 20
87.26900446517401
 30
0.0
 11
20.74729
 21
86.9662354058572
 31
0.0
  0
LINE
  5
6E
330
1E
100
AcDbEntity
  8
0
100
AcDbLine
 10
18.64242999999998
 20
9.141635405857226
 30
0.0
 11
24.0000000000001
 21
8.60763540585723
 31
0.0
  0
LINE
  5
6F
330
1E
100
AcDbEntity
  8
0
100
AcDbLine
 10
24.0000000000001
 20
8.60763540585723
 30
0.0
 11
29.35757
 21
9.141635405857226
 31
0.0
  0
LINE
  5
71
330
1E
100
AcDbEntity
  8
0
100
AcDbLine
 10
17.42409
 20
87.6641354058572
 30
0.0
 11
19.042332360747
 21
87.26900446517401
 31
0.0
  0
LINE
  5
7C
330
1E
100
AcDbEntity
  8
0
100
AcDbLine
 10
19.3114
 20
106.5249252948599
 30
0.0
 11
19.31197
 21
105.417852471937
 31
0.0
  0
LINE
  5
7D
330
1E
100
AcDbEntity
  8
0
100
AcDbLine
 10
19.3114
 20
106.5249252948599
 30
0.0
 11
19.37268999999998
 21
107.513231061738
 31
0.0
  0
LINE
  5
7E
330
1E
100
AcDbEntity
  8
0
100
AcDbLine
 10
19.31197
 20
105.417852471937
 30
0.0
 11
19.37438
 21
104.1926423624849
 31
0.0
  0
LINE
  5
80
330
1E
100
AcDbEntity
  8
0
100
AcDbLine
 10
14.81559999999999
 20
88.55113540585717
 30
0.0
 11
17.42409
 21
87.6641354058572
 31
0.0
  0
LINE
  5
81
330
1E
100
AcDbEntity
  8
0
100
AcDbLine
 10
19.37268999999998
 20
107.513231061738
 30
0.0
 11
19.49573
 21
108.380718335541
 31
0.0
  0
LINE
  5
82
330
1E
100
AcDbEntity
  8
0
100
AcDbLine
 10
19.37438
 20
104.1926423624849
 30
0.0
 11
19.42609
 21
103.5994130136109
 31
0.0
  0
LINE
  5
83
330
1E
100
AcDbEntity
  8
0
100
AcDbLine
 10
19.49573
 20
108.380718335541
 30
0.0
 11
19.60486
 21
108.989609565485
 31
0.0
  0
LINE
  5
84
330
1E
100
AcDbEntity
  8
0
100
AcDbLine
 10
19.60486
 20
108.989609565485
 30
0.0
 11
19.78967
 21
109.73841120633
 31
0.0
  0
LINE
  5
85
330
1E
100
AcDbEntity
  8
0
100
AcDbLine
 10
19.42609
 20
103.5994130136109
 30
0.0
 11
19.55002
 21
102.264121724234
 31
0.0
  0
LINE
  5
86
330
1E
100
AcDbEntity
  8
0
100
AcDbLine
 10
19.55002
 20
102.264121724234
 30
0.0
 11
19.73518
 21
100.815046193731
 31
0.0
  0
LINE
  5
87
330
1E
100
AcDbEntity
  8
0
100
AcDbLine
 10
20.03666
 20
110.366339430971
 30
0.0
 11
20.29996
 21
110.93327067961
 31
0.0
  0
LINE
  5
88
330
1E
100
AcDbEntity
  8
0
100
AcDbLine
 10
19.78967
 20
109.73841120633
 30
0.0
 11
20.03666
 21
110.366339430971
 31
0.0
  0
LINE
  5
89
330
1E
100
AcDbEntity
  8
0
100
AcDbLine
 10
19.73518
 20
100.815046193731
 30
0.0
 11
19.98145
 21
99.25348492715759
 31
0.0
  0
LINE
  5
8A
330
1E
100
AcDbEntity
  8
0
100
AcDbLine
 10
19.98145
 20
99.25348492715759
 30
0.0
 11
20.28912
 21
97.57858959825021
 31
0.0
  0
LINE
  5
8B
330
1E
100
AcDbEntity
  8
0
100
AcDbLine
 10
20.28912
 20
97.57858959825021
 30
0.0
 11
20.65679999999999
 21
95.79684586796998
 31
0.0
  0
LINE
  5
8C
330
1E
100
AcDbEntity
  8
0
100
AcDbLine
 10
20.65679999999999
 20
95.79684586796998
 30
0.0
 11
21.08493999999998
 21
93.90649733513347
 31
0.0
  0
LINE
  5
8D
330
1E
100
AcDbEntity
  8
0
100
AcDbLine
 10
22.63776
 20
90.41780213981189
 30
0.0
 11
23.061674
 21
90.2013324447409
 31
0.0
  0
LINE
  5
8E
330
1E
100
AcDbEntity
  8
0
100
AcDbLine
 10
22.2662
 20
90.70911289544099
 30
0.0
 11
22.63776
 21
90.41780213981189
 31
0.0
  0
LINE
  5
8F
330
1E
100
AcDbEntity
  8
0
100
AcDbLine
 10
21.96127
 20
91.06407772134053
 30
0.0
 11
22.2662
 21
90.70911289544099
 31
0.0
  0
LINE
  5
90
330
1E
100
AcDbEntity
  8
0
100
AcDbLine
 10
21.73467999999999
 20
91.4690544124457
 30
0.0
 11
21.96127
 21
91.06407772134053
 31
0.0
  0
LINE
  5
91
330
1E
100
AcDbEntity
  8
0
100
AcDbLine
 10
21.56935
 20
91.92518593059459
 30
0.0
 11
21.73467999999999
 21
91.4690544124457
 31
0.0
  0
LINE
  5
94
330
1E
100
AcDbEntity
  8
0
100
AcDbLine
 10
21.61008999999999
 20
92.820351619605
 30
0.0
 11
21.6429
 21
92.97034375053341
 31
0.0
  0
LINE
  5
95
330
1E
100
AcDbEntity
  8
0
100
AcDbLine
 10
21.64290000000002
 20
92.97034375053353
 30
0.0
 11
21.90639
 21
93.465849568519
 31
0.0
  0
LINE
  5
96
330
1E
100
AcDbEntity
  8
0
100
AcDbLine
 10
22.00979999999999
 20
93.57959881340521
 30
0.0
 11
22.30199
 21
93.901019950979
 31
0.0
  0
LINE
  5
98
330
1E
100
AcDbEntity
  8
0
100
AcDbLine
 10
22.30199
 20
93.901019950979
 30
0.0
 11
22.80473999999999
 21
94.24840669390793
 31
0.0
  0
LINE
  5
99
330
1E
100
AcDbEntity
  8
0
100
AcDbLine
 10
22.30199
 20
93.901019950979
 30
0.0
 11
22.68299
 21
94.16427048802679
 31
0.0
  0
LINE
  5
9A
330
1E
100
AcDbEntity
  8
0
100
AcDbLine
 10
21.90639
 20
93.465849568519
 30
0.0
 11
22.30199
 21
93.901019950979
 31
0.0
  0
LINE
  5
9B
330
1E
100
AcDbEntity
  8
0
100
AcDbLine
 10
21.90639
 20
93.465849568519
 30
0.0
 11
22.00979999999999
 21
93.57959881340521
 31
0.0
  0
LINE
  5
9E
330
1E
100
AcDbEntity
  8
0
100
AcDbLine
 10
21.6073831251001
 20
92.8079883710556
 30
0.0
 11
21.6429
 21
92.97034375053341
 31
0.0
  0
LINE
  5
A0
330
1E
100
AcDbEntity
  8
0
100
AcDbLine
 10
21.52814
 20
92.4457507675811
 30
0.0
 11
21.6073831251001
 21
92.8079883710556
 31
0.0
  0
LINE
  5
A2
330
1E
100
AcDbEntity
  8
0
100
AcDbLine
 10
21.08493999999998
 20
93.90649733513347
 30
0.0
 11
21.56935
 21
91.92518593059459
 31
0.0
  0
LINE
  5
A6
330
1E
100
AcDbEntity
  8
0
100
AcDbLine
 10
21.37611
 20
112.3034130742279
 30
0.0
 11
21.88541999999999
 21
112.6711903358398
 31
0.0
  0
LINE
  5
A7
330
1E
100
AcDbEntity
  8
0
100
AcDbLine
 10
21.00757999999998
 20
111.9217318980159
 30
0.0
 11
21.37611
 21
112.3034130742279
 31
0.0
  0
LINE
  5
A8
330
1E
100
AcDbEntity
  8
0
100
AcDbLine
 10
20.60804999999998
 20
111.4383914305659
 30
0.0
 11
21.00757999999998
 21
111.9217318980159
 31
0.0
  0
LINE
  5
A9
330
1E
100
AcDbEntity
  8
0
100
AcDbLine
 10
20.29996
 20
110.93327067961
 30
0.0
 11
20.60804999999998
 21
111.4383914305659
 31
0.0
  0
LINE
  5
B0
330
1E
100
AcDbEntity
  8
0
100
AcDbLine
 10
21.88541999999999
 20
112.6711903358398
 30
0.0
 11
22.23484
 21
112.8920352945758
 31
0.0
  0
LINE
  5
BD
330
1E
100
AcDbEntity
  8
0
100
AcDbLine
 10
22.23484
 20
112.8920352945758
 30
0.0
 11
22.81931
 21
113.124082155275
 31
0.0
  0
LINE
  5
D1
330
1E
100
AcDbEntity
  8
0
100
AcDbLine
 10
22.68299
 20
94.16427048802679
 30
0.0
 11
22.80473999999999
 21
94.24840669390793
 31
0.0
  0
LINE
  5
D2
330
1E
100
AcDbEntity
  8
0
100
AcDbLine
 10
23.061674
 20
90.2013324447409
 30
0.0
 11
23.521646
 21
90.06803434441321
 31
0.0
  0
LINE
  5
D3
330
1E
100
AcDbEntity
  8
0
100
AcDbLine
 10
23.5494
 20
90.0627334678168
 30
0.0
 11
24.0
 21
90.0203356344293
 31
0.0
  0
LINE
  5
D4
330
1E
100
AcDbEntity
  8
0
100
AcDbLine
 10
23.096876
 20
94.36850269895598
 30
0.0
 11
23.382898
 21
94.48606527845599
 31
0.0
  0
LINE
  5
D5
330
1E
100
AcDbEntity
  8
0
100
AcDbLine
 10
24.0
 20
90.0203356344293
 30
0.0
 11
24.4506
 21
90.0627334678168
 31
0.0
  0
LINE
  5
D6
330
1E
100
AcDbEntity
  8
0
100
AcDbLine
 10
23.537337
 20
94.5143346188856
 30
0.0
 11
24.0
 21
94.59901844643081
 31
0.0
  0
LINE
  5
D7
330
1E
100
AcDbEntity
  8
0
100
AcDbLine
 10
23.382898
 20
94.48606527845599
 30
0.0
 11
24.0
 21
94.59901844643081
 31
0.0
  0
LINE
  5
D8
330
1E
100
AcDbEntity
  8
0
100
AcDbLine
 10
23.382898
 20
94.48606527845599
 30
0.0
 11
23.537337
 21
94.5143346188856
 31
0.0
  0
LINE
  5
D9
330
1E
100
AcDbEntity
  8
0
100
AcDbLine
 10
22.80473999999999
 20
94.24840669390793
 30
0.0
 11
23.382898
 21
94.48606527845599
 31
0.0
  0
LINE
  5
DA
330
1E
100
AcDbEntity
  8
0
100
AcDbLine
 10
22.80473999999999
 20
94.24840669390793
 30
0.0
 11
23.096876
 21
94.36850269895598
 31
0.0
  0
LINE
  5
DC
330
1E
100
AcDbEntity
  8
0
100
AcDbLine
 10
22.81931
 20
113.124082155275
 30
0.0
 11
23.447659
 21
113.2017838222139
 31
0.0
  0
LINE
  5
E2
330
1E
100
AcDbEntity
  8
0
100
AcDbLine
 10
24.0
 20
113.2017838222139
 30
0.0
 11
24.552341
 21
113.2017838222139
 31
0.0
  0
LINE
  5
E3
330
1E
100
AcDbEntity
  8
0
100
AcDbLine
 10
23.447659
 20
113.2017838222139
 30
0.0
 11
24.552341
 21
113.2017838222139
 31
0.0
  0
LINE
  5
E4
330
1E
100
AcDbEntity
  8
0
100
AcDbLine
 10
23.447659
 20
113.2017838222139
 30
0.0
 11
24.0
 21
113.2017838222139
 31
0.0
  0
LINE
  5
E5
330
1E
100
AcDbEntity
  8
0
100
AcDbLine
 10
24.0
 20
94.59901844643081
 30
0.0
 11
24.617102
 21
94.48606527845599
 31
0.0
  0
LINE
  5
E6
330
1E
100
AcDbEntity
  8
0
100
AcDbLine
 10
24.0
 20
94.59901844643081
 30
0.0
 11
24.462663
 21
94.5143346188856
 31
0.0
  0
LINE
  5
103
330
1E
100
AcDbEntity
  8
0
100
AcDbLine
 10
19.31782999999998
 20
134.3824354058569
 30
0.0
 11
21.5140910390145
 21
134.598770052227
 31
0.0
  0
LINE
  5
108
330
1E
100
AcDbEntity
  8
0
100
AcDbLine
 10
24.01485389999999
 20
0.154376184142771
 30
0.0
 11
29.35004
 21
0.6842362257806382
 31
0.0
  0
LINE
  5
109
330
1E
100
AcDbEntity
  8
0
100
AcDbLine
 10
24.01485389999999
 20
0.154376184142771
 30
0.0
 11
29.35004
 21
0.6842362257806382
 31
0.0
  0
LINE
  5
10A
330
1E
100
AcDbEntity
  8
0
100
AcDbLine
 10
24.0222873
 20
8.2339069659245
 30
0.0
 11
29.35748
 21
8.763817354395689
 31
0.0
  0
LINE
  5
10E
330
1E
100
AcDbEntity
  8
0
100
AcDbLine
 10
24.00000000000019
 20
86.7242354058572
 30
0.0
 11
27.55084
 21
87.0090354058572
 31
0.0
  0
LINE
  5
10F
330
1E
100
AcDbEntity
  8
0
100
AcDbLine
 10
24.903124
 20
94.36850269895598
 30
0.0
 11
25.19526
 21
94.24840669390793
 31
0.0
  0
LINE
  5
110
330
1E
100
AcDbEntity
  8
0
100
AcDbLine
 10
24.938326
 20
90.2013324447409
 30
0.0
 11
25.36224
 21
90.41780213981189
 31
0.0
  0
LINE
  5
111
330
1E
100
AcDbEntity
  8
0
100
AcDbLine
 10
24.478354
 20
90.06803434441321
 30
0.0
 11
24.938326
 21
90.2013324447409
 31
0.0
  0
LINE
  5
112
330
1E
100
AcDbEntity
  8
0
100
AcDbLine
 10
25.31700999999999
 20
94.16427048802679
 30
0.0
 11
25.69801
 21
93.901019950979
 31
0.0
  0
LINE
  5
113
330
1E
100
AcDbEntity
  8
0
100
AcDbLine
 10
25.36224
 20
90.41780213981189
 30
0.0
 11
25.7338
 21
90.70911289544099
 31
0.0
  0
LINE
  5
114
330
1E
100
AcDbEntity
  8
0
100
AcDbLine
 10
25.19526
 20
94.24840669390793
 30
0.0
 11
25.69801
 21
93.901019950979
 31
0.0
  0
LINE
  5
115
330
1E
100
AcDbEntity
  8
0
100
AcDbLine
 10
25.19526
 20
94.24840669390793
 30
0.0
 11
25.31700999999999
 21
94.16427048802679
 31
0.0
  0
LINE
  5
116
330
1E
100
AcDbEntity
  8
0
100
AcDbLine
 10
24.462663
 20
94.5143346188856
 30
0.0
 11
24.617102
 21
94.48606527845599
 31
0.0
  0
LINE
  5
117
330
1E
100
AcDbEntity
  8
0
100
AcDbLine
 10
24.617102
 20
94.48606527845599
 30
0.0
 11
25.19526
 21
94.24840669390793
 31
0.0
  0
LINE
  5
118
330
1E
100
AcDbEntity
  8
0
100
AcDbLine
 10
24.617102
 20
94.48606527845599
 30
0.0
 11
24.903124
 21
94.36850269895598
 31
0.0
  0
LINE
  5
119
330
1E
100
AcDbEntity
  8
0
100
AcDbLine
 10
25.7338
 20
90.70911289544099
 30
0.0
 11
26.03873
 21
91.06407772134053
 31
0.0
  0
LINE
  5
11A
330
1E
100
AcDbEntity
  8
0
100
AcDbLine
 10
25.69801
 20
93.901019950979
 30
0.0
 11
26.09361
 21
93.465849568519
 31
0.0
  0
LINE
  5
11B
330
1E
100
AcDbEntity
  8
0
100
AcDbLine
 10
25.69801
 20
93.901019950979
 30
0.0
 11
25.9902
 21
93.57959881340521
 31
0.0
  0
LINE
  5
121
330
1E
100
AcDbEntity
  8
0
100
AcDbLine
 10
25.9902
 20
93.57959881340521
 30
0.0
 11
26.09361
 21
93.465849568519
 31
0.0
  0
LINE
  5
122
330
1E
100
AcDbEntity
  8
0
100
AcDbLine
 10
26.03873
 20
91.06407772134053
 30
0.0
 11
26.26532
 21
91.4690544124457
 31
0.0
  0
LINE
  5
124
330
1E
100
AcDbEntity
  8
0
100
AcDbLine
 10
26.09361
 20
93.465849568519
 30
0.0
 11
26.35709999999999
 21
92.97034375053341
 31
0.0
  0
LINE
  5
130
330
1E
100
AcDbEntity
  8
0
100
AcDbLine
 10
26.26532
 20
91.4690544124457
 30
0.0
 11
26.43064999999999
 21
91.92518593059459
 31
0.0
  0
LINE
  5
131
330
1E
100
AcDbEntity
  8
0
100
AcDbLine
 10
26.39261687489989
 20
92.8079883710556
 30
0.0
 11
26.47185999999999
 21
92.4457507675811
 31
0.0
  0
LINE
  5
132
330
1E
100
AcDbEntity
  8
0
100
AcDbLine
 10
26.43064999999999
 20
91.92518593059459
 30
0.0
 11
26.91505999999999
 21
93.90649733513347
 31
0.0
  0
LINE
  5
135
330
1E
100
AcDbEntity
  8
0
100
AcDbLine
 10
26.91505999999999
 20
93.90649733513347
 30
0.0
 11
27.3432
 21
95.79684586796998
 31
0.0
  0
LINE
  5
136
330
1E
100
AcDbEntity
  8
0
100
AcDbLine
 10
27.3432
 20
95.79684586796998
 30
0.0
 11
27.71088
 21
97.57858959825021
 31
0.0
  0
LINE
  5
137
330
1E
100
AcDbEntity
  8
0
100
AcDbLine
 10
27.71088
 20
97.57858959825021
 30
0.0
 11
28.01855
 21
99.25348492715759
 31
0.0
  0
LINE
  5
138
330
1E
100
AcDbEntity
  8
0
100
AcDbLine
 10
26.35709999999999
 20
92.97034375053341
 30
0.0
 11
26.39261687489989
 21
92.8079883710556
 31
0.0
  0
LINE
  5
139
330
1E
100
AcDbEntity
  8
0
100
AcDbLine
 10
26.35709999999999
 20
92.97034375053341
 30
0.0
 11
26.38990999999998
 21
92.820351619605
 31
0.0
  0
LINE
  5
143
330
1E
100
AcDbEntity
  8
0
100
AcDbLine
 10
28.01855
 20
99.25348492715759
 30
0.0
 11
28.26482
 21
100.815046193731
 31
0.0
  0
LINE
  5
144
330
1E
100
AcDbEntity
  8
0
100
AcDbLine
 10
28.26482
 20
100.815046193731
 30
0.0
 11
28.44998
 21
102.264121724234
 31
0.0
  0
LINE
  5
145
330
1E
100
AcDbEntity
  8
0
100
AcDbLine
 10
28.44998
 20
102.264121724234
 30
0.0
 11
28.57390999999999
 21
103.5994130136109
 31
0.0
  0
LINE
  5
146
330
1E
100
AcDbEntity
  8
0
100
AcDbLine
 10
28.62562
 20
104.1926423624849
 30
0.0
 11
28.68802999999999
 21
105.417852471937
 31
0.0
  0
LINE
  5
147
330
1E
100
AcDbEntity
  8
0
100
AcDbLine
 10
28.57390999999999
 20
103.5994130136109
 30
0.0
 11
28.62562
 21
104.1926423624849
 31
0.0
  0
LINE
  5
148
330
1E
100
AcDbEntity
  8
0
100
AcDbLine
 10
28.62731
 20
107.513231061738
 30
0.0
 11
28.6886
 21
106.5249252948599
 31
0.0
  0
LINE
  5
149
330
1E
100
AcDbEntity
  8
0
100
AcDbLine
 10
28.50427
 20
108.380718335541
 30
0.0
 11
28.62731
 21
107.513231061738
 31
0.0
  0
LINE
  5
14A
330
1E
100
AcDbEntity
  8
0
100
AcDbLine
 10
28.21032999999999
 20
109.73841120633
 30
0.0
 11
28.39514
 21
108.989609565485
 31
0.0
  0
LINE
  5
14B
330
1E
100
AcDbEntity
  8
0
100
AcDbLine
 10
28.39514
 20
108.989609565485
 30
0.0
 11
28.50427
 21
108.380718335541
 31
0.0
  0
LINE
  5
14C
330
1E
100
AcDbEntity
  8
0
100
AcDbLine
 10
27.96334
 20
110.366339430971
 30
0.0
 11
28.21032999999999
 21
109.73841120633
 31
0.0
  0
LINE
  5
14D
330
1E
100
AcDbEntity
  8
0
100
AcDbLine
 10
27.55084
 20
87.0090354058572
 30
0.0
 11
28.4552426631137
 21
87.16308276001742
 31
0.0
  0
LINE
  5
14E
330
1E
100
AcDbEntity
  8
0
100
AcDbLine
 10
29.35004
 20
0.6842362257806382
 30
0.0
 11
33.89199999999998
 21
2.2005998700899
 31
0.0
  0
LINE
  5
14F
330
1E
100
AcDbEntity
  8
0
100
AcDbLine
 10
29.35004
 20
0.6842362257806382
 30
0.0
 11
33.89199999999998
 21
2.2005998700899
 31
0.0
  0
LINE
  5
150
330
1E
100
AcDbEntity
  8
0
100
AcDbLine
 10
29.35748
 20
8.763817354395689
 30
0.0
 11
33.89942999999998
 21
10.28016599857768
 31
0.0
  0
LINE
  5
151
330
1E
100
AcDbEntity
  8
0
100
AcDbLine
 10
29.35757
 20
9.141635405857226
 30
0.0
 11
33.89949
 21
10.66163540585719
 31
0.0
  0
LINE
  5
152
330
1E
100
AcDbEntity
  8
0
100
AcDbLine
 10
33.89199999999998
 20
2.2005998700899
 30
0.0
 11
36.9269
 21
4.472618361943888
 31
0.0
  0
LINE
  5
153
330
1E
100
AcDbEntity
  8
0
100
AcDbLine
 10
33.89942999999998
 20
10.28016599857768
 30
0.0
 11
36.9343
 21
12.5521844038294
 31
0.0
  0
LINE
  5
154
330
1E
100
AcDbEntity
  8
0
100
AcDbLine
 10
36.9269
 20
4.472618361943888
 30
0.0
 11
37.9926
 21
7.160001142065611
 31
0.0
  0
LINE
  5
156
330
1E
100
AcDbEntity
  8
0
100
AcDbLine
 10
36.9343
 20
12.5521844038294
 30
0.0
 11
38.0
 21
15.23956332966069
 31
0.0
  0
LINE
  5
157
330
1E
100
AcDbEntity
  8
0
100
AcDbLine
 10
30.81865999999999
 20
87.7347354058573
 30
0.0
 11
32.8493146382373
 21
88.44949109213729
 31
0.0
  0
LINE
  5
158
330
1E
100
AcDbEntity
  8
0
100
AcDbLine
 10
28.4552426631137
 20
87.16308276001742
 30
0.0
 11
30.81865999999999
 21
87.7347354058573
 31
0.0
  0
LINE
  5
159
330
1E
100
AcDbEntity
  8
0
100
AcDbLine
 10
33.89949
 20
10.66163540585719
 30
0.0
 11
36.9343
 21
12.9353354058572
 31
0.0
  0
LINE
  5
15A
330
1E
100
AcDbEntity
  8
0
100
AcDbLine
 10
37.9926
 20
7.160001142065611
 30
0.0
 11
38.0
 21
15.23956332966069
 31
0.0
  0
LINE
  5
15B
330
1E
100
AcDbEntity
  8
0
100
AcDbLine
 10
37.9247920923322
 20
15.42852770920809
 30
0.0
 11
38.0
 21
15.23956332966069
 31
0.0
  0
LINE
  5
15C
330
1E
100
AcDbEntity
  8
0
100
AcDbLine
 10
36.9343
 20
12.9353354058572
 30
0.0
 11
38.0
 21
15.61783540585718
 31
0.0
  0
LINE
  5
15E
330
1E
100
AcDbEntity
  8
0
100
AcDbLine
 10
28.68802999999999
 20
105.417852471937
 30
0.0
 11
28.6886
 21
106.5249252948599
 31
0.0
  0
LINE
  5
161
330
1E
100
AcDbEntity
  8
0
100
AcDbLine
 10
38.464
 20
90.97283540585728
 30
0.0
 11
39.7093
 21
92.6136354058573
 31
0.0
  0
LINE
  5
162
330
1E
100
AcDbEntity
  8
0
100
AcDbLine
 10
37.9868
 20
88.9422354058572
 30
0.0
 11
38.464
 21
90.97283540585728
 31
0.0
  0
LINE
  5
163
330
1E
100
AcDbEntity
  8
0
100
AcDbLine
 10
37.9868
 20
88.9422354058572
 30
0.0
 11
38.0
 21
15.61783540585718
 31
0.0
  0
LINE
  5
164
330
1E
100
AcDbEntity
  8
0
100
AcDbLine
 10
37.9868
 20
88.9422354058572
 30
0.0
 11
38.0
 21
15.61783540585718
 31
0.0
  0
LINE
  5
165
330
1E
100
AcDbEntity
  8
0
100
AcDbLine
 10
39.7093
 20
92.6136354058573
 30
0.0
 11
40.80095166130621
 21
93.61440985758827
 31
0.0
  0
LINE
  5
166
330
1E
100
AcDbEntity
  8
0
100
AcDbLine
 10
47.5388
 20
106.0420254058569
 30
0.0
 11
48.0
 21
110.7241964058569
 31
0.0
  0
LINE
  5
167
330
1E
100
AcDbEntity
  8
0
100
AcDbLine
 10
46.17309999999998
 20
101.539795405857
 30
0.0
 11
47.5388
 21
106.0420254058569
 31
0.0
  0
LINE
  5
168
330
1E
100
AcDbEntity
  8
0
100
AcDbLine
 10
43.95529999999999
 20
97.39053540585722
 30
0.0
 11
46.17309999999998
 21
101.539795405857
 31
0.0
  0
LINE
  5
169
330
1E
100
AcDbEntity
  8
0
100
AcDbLine
 10
40.97059999999999
 20
93.7536354058572
 30
0.0
 11
43.95529999999999
 21
97.39053540585722
 31
0.0
  0
LINE
  5
16A
330
1E
100
AcDbEntity
  8
0
100
AcDbLine
 10
37.3337
 20
90.7689354058572
 30
0.0
 11
40.97059999999999
 21
93.7536354058572
 31
0.0
  0
LINE
  5
16B
330
1E
100
AcDbEntity
  8
0
100
AcDbLine
 10
32.8493146382373
 20
88.44949109213729
 30
0.0
 11
37.3337
 21
90.7689354058572
 31
0.0
  0
LINE
  5
174
330
1E
100
AcDbEntity
  8
0
100
AcDbLine
 10
25.18073
 20
113.124082155275
 30
0.0
 11
25.76536
 21
112.8919206541979
 31
0.0
  0
LINE
  5
17A
330
1E
100
AcDbEntity
  8
0
100
AcDbLine
 10
24.932925
 20
113.154717014104
 30
0.0
 11
25.18073
 21
113.124082155275
 31
0.0
  0
LINE
  5
17E
330
1E
100
AcDbEntity
  8
0
100
AcDbLine
 10
24.552341
 20
113.2017838222139
 30
0.0
 11
24.932925
 21
113.154717014104
 31
0.0
  0
LINE
  5
181
330
1E
100
AcDbEntity
  8
0
100
AcDbLine
 10
26.11458
 20
112.6711903358398
 30
0.0
 11
26.62389
 21
112.3034130742279
 31
0.0
  0
LINE
  5
182
330
1E
100
AcDbEntity
  8
0
100
AcDbLine
 10
25.76536
 20
112.8919206541979
 30
0.0
 11
26.11458
 21
112.6711903358398
 31
0.0
  0
LINE
  5
183
330
1E
100
AcDbEntity
  8
0
100
AcDbLine
 10
26.62389
 20
112.3034130742279
 30
0.0
 11
26.99242
 21
111.9217318980159
 31
0.0
  0
LINE
  5
184
330
1E
100
AcDbEntity
  8
0
100
AcDbLine
 10
26.99242
 20
111.9217318980159
 30
0.0
 11
27.39195
 21
111.4383914305659
 31
0.0
  0
LINE
  5
185
330
1E
100
AcDbEntity
  8
0
100
AcDbLine
 10
27.39195
 20
111.4383914305659
 30
0.0
 11
27.70004
 21
110.93327067961
 31
0.0
  0
LINE
  5
188
330
1E
100
AcDbEntity
  8
0
100
AcDbLine
 10
27.70004
 20
110.93327067961
 30
0.0
 11
27.96334
 21
110.366339430971
 31
0.0
  0
LINE
  5
199
330
1E
100
AcDbEntity
  8
0
100
AcDbLine
 10
47.5388
 20
115.5258054058569
 30
0.0
 11
48.0
 21
110.8436354058569
 31
0.0
  0
LINE
  5
19D
330
1E
100
AcDbEntity
  8
0
100
AcDbLine
 10
43.95529999999999
 20
124.177335405857
 30
0.0
 11
46.17309999999998
 21
120.028035405857
 31
0.0
  0
LINE
  5
1A1
330
1E
100
AcDbEntity
  8
0
100
AcDbLine
 10
37.3337
 20
130.7989354058569
 30
0.0
 11
40.97059999999999
 21
127.8142354058569
 31
0.0
  0
LINE
  5
1B8
330
1E
100
AcDbEntity
  8
0
100
AcDbLine
 10
26.5140787002343
 20
134.595995295279
 30
0.0
 11
28.68217
 21
134.3824354058569
 31
0.0
  0
LINE
  5
1B9
330
1E
100
AcDbEntity
  8
0
100
AcDbLine
 10
28.68217
 20
134.3824354058569
 30
0.0
 11
33.18439999999998
 21
133.0167354058569
 31
0.0
  0
LINE
  5
1BC
330
1E
100
AcDbEntity
  8
0
100
AcDbLine
 10
33.18439999999998
 20
133.0167354058569
 30
0.0
 11
37.3337
 21
130.7989354058569
 31
0.0
  0
LINE
  5
1C0
330
1E
100
AcDbEntity
  8
0
100
AcDbLine
 10
40.97059999999999
 20
127.8142354058569
 30
0.0
 11
43.95529999999999
 21
124.177335405857
 31
0.0
  0
LINE
  5
1C4
330
1E
100
AcDbEntity
  8
0
100
AcDbLine
 10
46.17309999999998
 20
120.028035405857
 30
0.0
 11
47.5388
 21
115.5258054058569
 31
0.0
  0
LINE
  5
1C8
330
1E
100
AcDbEntity
  8
0
100
AcDbLine
 10
47.99497682978159
 20
110.792639445533
 30
0.0
 11
48.0
 21
110.8436354058569
 31
0.0
  0
LINE
  5
1C9
330
1E
100
AcDbEntity
  8
0
100
AcDbLine
 10
48.0
 20
110.740520405857
 30
0.0
 11
48.0
 21
110.8436354058569
 31
0.0
  0
LINE
  5
1CA
330
1E
100
AcDbEntity
  8
0
100
AcDbLine
 10
48.0
 20
110.8436354058569
 30
0.0
 11
48.0
 21
110.740520405857
 31
0.0
  0
LINE
  5
1D1
330
1E
100
AcDbEntity
  8
0
100
AcDbLine
 10
21.51409103901446
 20
134.598770052227
 30
0.0
 11
26.51407870023437
 21
134.595995295279
 31
0.0
  0
ENDSEC
  0
SECTION
  2
OBJECTS
  0
DICTIONARY
  5
C
330
0
100
AcDbDictionary
  3
ACAD_GROUP
350
D
  3
ACAD_LAYOUT
350
19
  3
ACAD_MLINESTYLE
350
16
  3
ACAD_PLOTSETTINGS
350
18
  3
ACAD_PLOTSTYLENAME
350
E
  3
ACDBHEADERROUNDTRIPXREC
350
223
  3
ACDBVARIABLEDICTIONARY
350
1D2
  0
DICTIONARY
  5
1F7
330
1E
100
AcDbDictionary
280
     1
  3
ACAD_LAYOUTSELFREF
360
244
  0
DICTIONARY
  5
1F5
330
1A
100
AcDbDictionary
280
     1
  3
ACAD_LAYOUTSELFREF
360
243
  0
DICTIONARY
  5
D
102
{ACAD_REACTORS
330
C
102
}
330
C
100
AcDbDictionary
  0
DICTIONARY
  5
19
102
{ACAD_REACTORS
330
C
102
}
330
C
100
AcDbDictionary
  0
DICTIONARY
  5
16
102
{ACAD_REACTORS
330
C
102
}
330
C
100
AcDbDictionary
  3
STANDARD
350
17
  0
DICTIONARY
  5
18
102
{ACAD_REACTORS
330
C
102
}
330
C
100
AcDbDictionary
  0
ACDBDICTIONARYWDFLT
  5
E
102
{ACAD_REACTORS
330
C
102
}
330
C
100
AcDbDictionary
281
     1
  3
Normal
350
F
100
AcDbDictionaryWithDefault
340
F
  0
DICTIONARY
  5
223
102
{ACAD_REACTORS
330
C
102
}
330
C
100
AcDbDictionary
  3
CEPSNTYPE
350
22D
  3
FINGERPRINTGUID
350
22E
  3
HYPERLINKBASE
350
226
  3
INSUNITS
350
22C
  3
LAYOUTDICT
350
228
  3
LWETCUNION
350
22B
  3
PLOTSETDICT
350
229
  3
PLOTSTYLNAMDICT
350
22A
  3
PSVPSCALE
350
230
  3
PUCSBASE
350
233
  3
PUCSORGBACK
350
239
  3
PUCSORGBOTTOM
350
235
  3
PUCSORGFRONT
350
238
  3
PUCSORGLEFT
350
236
  3
PUCSORGRIGHT
350
237
  3
PUCSORGTOP
350
234
  3
PUCSORTHOREF
350
231
  3
PUCSORTHOVIEW
350
232
  3
STYLESHEET
350
227
  3
TSTACKALIGN
350
224
  3
TSTACKSIZE
350
225
  3
UCSBASE
350
23C
  3
UCSORGBACK
350
242
  3
UCSORGBOTTOM
350
23E
  3
UCSORGFRONT
350
241
  3
UCSORGLEFT
350
23F
  3
UCSORGRIGHT
350
240
  3
UCSORGTOP
350
23D
  3
UCSORTHOREF
350
23A
  3
UCSORTHOVIEW
350
23B
  3
VERSIONGUID
350
22F
  0
DICTIONARY
  5
1D2
102
{ACAD_REACTORS
330
C
102
}
330
C
100
AcDbDictionary
  3
DIMASSOC
350
1D3
  0
XRECORD
  5
244
102
{ACAD_REACTORS
330
1F7
102
}
330
1F7
100
AcDbXrecord
340
1E
  0
XRECORD
  5
243
102
{ACAD_REACTORS
330
1F5
102
}
330
1F5
100
AcDbXrecord
340
1A
  0
MLINESTYLE
  5
17
102
{ACAD_REACTORS
330
16
102
}
330
16
100
AcDbMlineStyle
  2
STANDARD
 70
     0
  3

 62
   256
 51
90.0
 52
90.0
 71
     2
 49
0.5
 62
   256
  6
BYLAYER
 49
-0.5
 62
   256
  6
BYLAYER
  0
ACDBPLACEHOLDER
  5
F
102
{ACAD_REACTORS
330
E
102
}
330
E
100
AcDbPlaceHolder
280
     0
  0
XRECORD
  5
22D
102
{ACAD_REACTORS
330
223
102
}
330
223
100
AcDbXrecord
 90
        0
  0
XRECORD
  5
22E
102
{ACAD_REACTORS
330
223
102
}
330
223
100
AcDbXrecord
  1
{E191964D-3CDC-4CCB-98EE-4A9C4430F544}
  0
XRECORD
  5
226
102
{ACAD_REACTORS
330
223
102
}
330
223
100
AcDbXrecord
  1

  0
XRECORD
  5
22C
102
{ACAD_REACTORS
330
223
102
}
330
223
100
AcDbXrecord
 90
        0
  0
XRECORD
  5
228
102
{ACAD_REACTORS
330
223
102
}
330
223
100
AcDbXrecord
340
19
  0
XRECORD
  5
22B
102
{ACAD_REACTORS
330
223
102
}
330
223
100
AcDbXrecord
 90
    10781
  0
XRECORD
  5
229
102
{ACAD_REACTORS
330
223
102
}
330
223
100
AcDbXrecord
340
18
  0
XRECORD
  5
22A
102
{ACAD_REACTORS
330
223
102
}
330
223
100
AcDbXrecord
340
E
  0
XRECORD
  5
230
102
{ACAD_REACTORS
330
223
102
}
330
223
100
AcDbXrecord
 40
0.0
  0
XRECORD
  5
233
102
{ACAD_REACTORS
330
223
102
}
330
223
100
AcDbXrecord
340
0
  0
XRECORD
  5
239
102
{ACAD_REACTORS
330
223
102
}
330
223
100
AcDbXrecord
 10
0.0
 20
0.0
 30
0.0
  0
XRECORD
  5
235
102
{ACAD_REACTORS
330
223
102
}
330
223
100
AcDbXrecord
 10
0.0
 20
0.0
 30
0.0
  0
XRECORD
  5
238
102
{ACAD_REACTORS
330
223
102
}
330
223
100
AcDbXrecord
 10
0.0
 20
0.0
 30
0.0
  0
XRECORD
  5
236
102
{ACAD_REACTORS
330
223
102
}
330
223
100
AcDbXrecord
 10
0.0
 20
0.0
 30
0.0
  0
XRECORD
  5
237
102
{ACAD_REACTORS
330
223
102
}
330
223
100
AcDbXrecord
 10
0.0
 20
0.0
 30
0.0
  0
XRECORD
  5
234
102
{ACAD_REACTORS
330
223
102
}
330
223
100
AcDbXrecord
 10
0.0
 20
0.0
 30
0.0
  0
XRECORD
  5
231
102
{ACAD_REACTORS
330
223
102
}
330
223
100
AcDbXrecord
340
0
  0
XRECORD
  5
232
102
{ACAD_REACTORS
330
223
102
}
330
223
100
AcDbXrecord
 70
     0
  0
XRECORD
  5
227
102
{ACAD_REACTORS
330
223
102
}
330
223
100
AcDbXrecord
  1

  0
XRECORD
  5
224
102
{ACAD_REACTORS
330
223
102
}
330
223
100
AcDbXrecord
 90
        1
  0
XRECORD
  5
225
102
{ACAD_REACTORS
330
223
102
}
330
223
100
AcDbXrecord
 90
       70
  0
XRECORD
  5
23C
102
{ACAD_REACTORS
330
223
102
}
330
223
100
AcDbXrecord
340
0
  0
XRECORD
  5
242
102
{ACAD_REACTORS
330
223
102
}
330
223
100
AcDbXrecord
 10
0.0
 20
0.0
 30
0.0
  0
XRECORD
  5
23E
102
{ACAD_REACTORS
330
223
102
}
330
223
100
AcDbXrecord
 10
0.0
 20
0.0
 30
0.0
  0
XRECORD
  5
241
102
{ACAD_REACTORS
330
223
102
}
330
223
100
AcDbXrecord
 10
0.0
 20
0.0
 30
0.0
  0
XRECORD
  5
23F
102
{ACAD_REACTORS
330
223
102
}
330
223
100
AcDbXrecord
 10
0.0
 20
0.0
 30
0.0
  0
XRECORD
  5
240
102
{ACAD_REACTORS
330
223
102
}
330
223
100
AcDbXrecord
 10
0.0
 20
0.0
 30
0.0
  0
XRECORD
  5
23D
102
{ACAD_REACTORS
330
223
102
}
330
223
100
AcDbXrecord
 10
0.0
 20
0.0
 30
0.0
  0
XRECORD
  5
23A
102
{ACAD_REACTORS
330
223
102
}
330
223
100
AcDbXrecord
340
0
  0
XRECORD
  5
23B
102
{ACAD_REACTORS
330
223
102
}
330
223
100
AcDbXrecord
 70
     1
  0
XRECORD
  5
22F
102
{ACAD_REACTORS
330
223
102
}
330
223
100
AcDbXrecord
  1
{3522835E-46BD-479F-9A79-D645F0A12DF9}
  0
DICTIONARYVAR
  5
1D3
102
{ACAD_REACTORS
330
1D2
102
}
330
1D2
100
DictionaryVariables
280
     0
  1
1
  0
ENDSEC
  0
EOF
