  0
SECTION
  2
HEADER
  9
$ACADVER
  1
AC1014
  9
$ACADMAINTVER
 70
     9
  9
$DWGCODEPAGE
  3
ANSI_1252
  9
$INSBASE
 10
0.0
 20
0.0
 30
0.0
  9
$EXTMIN
 10
-0.0000000000000026
 20
0.154376184142771
 30
0.0
  9
$EXTMAX
 10
48.0
 20
142.8456238158569
 30
0.0
  9
$LIMMIN
 10
0.0
 20
0.0
  9
$LIMMAX
 10
12.0
 20
9.0
  9
$ORTHOMODE
 70
     0
  9
$REGENMODE
 70
     1
  9
$FILLMODE
 70
     1
  9
$QTEXTMODE
 70
     0
  9
$MIRRTEXT
 70
     1
  9
$DRAGMODE
 70
     2
  9
$LTSCALE
 40
1.0
  9
$OSMODE
 70
    37
  9
$ATTMODE
 70
     1
  9
$TEXTSIZE
 40
0.2
  9
$TRACEWID
 40
0.05
  9
$TEXTSTYLE
  7
STANDARD
  9
$CLAYER
  8
0
  9
$CELTYPE
  6
CONTINUOUS
  9
$CECOLOR
 62
   256
  9
$CELTSCALE
 40
1.0
  9
$DELOBJ
 70
     1
  9
$DISPSILH
 70
     0
  9
$DIMSCALE
 40
1.0
  9
$DIMASZ
 40
0.18
  9
$DIMEXO
 40
0.0625
  9
$DIMDLI
 40
0.38
  9
$DIMRND
 40
0.0
  9
$DIMDLE
 40
0.0
  9
$DIMEXE
 40
0.18
  9
$DIMTP
 40
0.0
  9
$DIMTM
 40
0.0
  9
$DIMTXT
 40
0.18
  9
$DIMCEN
 40
0.09
  9
$DIMTSZ
 40
0.0
  9
$DIMTOL
 70
     0
  9
$DIMLIM
 70
     0
  9
$DIMTIH
 70
     1
  9
$DIMTOH
 70
     1
  9
$DIMSE1
 70
     0
  9
$DIMSE2
 70
     0
  9
$DIMTAD
 70
     0
  9
$DIMZIN
 70
     0
  9
$DIMBLK
  1

  9
$DIMASO
 70
     1
  9
$DIMSHO
 70
     1
  9
$DIMPOST
  1

  9
$DIMAPOST
  1

  9
$DIMALT
 70
     0
  9
$DIMALTD
 70
     2
  9
$DIMALTF
 40
25.4
  9
$DIMLFAC
 40
1.0
  9
$DIMTOFL
 70
     0
  9
$DIMTVP
 40
0.0
  9
$DIMTIX
 70
     0
  9
$DIMSOXD
 70
     0
  9
$DIMSAH
 70
     0
  9
$DIMBLK1
  1

  9
$DIMBLK2
  1

  9
$DIMSTYLE
  2
STANDARD
  9
$DIMCLRD
 70
     0
  9
$DIMCLRE
 70
     0
  9
$DIMCLRT
 70
     0
  9
$DIMTFAC
 40
1.0
  9
$DIMGAP
 40
0.09
  9
$DIMJUST
 70
     0
  9
$DIMSD1
 70
     0
  9
$DIMSD2
 70
     0
  9
$DIMTOLJ
 70
     1
  9
$DIMTZIN
 70
     0
  9
$DIMALTZ
 70
     0
  9
$DIMALTTZ
 70
     0
  9
$DIMFIT
 70
     3
  9
$DIMUPT
 70
     0
  9
$DIMUNIT
 70
     2
  9
$DIMDEC
 70
     4
  9
$DIMTDEC
 70
     4
  9
$DIMALTU
 70
     2
  9
$DIMALTTD
 70
     2
  9
$DIMTXSTY
  7
STANDARD
  9
$DIMAUNIT
 70
     0
  9
$LUNITS
 70
     2
  9
$LUPREC
 70
     4
  9
$SKETCHINC
 40
0.1
  9
$FILLETRAD
 40
0.0
  9
$AUNITS
 70
     0
  9
$AUPREC
 70
     0
  9
$MENU
  1
.
  9
$ELEVATION
 40
0.0
  9
$PELEVATION
 40
0.0
  9
$THICKNESS
 40
0.0
  9
$LIMCHECK
 70
     0
  9
$BLIPMODE
 70
     0
  9
$CHAMFERA
 40
0.0
  9
$CHAMFERB
 40
0.0
  9
$CHAMFERC
 40
0.0
  9
$CHAMFERD
 40
0.0
  9
$SKPOLY
 70
     0
  9
$TDCREATE
 40
2454690.723590127
  9
$TDUPDATE
 40
2454690.734463425
  9
$TDINDWG
 40
0.0065167477
  9
$TDUSRTIMER
 40
0.0065167477
  9
$USRTIMER
 70
     1
  9
$ANGBASE
 50
0.0
  9
$ANGDIR
 70
     0
  9
$PDMODE
 70
     0
  9
$PDSIZE
 40
0.0
  9
$PLINEWID
 40
0.0
  9
$COORDS
 70
     1
  9
$SPLFRAME
 70
     0
  9
$SPLINETYPE
 70
     6
  9
$SPLINESEGS
 70
     8
  9
$ATTDIA
 70
     0
  9
$ATTREQ
 70
     1
  9
$HANDLING
 70
 22529
  9
$HANDSEED
  5
222
  9
$SURFTAB1
 70
     6
  9
$SURFTAB2
 70
     6
  9
$SURFTYPE
 70
     6
  9
$SURFU
 70
     6
  9
$SURFV
 70
     6
  9
$UCSNAME
  2

  9
$UCSORG
 10
0.0
 20
0.0
 30
0.0
  9
$UCSXDIR
 10
1.0
 20
0.0
 30
0.0
  9
$UCSYDIR
 10
0.0
 20
1.0
 30
0.0
  9
$PUCSNAME
  2

  9
$PUCSORG
 10
0.0
 20
0.0
 30
0.0
  9
$PUCSXDIR
 10
1.0
 20
0.0
 30
0.0
  9
$PUCSYDIR
 10
0.0
 20
1.0
 30
0.0
  9
$USERI1
 70
     0
  9
$USERI2
 70
     0
  9
$USERI3
 70
     0
  9
$USERI4
 70
     0
  9
$USERI5
 70
     0
  9
$USERR1
 40
0.0
  9
$USERR2
 40
0.0
  9
$USERR3
 40
0.0
  9
$USERR4
 40
0.0
  9
$USERR5
 40
0.0
  9
$WORLDVIEW
 70
     1
  9
$SHADEDGE
 70
     3
  9
$SHADEDIF
 70
    70
  9
$TILEMODE
 70
     1
  9
$MAXACTVP
 70
    64
  9
$PINSBASE
 10
0.0
 20
0.0
 30
0.0
  9
$PLIMCHECK
 70
     0
  9
$PEXTMIN
 10
1.000000000000000E+20
 20
1.000000000000000E+20
 30
1.000000000000000E+20
  9
$PEXTMAX
 10
-1.000000000000000E+20
 20
-1.000000000000000E+20
 30
-1.000000000000000E+20
  9
$PLIMMIN
 10
0.0
 20
0.0
  9
$PLIMMAX
 10
12.0
 20
9.0
  9
$UNITMODE
 70
     0
  9
$VISRETAIN
 70
     1
  9
$PLINEGEN
 70
     0
  9
$PSLTSCALE
 70
     1
  9
$TREEDEPTH
 70
  3020
  9
$PICKSTYLE
 70
     1
  9
$CMLSTYLE
  2
STANDARD
  9
$CMLJUST
 70
     0
  9
$CMLSCALE
 40
1.0
  9
$PROXYGRAPHICS
 70
     1
  9
$MEASUREMENT
 70
     0
  0
ENDSEC
  0
SECTION
  2
CLASSES
  0
CLASS
  1
ACDBDICTIONARYWDFLT
  2
AcDbDictionaryWithDefault
  3
AutoCAD 2000
 90
        0
280
     0
281
     0
  0
CLASS
  1
ACDBPLACEHOLDER
  2
AcDbPlaceHolder
  3
AutoCAD 2000
 90
        0
280
     0
281
     0
  0
CLASS
  1
LAYOUT
  2
AcDbLayout
  3
AutoCAD 2000
 90
        0
280
     0
281
     0
  0
CLASS
  1
DICTIONARYVAR
  2
AcDbDictionaryVar
  3
AutoCAD 2000
 90
        0
280
     0
281
     0
  0
CLASS
  1
LONG_TRANSACTION
  2
AcDbLongTransaction
  3
AutoCAD 2000
 90
        0
280
     0
281
     0
  0
CLASS
  1
LWPOLYLINE
  2
AcDbPolyline
  3
AutoCAD 2000
 90
        0
280
     0
281
     1
  0
CLASS
  1
HATCH
  2
AcDbHatch
  3
AutoCAD 2000
 90
        0
280
     0
281
     1
  0
CLASS
  1
XRECORD
  2
AcDbXrecord
  3
AutoCAD 2000
 90
        0
280
     0
281
     0
  0
CLASS
  1
LONG_TRANSACTION
  2
AcDbLongTransaction
  3
AutoCAD 2000
 90
        0
280
     0
281
     0
  0
CLASS
  1
LWPOLYLINE
  2
AcDbPolyline
  3
AutoCAD 2000
 90
        0
280
     0
281
     1
  0
CLASS
  1
HATCH
  2
AcDbHatch
  3
AutoCAD 2000
 90
        0
280
     0
281
     1
  0
CLASS
  1
XRECORD
  2
AcDbXrecord
  3
AutoCAD 2000
 90
        0
280
     0
281
     0
  0
ENDSEC
  0
SECTION
  2
TABLES
  0
TABLE
  2
VPORT
  5
8
330
0
100
AcDbSymbolTable
 70
     2
  0
VPORT
  5
1FF
330
8
100
AcDbSymbolTableRecord
100
AcDbViewportTableRecord
  2
*ACTIVE
 70
     0
 10
0.0
 20
0.0
 11
1.0
 21
1.0
 12
23.99999999999999
 22
71.49999999999986
 13
0.0
 23
0.0
 14
1.0
 24
1.0
 15
0.0
 25
0.0
 16
0.0
 26
0.0
 36
1.0
 17
0.0
 27
0.0
 37
0.0
 40
143.7860653884792
 41
2.043533930857874
 42
50.0
 43
0.0
 44
0.0
 50
0.0
 51
0.0
 71
     0
 72
   100
 73
     1
 74
     3
 75
     0
 76
     0
 77
     0
 78
     0
  0
ENDTAB
  0
TABLE
  2
LTYPE
  5
5
330
0
100
AcDbSymbolTable
 70
     1
  0
LTYPE
  5
13
330
5
100
AcDbSymbolTableRecord
100
AcDbLinetypeTableRecord
  2
BYBLOCK
 70
     0
  3

 72
    65
 73
     0
 40
0.0
  0
LTYPE
  5
14
330
5
100
AcDbSymbolTableRecord
100
AcDbLinetypeTableRecord
  2
BYLAYER
 70
     0
  3

 72
    65
 73
     0
 40
0.0
  0
LTYPE
  5
15
330
5
100
AcDbSymbolTableRecord
100
AcDbLinetypeTableRecord
  2
CONTINUOUS
 70
     0
  3
Solid line
 72
    65
 73
     0
 40
0.0
  0
ENDTAB
  0
TABLE
  2
LAYER
  5
2
330
0
100
AcDbSymbolTable
 70
     1
  0
LAYER
  5
10
330
2
100
AcDbSymbolTableRecord
100
AcDbLayerTableRecord
  2
0
 70
     0
 62
     7
  6
CONTINUOUS
  0
ENDTAB
  0
TABLE
  2
STYLE
  5
3
330
0
100
AcDbSymbolTable
 70
     1
  0
STYLE
  5
11
330
3
100
AcDbSymbolTableRecord
100
AcDbTextStyleTableRecord
  2
STANDARD
 70
     0
 40
0.0
 41
1.0
 50
0.0
 71
     0
 42
0.2
  3
txt
  4

  0
ENDTAB
  0
TABLE
  2
VIEW
  5
6
330
0
100
AcDbSymbolTable
 70
     0
  0
ENDTAB
  0
TABLE
  2
UCS
  5
7
330
0
100
AcDbSymbolTable
 70
     0
  0
ENDTAB
  0
TABLE
  2
APPID
  5
9
330
0
100
AcDbSymbolTable
 70
     1
  0
APPID
  5
12
330
9
100
AcDbSymbolTableRecord
100
AcDbRegAppTableRecord
  2
ACAD
 70
     0
  0
ENDTAB
  0
TABLE
  2
DIMSTYLE
  5
A
330
0
100
AcDbSymbolTable
 70
     1
  0
DIMSTYLE
105
1CD
330
A
100
AcDbSymbolTableRecord
100
AcDbDimStyleTableRecord
  2
STANDARD
 70
     0
  3

  4

  5

  6

  7

 40
1.0
 41
0.18
 42
0.0625
 43
0.38
 44
0.18
 45
0.0
 46
0.0
 47
0.0
 48
0.0
140
0.18
141
0.09
142
0.0
143
25.4
144
1.0
145
0.0
146
1.0
147
0.09
 71
     0
 72
     0
 73
     1
 74
     1
 75
     0
 76
     0
 77
     0
 78
     0
170
     0
171
     2
172
     0
173
     0
174
     0
175
     0
176
     0
177
     0
178
     0
270
     2
271
     4
272
     4
273
     2
274
     2
340
11
275
     0
280
     0
281
     0
282
     0
283
     1
284
     0
285
     0
286
     0
287
     3
288
     0
  0
ENDTAB
  0
TABLE
  2
BLOCK_RECORD
  5
1
330
0
100
AcDbSymbolTable
 70
     0
  0
BLOCK_RECORD
  5
1E
102
{ACAD_XDICTIONARY
360
1F7
102
}
330
1
100
AcDbSymbolTableRecord
100
AcDbBlockTableRecord
  2
*MODEL_SPACE
  0
BLOCK_RECORD
  5
1A
102
{ACAD_XDICTIONARY
360
1F5
102
}
330
1
100
AcDbSymbolTableRecord
100
AcDbBlockTableRecord
  2
*PAPER_SPACE
  0
ENDTAB
  0
ENDSEC
  0
SECTION
  2
BLOCKS
  0
BLOCK
  5
1F
330
1E
100
AcDbEntity
  8
0
100
AcDbBlockBegin
  2
*MODEL_SPACE
 70
     0
 10
0.0
 20
0.0
 30
0.0
  3
*MODEL_SPACE
  1

  0
ENDBLK
  5
20
330
1E
100
AcDbEntity
  8
0
100
AcDbBlockEnd
  0
BLOCK
  5
1B
330
1A
100
AcDbEntity
 67
     1
  8
0
100
AcDbBlockBegin
  2
*PAPER_SPACE
 70
     0
 10
0.0
 20
0.0
 30
0.0
  3
*PAPER_SPACE
  1

  0
ENDBLK
  5
1C
330
1A
100
AcDbEntity
 67
     1
  8
0
100
AcDbBlockEnd
  0
ENDSEC
  0
SECTION
  2
ENTITIES
  0
LINE
  5
22
330
1E
100
AcDbEntity
  8
0
100
AcDbLine
 10
-0.0000000000000026
 20
92.84363540585692
 30
0.0
 11
-0.0000000000000026
 21
92.74052040585699
 31
0.0
  0
LINE
  5
23
330
1E
100
AcDbEntity
  8
0
100
AcDbLine
 10
-0.0000000000000026
 20
92.84363540585692
 30
0.0
 11
0.461199999999999
 21
97.52580540585691
 31
0.0
  0
LINE
  5
24
330
1E
100
AcDbEntity
  8
0
100
AcDbLine
 10
-0.0000000000000026
 20
92.74052040585699
 30
0.0
 11
-0.0000000000000026
 21
92.84363540585692
 31
0.0
  0
LINE
  5
27
330
1E
100
AcDbEntity
  8
0
100
AcDbLine
 10
-0.0000000000000026
 20
92.72419640585692
 30
0.0
 11
0.461199999999999
 21
88.04202540585691
 31
0.0
  0
LINE
  5
28
330
1E
100
AcDbEntity
  8
0
100
AcDbLine
 10
0.461199999999999
 20
88.04202540585691
 30
0.0
 11
1.8269
 21
83.53979540585699
 31
0.0
  0
LINE
  5
29
330
1E
100
AcDbEntity
  8
0
100
AcDbLine
 10
1.8269
 20
83.53979540585699
 30
0.0
 11
4.04469999999999
 21
79.39053540585722
 31
0.0
  0
LINE
  5
2A
330
1E
100
AcDbEntity
  8
0
100
AcDbLine
 10
0.461199999999999
 20
88.04202540585691
 30
0.0
 11
1.8269
 21
83.53979540585699
 31
0.0
  0
LINE
  5
2B
330
1E
100
AcDbEntity
  8
0
100
AcDbLine
 10
-0.0000000000000026
 20
92.72419640585692
 30
0.0
 11
0.461199999999999
 21
88.04202540585691
 31
0.0
  0
LINE
  5
2D
330
1E
100
AcDbEntity
  8
0
100
AcDbLine
 10
-0.0000000000000026
 20
92.84363540585692
 30
0.0
 11
0.461199999999999
 21
97.52580540585691
 31
0.0
  0
LINE
  5
35
330
1E
100
AcDbEntity
  8
0
100
AcDbLine
 10
0.461199999999999
 20
97.52580540585691
 30
0.0
 11
1.8269
 21
102.028035405857
 31
0.0
  0
LINE
  5
36
330
1E
100
AcDbEntity
  8
0
100
AcDbLine
 10
0.461199999999999
 20
97.52580540585691
 30
0.0
 11
1.8269
 21
102.028035405857
 31
0.0
  0
LINE
  5
37
330
1E
100
AcDbEntity
  8
0
100
AcDbLine
 10
1.8269
 20
102.028035405857
 30
0.0
 11
4.04469999999999
 21
106.1773354058569
 31
0.0
  0
LINE
  5
3C
330
1E
100
AcDbEntity
  8
0
100
AcDbLine
 10
7.02939999999999
 20
75.75363540585719
 30
0.0
 11
10.66629999999999
 21
72.76893540585721
 31
0.0
  0
LINE
  5
3E
330
1E
100
AcDbEntity
  8
0
100
AcDbLine
 10
4.04469999999999
 20
79.39053540585722
 30
0.0
 11
7.02939999999999
 21
75.75363540585719
 31
0.0
  0
LINE
  5
40
330
1E
100
AcDbEntity
  8
0
100
AcDbLine
 10
4.04469999999999
 20
106.1773354058569
 30
0.0
 11
7.02939999999999
 21
109.8142354058569
 31
0.0
  0
LINE
  5
41
330
1E
100
AcDbEntity
  8
0
100
AcDbLine
 10
7.02939999999999
 20
109.8142354058569
 30
0.0
 11
10.66629999999999
 21
112.7989354058569
 31
0.0
  0
LINE
  5
46
330
1E
100
AcDbEntity
  8
0
100
AcDbLine
 10
9.992599999999999
 20
7.17379920187288
 30
0.0
 11
10.0
 21
15.2533663327989
 31
0.0
  0
LINE
  5
47
330
1E
100
AcDbEntity
  8
0
100
AcDbLine
 10
9.992599999999999
 20
7.17379920187288
 30
0.0
 11
11.0582
 21
4.49055343562216
 31
0.0
  0
LINE
  5
48
330
1E
100
AcDbEntity
  8
0
100
AcDbLine
 10
11.0582
 20
4.49055343562216
 30
0.0
 11
14.09297999999999
 21
2.214332052726009
 31
0.0
  0
LINE
  5
49
330
1E
100
AcDbEntity
  8
0
100
AcDbLine
 10
14.09297999999999
 20
2.214332052726009
 30
0.0
 11
18.63488
 21
0.69167340201068
 31
0.0
  0
LINE
  5
4A
330
1E
100
AcDbEntity
  8
0
100
AcDbLine
 10
14.10041
 20
10.2938935620665
 30
0.0
 11
18.64232
 21
8.771206097703139
 31
0.0
  0
LINE
  5
4B
330
1E
100
AcDbEntity
  8
0
100
AcDbLine
 10
10.0
 20
15.2533663327989
 30
0.0
 11
11.06559999999999
 21
12.5701173903924
 31
0.0
  0
LINE
  5
4C
330
1E
100
AcDbEntity
  8
0
100
AcDbLine
 10
10.0
 20
15.2533663327989
 30
0.0
 11
10.0724112074619
 21
15.43556735291868
 31
0.0
  0
LINE
  5
4D
330
1E
100
AcDbEntity
  8
0
100
AcDbLine
 10
11.06559999999999
 20
12.5701173903924
 30
0.0
 11
14.10041
 21
10.2938935620665
 31
0.0
  0
LINE
  5
4E
330
1E
100
AcDbEntity
  8
0
100
AcDbLine
 10
10.0
 20
15.61783540585718
 30
0.0
 11
10.02909999999999
 21
70.9759354058572
 31
0.0
  0
LINE
  5
53
330
1E
100
AcDbEntity
  8
0
100
AcDbLine
 10
10.0
 20
15.61783540585718
 30
0.0
 11
11.0657
 21
12.9353354058572
 31
0.0
  0
LINE
  5
54
330
1E
100
AcDbEntity
  8
0
100
AcDbLine
 10
10.0
 20
15.61783540585718
 30
0.0
 11
10.02909999999999
 21
70.9759354058572
 31
0.0
  0
LINE
  5
58
330
1E
100
AcDbEntity
  8
0
100
AcDbLine
 10
11.0657
 20
12.9353354058572
 30
0.0
 11
14.10051
 21
10.66163540585719
 31
0.0
  0
LINE
  5
5A
330
1E
100
AcDbEntity
  8
0
100
AcDbLine
 10
14.10051
 20
10.66163540585719
 30
0.0
 11
18.64242999999998
 21
9.141635405857226
 31
0.0
  0
LINE
  5
5C
330
1E
100
AcDbEntity
  8
0
100
AcDbLine
 10
8.3086
 20
74.5979354058572
 30
0.0
 11
9.56480202543333
 21
72.90385075055201
 31
0.0
  0
LINE
  5
5D
330
1E
100
AcDbEntity
  8
0
100
AcDbLine
 10
9.56480202543333
 20
72.90385075055201
 30
0.0
 11
10.02909999999999
 21
70.9759354058572
 31
0.0
  0
LINE
  5
5F
330
1E
100
AcDbEntity
  8
0
100
AcDbLine
 10
7.200033864670229
 20
75.61360106455521
 30
0.0
 11
8.3086
 21
74.5979354058572
 31
0.0
  0
LINE
  5
61
330
1E
100
AcDbEntity
  8
0
100
AcDbLine
 10
10.66629999999999
 20
72.76893540585721
 30
0.0
 11
14.81559999999999
 21
70.55113540585718
 31
0.0
  0
LINE
  5
63
330
1E
100
AcDbEntity
  8
0
100
AcDbLine
 10
10.66629999999999
 20
112.7989354058569
 30
0.0
 11
14.81559999999999
 21
115.0167354058569
 31
0.0
  0
LINE
  5
64
330
1E
100
AcDbEntity
  8
0
100
AcDbLine
 10
14.81559999999999
 20
115.0167354058569
 30
0.0
 11
19.31782999999998
 21
116.3824354058569
 31
0.0
  0
LINE
  5
69
330
1E
100
AcDbEntity
  8
0
100
AcDbLine
 10
18.63488
 20
0.69167340201068
 30
0.0
 11
24.01485389999999
 21
0.154376184142771
 31
0.0
  0
LINE
  5
6A
330
1E
100
AcDbEntity
  8
0
100
AcDbLine
 10
18.63488
 20
0.69167340201068
 30
0.0
 11
24.01485389999999
 21
0.154376184142771
 31
0.0
  0
LINE
  5
6B
330
1E
100
AcDbEntity
  8
0
100
AcDbLine
 10
18.64232
 20
8.771206097703139
 30
0.0
 11
24.0222873
 21
8.2339069659245
 31
0.0
  0
LINE
  5
6C
330
1E
100
AcDbEntity
  8
0
100
AcDbLine
 10
20.74729
 20
68.96623540585721
 30
0.0
 11
24.00000000000019
 21
68.7242354058572
 31
0.0
  0
LINE
  5
6D
330
1E
100
AcDbEntity
  8
0
100
AcDbLine
 10
19.042332360747
 20
69.269004465174
 30
0.0
 11
20.74729
 21
68.96623540585721
 31
0.0
  0
LINE
  5
6E
330
1E
100
AcDbEntity
  8
0
100
AcDbLine
 10
18.64242999999998
 20
9.141635405857226
 30
0.0
 11
24.0000000000001
 21
8.60763540585723
 31
0.0
  0
LINE
  5
6F
330
1E
100
AcDbEntity
  8
0
100
AcDbLine
 10
24.0000000000001
 20
8.60763540585723
 30
0.0
 11
29.35757
 21
9.141635405857226
 31
0.0
  0
LINE
  5
71
330
1E
100
AcDbEntity
  8
0
100
AcDbLine
 10
17.42409
 20
69.66413540585719
 30
0.0
 11
19.042332360747
 21
69.269004465174
 31
0.0
  0
LINE
  5
7C
330
1E
100
AcDbEntity
  8
0
100
AcDbLine
 10
19.3114
 20
88.5249252948599
 30
0.0
 11
19.31197
 21
87.41785247193702
 31
0.0
  0
LINE
  5
7D
330
1E
100
AcDbEntity
  8
0
100
AcDbLine
 10
19.3114
 20
88.5249252948599
 30
0.0
 11
19.37268999999998
 21
89.513231061738
 31
0.0
  0
LINE
  5
7E
330
1E
100
AcDbEntity
  8
0
100
AcDbLine
 10
19.31197
 20
87.41785247193702
 30
0.0
 11
19.37438
 21
86.19264236248492
 31
0.0
  0
LINE
  5
80
330
1E
100
AcDbEntity
  8
0
100
AcDbLine
 10
14.81559999999999
 20
70.55113540585718
 30
0.0
 11
17.42409
 21
69.66413540585719
 31
0.0
  0
LINE
  5
81
330
1E
100
AcDbEntity
  8
0
100
AcDbLine
 10
19.37268999999998
 20
89.513231061738
 30
0.0
 11
19.49573
 21
90.380718335541
 31
0.0
  0
LINE
  5
82
330
1E
100
AcDbEntity
  8
0
100
AcDbLine
 10
19.37438
 20
86.19264236248492
 30
0.0
 11
19.42609
 21
85.5994130136109
 31
0.0
  0
LINE
  5
83
330
1E
100
AcDbEntity
  8
0
100
AcDbLine
 10
19.49573
 20
90.380718335541
 30
0.0
 11
19.60486
 21
90.989609565485
 31
0.0
  0
LINE
  5
84
330
1E
100
AcDbEntity
  8
0
100
AcDbLine
 10
19.60486
 20
90.989609565485
 30
0.0
 11
19.78967
 21
91.73841120633001
 31
0.0
  0
LINE
  5
85
330
1E
100
AcDbEntity
  8
0
100
AcDbLine
 10
19.42609
 20
85.5994130136109
 30
0.0
 11
19.55002
 21
84.264121724234
 31
0.0
  0
LINE
  5
86
330
1E
100
AcDbEntity
  8
0
100
AcDbLine
 10
19.55002
 20
84.264121724234
 30
0.0
 11
19.73518
 21
82.815046193731
 31
0.0
  0
LINE
  5
87
330
1E
100
AcDbEntity
  8
0
100
AcDbLine
 10
20.03666
 20
92.366339430971
 30
0.0
 11
20.29996
 21
92.93327067961
 31
0.0
  0
LINE
  5
88
330
1E
100
AcDbEntity
  8
0
100
AcDbLine
 10
19.78967
 20
91.73841120633001
 30
0.0
 11
20.03666
 21
92.366339430971
 31
0.0
  0
LINE
  5
89
330
1E
100
AcDbEntity
  8
0
100
AcDbLine
 10
19.73518
 20
82.815046193731
 30
0.0
 11
19.98145
 21
81.25348492715758
 31
0.0
  0
LINE
  5
8A
330
1E
100
AcDbEntity
  8
0
100
AcDbLine
 10
19.98145
 20
81.25348492715758
 30
0.0
 11
20.28912
 21
79.57858959825021
 31
0.0
  0
LINE
  5
8B
330
1E
100
AcDbEntity
  8
0
100
AcDbLine
 10
20.28912
 20
79.57858959825021
 30
0.0
 11
20.65679999999999
 21
77.79684586796999
 31
0.0
  0
LINE
  5
8C
330
1E
100
AcDbEntity
  8
0
100
AcDbLine
 10
20.65679999999999
 20
77.79684586796999
 30
0.0
 11
21.08493999999998
 21
75.90649733513348
 31
0.0
  0
LINE
  5
8D
330
1E
100
AcDbEntity
  8
0
100
AcDbLine
 10
22.63776
 20
72.41780213981188
 30
0.0
 11
23.061674
 21
72.2013324447409
 31
0.0
  0
LINE
  5
8E
330
1E
100
AcDbEntity
  8
0
100
AcDbLine
 10
22.2662
 20
72.70911289544099
 30
0.0
 11
22.63776
 21
72.41780213981188
 31
0.0
  0
LINE
  5
8F
330
1E
100
AcDbEntity
  8
0
100
AcDbLine
 10
21.96127
 20
73.06407772134052
 30
0.0
 11
22.2662
 21
72.70911289544099
 31
0.0
  0
LINE
  5
90
330
1E
100
AcDbEntity
  8
0
100
AcDbLine
 10
21.73467999999999
 20
73.4690544124457
 30
0.0
 11
21.96127
 21
73.06407772134052
 31
0.0
  0
LINE
  5
91
330
1E
100
AcDbEntity
  8
0
100
AcDbLine
 10
21.56935
 20
73.9251859305946
 30
0.0
 11
21.73467999999999
 21
73.4690544124457
 31
0.0
  0
LINE
  5
94
330
1E
100
AcDbEntity
  8
0
100
AcDbLine
 10
21.61008999999999
 20
74.820351619605
 30
0.0
 11
21.6429
 21
74.9703437505334
 31
0.0
  0
LINE
  5
95
330
1E
100
AcDbEntity
  8
0
100
AcDbLine
 10
21.64290000000002
 20
74.97034375053353
 30
0.0
 11
21.90639
 21
75.46584956851901
 31
0.0
  0
LINE
  5
96
330
1E
100
AcDbEntity
  8
0
100
AcDbLine
 10
22.00979999999999
 20
75.57959881340521
 30
0.0
 11
22.30199
 21
75.901019950979
 31
0.0
  0
LINE
  5
98
330
1E
100
AcDbEntity
  8
0
100
AcDbLine
 10
22.30199
 20
75.901019950979
 30
0.0
 11
22.80473999999999
 21
76.24840669390792
 31
0.0
  0
LINE
  5
99
330
1E
100
AcDbEntity
  8
0
100
AcDbLine
 10
22.30199
 20
75.901019950979
 30
0.0
 11
22.68299
 21
76.16427048802679
 31
0.0
  0
LINE
  5
9A
330
1E
100
AcDbEntity
  8
0
100
AcDbLine
 10
21.90639
 20
75.46584956851901
 30
0.0
 11
22.30199
 21
75.901019950979
 31
0.0
  0
LINE
  5
9B
330
1E
100
AcDbEntity
  8
0
100
AcDbLine
 10
21.90639
 20
75.46584956851901
 30
0.0
 11
22.00979999999999
 21
75.57959881340521
 31
0.0
  0
LINE
  5
9E
330
1E
100
AcDbEntity
  8
0
100
AcDbLine
 10
21.6073831251001
 20
74.8079883710556
 30
0.0
 11
21.6429
 21
74.9703437505334
 31
0.0
  0
LINE
  5
A0
330
1E
100
AcDbEntity
  8
0
100
AcDbLine
 10
21.52814
 20
74.4457507675811
 30
0.0
 11
21.6073831251001
 21
74.8079883710556
 31
0.0
  0
LINE
  5
A2
330
1E
100
AcDbEntity
  8
0
100
AcDbLine
 10
21.08493999999998
 20
75.90649733513348
 30
0.0
 11
21.56935
 21
73.9251859305946
 31
0.0
  0
LINE
  5
A6
330
1E
100
AcDbEntity
  8
0
100
AcDbLine
 10
21.37611
 20
94.30341307422791
 30
0.0
 11
21.88541999999999
 21
94.67119033583989
 31
0.0
  0
LINE
  5
A7
330
1E
100
AcDbEntity
  8
0
100
AcDbLine
 10
21.00757999999998
 20
93.9217318980159
 30
0.0
 11
21.37611
 21
94.30341307422791
 31
0.0
  0
LINE
  5
A8
330
1E
100
AcDbEntity
  8
0
100
AcDbLine
 10
20.60804999999998
 20
93.43839143056591
 30
0.0
 11
21.00757999999998
 21
93.9217318980159
 31
0.0
  0
LINE
  5
A9
330
1E
100
AcDbEntity
  8
0
100
AcDbLine
 10
20.29996
 20
92.93327067961
 30
0.0
 11
20.60804999999998
 21
93.43839143056591
 31
0.0
  0
LINE
  5
B0
330
1E
100
AcDbEntity
  8
0
100
AcDbLine
 10
21.88541999999999
 20
94.67119033583989
 30
0.0
 11
22.23484
 21
94.8920352945759
 31
0.0
  0
LINE
  5
BD
330
1E
100
AcDbEntity
  8
0
100
AcDbLine
 10
22.23484
 20
94.8920352945759
 30
0.0
 11
22.81931
 21
95.124082155275
 31
0.0
  0
LINE
  5
D1
330
1E
100
AcDbEntity
  8
0
100
AcDbLine
 10
22.68299
 20
76.16427048802679
 30
0.0
 11
22.80473999999999
 21
76.24840669390792
 31
0.0
  0
LINE
  5
D2
330
1E
100
AcDbEntity
  8
0
100
AcDbLine
 10
23.061674
 20
72.2013324447409
 30
0.0
 11
23.521646
 21
72.0680343444132
 31
0.0
  0
LINE
  5
D3
330
1E
100
AcDbEntity
  8
0
100
AcDbLine
 10
23.5494
 20
72.0627334678168
 30
0.0
 11
24.0
 21
72.0203356344293
 31
0.0
  0
LINE
  5
D4
330
1E
100
AcDbEntity
  8
0
100
AcDbLine
 10
23.096876
 20
76.368502698956
 30
0.0
 11
23.382898
 21
76.486065278456
 31
0.0
  0
LINE
  5
D5
330
1E
100
AcDbEntity
  8
0
100
AcDbLine
 10
24.0
 20
72.0203356344293
 30
0.0
 11
24.4506
 21
72.0627334678168
 31
0.0
  0
LINE
  5
D6
330
1E
100
AcDbEntity
  8
0
100
AcDbLine
 10
23.537337
 20
76.5143346188856
 30
0.0
 11
24.0
 21
76.5990184464308
 31
0.0
  0
LINE
  5
D7
330
1E
100
AcDbEntity
  8
0
100
AcDbLine
 10
23.382898
 20
76.486065278456
 30
0.0
 11
24.0
 21
76.5990184464308
 31
0.0
  0
LINE
  5
D8
330
1E
100
AcDbEntity
  8
0
100
AcDbLine
 10
23.382898
 20
76.486065278456
 30
0.0
 11
23.537337
 21
76.5143346188856
 31
0.0
  0
LINE
  5
D9
330
1E
100
AcDbEntity
  8
0
100
AcDbLine
 10
22.80473999999999
 20
76.24840669390792
 30
0.0
 11
23.382898
 21
76.486065278456
 31
0.0
  0
LINE
  5
DA
330
1E
100
AcDbEntity
  8
0
100
AcDbLine
 10
22.80473999999999
 20
76.24840669390792
 30
0.0
 11
23.096876
 21
76.368502698956
 31
0.0
  0
LINE
  5
DC
330
1E
100
AcDbEntity
  8
0
100
AcDbLine
 10
22.81931
 20
95.124082155275
 30
0.0
 11
23.447659
 21
95.2017838222139
 31
0.0
  0
LINE
  5
E2
330
1E
100
AcDbEntity
  8
0
100
AcDbLine
 10
24.0
 20
95.2017838222139
 30
0.0
 11
24.552341
 21
95.2017838222139
 31
0.0
  0
LINE
  5
E3
330
1E
100
AcDbEntity
  8
0
100
AcDbLine
 10
23.447659
 20
95.2017838222139
 30
0.0
 11
24.552341
 21
95.2017838222139
 31
0.0
  0
LINE
  5
E4
330
1E
100
AcDbEntity
  8
0
100
AcDbLine
 10
23.447659
 20
95.2017838222139
 30
0.0
 11
24.0
 21
95.2017838222139
 31
0.0
  0
LINE
  5
E5
330
1E
100
AcDbEntity
  8
0
100
AcDbLine
 10
24.0
 20
76.5990184464308
 30
0.0
 11
24.617102
 21
76.486065278456
 31
0.0
  0
LINE
  5
E6
330
1E
100
AcDbEntity
  8
0
100
AcDbLine
 10
24.0
 20
76.5990184464308
 30
0.0
 11
24.462663
 21
76.5143346188856
 31
0.0
  0
LINE
  5
EC
330
1E
100
AcDbEntity
  8
0
100
AcDbLine
 10
21.49556
 20
126.8720354058568
 30
0.0
 11
21.49558999999999
 21
126.4340354058569
 31
0.0
  0
LINE
  5
ED
330
1E
100
AcDbEntity
  8
0
100
AcDbLine
 10
21.49556
 20
126.8720354058568
 30
0.0
 11
21.49570999999999
 21
127.3489354058569
 31
0.0
  0
LINE
  5
EE
330
1E
100
AcDbEntity
  8
0
100
AcDbLine
 10
21.49602
 20
127.8456354058569
 30
0.0
 11
21.50797
 21
142.8456238158569
 31
0.0
  0
LINE
  5
EF
330
1E
100
AcDbEntity
  8
0
100
AcDbLine
 10
21.49570999999999
 20
127.3489354058569
 30
0.0
 11
21.49602
 21
127.8456354058569
 31
0.0
  0
LINE
  5
F0
330
1E
100
AcDbEntity
  8
0
100
AcDbLine
 10
21.49558999999999
 20
126.4340354058569
 30
0.0
 11
21.49579999999999
 21
126.052235405857
 31
0.0
  0
LINE
  5
F1
330
1E
100
AcDbEntity
  8
0
100
AcDbLine
 10
21.49579999999999
 20
126.052235405857
 30
0.0
 11
21.49629
 21
125.6805354058569
 31
0.0
  0
LINE
  5
F8
330
1E
100
AcDbEntity
  8
0
100
AcDbLine
 10
21.50797
 20
142.8456238158569
 30
0.0
 11
21.69669
 21
142.8454730958569
 31
0.0
  0
LINE
  5
F9
330
1E
100
AcDbEntity
  8
0
100
AcDbLine
 10
21.50797
 20
142.8456238158569
 30
0.0
 11
21.69973999999999
 21
142.8454707458569
 31
0.0
  0
LINE
  5
FB
330
1E
100
AcDbEntity
  8
0
100
AcDbLine
 10
21.69973999999999
 20
142.8454707458569
 30
0.0
 11
22.12680021159779
 21
142.845130239052
 31
0.0
  0
LINE
  5
FC
330
1E
100
AcDbEntity
  8
0
100
AcDbLine
 10
21.69669
 20
142.8454730958569
 30
0.0
 11
22.2374
 21
142.8450420758569
 31
0.0
  0
LINE
  5
FD
330
1E
100
AcDbEntity
  8
0
100
AcDbLine
 10
22.2374
 20
142.8450420758569
 30
0.0
 11
23.04753599999999
 21
142.844396789857
 31
0.0
  0
LINE
  5
FE
330
1E
100
AcDbEntity
  8
0
100
AcDbLine
 10
23.04753599999999
 20
142.844396789857
 30
0.0
 11
24.00398114
 21
142.843635190955
 31
0.0
  0
LINE
  5
101
330
1E
100
AcDbEntity
  8
0
100
AcDbLine
 10
21.49626
 20
125.6633354058569
 30
0.0
 11
21.51418615637199
 21
116.5504163077889
 31
0.0
  0
LINE
  5
103
330
1E
100
AcDbEntity
  8
0
100
AcDbLine
 10
19.31782999999998
 20
116.3824354058569
 30
0.0
 11
21.5140910390145
 21
116.598770052227
 31
0.0
  0
LINE
  5
108
330
1E
100
AcDbEntity
  8
0
100
AcDbLine
 10
24.01485389999999
 20
0.154376184142771
 30
0.0
 11
29.35004
 21
0.6842362257806382
 31
0.0
  0
LINE
  5
109
330
1E
100
AcDbEntity
  8
0
100
AcDbLine
 10
24.01485389999999
 20
0.154376184142771
 30
0.0
 11
29.35004
 21
0.6842362257806382
 31
0.0
  0
LINE
  5
10A
330
1E
100
AcDbEntity
  8
0
100
AcDbLine
 10
24.0222873
 20
8.2339069659245
 30
0.0
 11
29.35748
 21
8.763817354395689
 31
0.0
  0
LINE
  5
10E
330
1E
100
AcDbEntity
  8
0
100
AcDbLine
 10
24.00000000000019
 20
68.7242354058572
 30
0.0
 11
27.55084
 21
69.0090354058572
 31
0.0
  0
LINE
  5
10F
330
1E
100
AcDbEntity
  8
0
100
AcDbLine
 10
24.903124
 20
76.368502698956
 30
0.0
 11
25.19526
 21
76.24840669390792
 31
0.0
  0
LINE
  5
110
330
1E
100
AcDbEntity
  8
0
100
AcDbLine
 10
24.938326
 20
72.2013324447409
 30
0.0
 11
25.36224
 21
72.41780213981188
 31
0.0
  0
LINE
  5
111
330
1E
100
AcDbEntity
  8
0
100
AcDbLine
 10
24.478354
 20
72.0680343444132
 30
0.0
 11
24.938326
 21
72.2013324447409
 31
0.0
  0
LINE
  5
112
330
1E
100
AcDbEntity
  8
0
100
AcDbLine
 10
25.31700999999999
 20
76.16427048802679
 30
0.0
 11
25.69801
 21
75.901019950979
 31
0.0
  0
LINE
  5
113
330
1E
100
AcDbEntity
  8
0
100
AcDbLine
 10
25.36224
 20
72.41780213981188
 30
0.0
 11
25.7338
 21
72.70911289544099
 31
0.0
  0
LINE
  5
114
330
1E
100
AcDbEntity
  8
0
100
AcDbLine
 10
25.19526
 20
76.24840669390792
 30
0.0
 11
25.69801
 21
75.901019950979
 31
0.0
  0
LINE
  5
115
330
1E
100
AcDbEntity
  8
0
100
AcDbLine
 10
25.19526
 20
76.24840669390792
 30
0.0
 11
25.31700999999999
 21
76.16427048802679
 31
0.0
  0
LINE
  5
116
330
1E
100
AcDbEntity
  8
0
100
AcDbLine
 10
24.462663
 20
76.5143346188856
 30
0.0
 11
24.617102
 21
76.486065278456
 31
0.0
  0
LINE
  5
117
330
1E
100
AcDbEntity
  8
0
100
AcDbLine
 10
24.617102
 20
76.486065278456
 30
0.0
 11
25.19526
 21
76.24840669390792
 31
0.0
  0
LINE
  5
118
330
1E
100
AcDbEntity
  8
0
100
AcDbLine
 10
24.617102
 20
76.486065278456
 30
0.0
 11
24.903124
 21
76.368502698956
 31
0.0
  0
LINE
  5
119
330
1E
100
AcDbEntity
  8
0
100
AcDbLine
 10
25.7338
 20
72.70911289544099
 30
0.0
 11
26.03873
 21
73.06407772134052
 31
0.0
  0
LINE
  5
11A
330
1E
100
AcDbEntity
  8
0
100
AcDbLine
 10
25.69801
 20
75.901019950979
 30
0.0
 11
26.09361
 21
75.46584956851901
 31
0.0
  0
LINE
  5
11B
330
1E
100
AcDbEntity
  8
0
100
AcDbLine
 10
25.69801
 20
75.901019950979
 30
0.0
 11
25.9902
 21
75.57959881340521
 31
0.0
  0
LINE
  5
121
330
1E
100
AcDbEntity
  8
0
100
AcDbLine
 10
25.9902
 20
75.57959881340521
 30
0.0
 11
26.09361
 21
75.46584956851901
 31
0.0
  0
LINE
  5
122
330
1E
100
AcDbEntity
  8
0
100
AcDbLine
 10
26.03873
 20
73.06407772134052
 30
0.0
 11
26.26532
 21
73.4690544124457
 31
0.0
  0
LINE
  5
124
330
1E
100
AcDbEntity
  8
0
100
AcDbLine
 10
26.09361
 20
75.46584956851901
 30
0.0
 11
26.35709999999999
 21
74.9703437505334
 31
0.0
  0
LINE
  5
130
330
1E
100
AcDbEntity
  8
0
100
AcDbLine
 10
26.26532
 20
73.4690544124457
 30
0.0
 11
26.43064999999999
 21
73.9251859305946
 31
0.0
  0
LINE
  5
131
330
1E
100
AcDbEntity
  8
0
100
AcDbLine
 10
26.39261687489989
 20
74.8079883710556
 30
0.0
 11
26.47185999999999
 21
74.4457507675811
 31
0.0
  0
LINE
  5
132
330
1E
100
AcDbEntity
  8
0
100
AcDbLine
 10
26.43064999999999
 20
73.9251859305946
 30
0.0
 11
26.91505999999999
 21
75.90649733513348
 31
0.0
  0
LINE
  5
135
330
1E
100
AcDbEntity
  8
0
100
AcDbLine
 10
26.91505999999999
 20
75.90649733513348
 30
0.0
 11
27.3432
 21
77.79684586796999
 31
0.0
  0
LINE
  5
136
330
1E
100
AcDbEntity
  8
0
100
AcDbLine
 10
27.3432
 20
77.79684586796999
 30
0.0
 11
27.71088
 21
79.57858959825021
 31
0.0
  0
LINE
  5
137
330
1E
100
AcDbEntity
  8
0
100
AcDbLine
 10
27.71088
 20
79.57858959825021
 30
0.0
 11
28.01855
 21
81.25348492715758
 31
0.0
  0
LINE
  5
138
330
1E
100
AcDbEntity
  8
0
100
AcDbLine
 10
26.35709999999999
 20
74.9703437505334
 30
0.0
 11
26.39261687489989
 21
74.8079883710556
 31
0.0
  0
LINE
  5
139
330
1E
100
AcDbEntity
  8
0
100
AcDbLine
 10
26.35709999999999
 20
74.9703437505334
 30
0.0
 11
26.38990999999998
 21
74.820351619605
 31
0.0
  0
LINE
  5
143
330
1E
100
AcDbEntity
  8
0
100
AcDbLine
 10
28.01855
 20
81.25348492715758
 30
0.0
 11
28.26482
 21
82.815046193731
 31
0.0
  0
LINE
  5
144
330
1E
100
AcDbEntity
  8
0
100
AcDbLine
 10
28.26482
 20
82.815046193731
 30
0.0
 11
28.44998
 21
84.264121724234
 31
0.0
  0
LINE
  5
145
330
1E
100
AcDbEntity
  8
0
100
AcDbLine
 10
28.44998
 20
84.264121724234
 30
0.0
 11
28.57390999999999
 21
85.5994130136109
 31
0.0
  0
LINE
  5
146
330
1E
100
AcDbEntity
  8
0
100
AcDbLine
 10
28.62562
 20
86.19264236248492
 30
0.0
 11
28.68802999999999
 21
87.41785247193702
 31
0.0
  0
LINE
  5
147
330
1E
100
AcDbEntity
  8
0
100
AcDbLine
 10
28.57390999999999
 20
85.5994130136109
 30
0.0
 11
28.62562
 21
86.19264236248492
 31
0.0
  0
LINE
  5
148
330
1E
100
AcDbEntity
  8
0
100
AcDbLine
 10
28.62731
 20
89.513231061738
 30
0.0
 11
28.6886
 21
88.5249252948599
 31
0.0
  0
LINE
  5
149
330
1E
100
AcDbEntity
  8
0
100
AcDbLine
 10
28.50427
 20
90.380718335541
 30
0.0
 11
28.62731
 21
89.513231061738
 31
0.0
  0
LINE
  5
14A
330
1E
100
AcDbEntity
  8
0
100
AcDbLine
 10
28.21032999999999
 20
91.73841120633001
 30
0.0
 11
28.39514
 21
90.989609565485
 31
0.0
  0
LINE
  5
14B
330
1E
100
AcDbEntity
  8
0
100
AcDbLine
 10
28.39514
 20
90.989609565485
 30
0.0
 11
28.50427
 21
90.380718335541
 31
0.0
  0
LINE
  5
14C
330
1E
100
AcDbEntity
  8
0
100
AcDbLine
 10
27.96334
 20
92.366339430971
 30
0.0
 11
28.21032999999999
 21
91.73841120633001
 31
0.0
  0
LINE
  5
14D
330
1E
100
AcDbEntity
  8
0
100
AcDbLine
 10
27.55084
 20
69.0090354058572
 30
0.0
 11
28.4552426631137
 21
69.16308276001742
 31
0.0
  0
LINE
  5
14E
330
1E
100
AcDbEntity
  8
0
100
AcDbLine
 10
29.35004
 20
0.6842362257806382
 30
0.0
 11
33.89199999999998
 21
2.2005998700899
 31
0.0
  0
LINE
  5
14F
330
1E
100
AcDbEntity
  8
0
100
AcDbLine
 10
29.35004
 20
0.6842362257806382
 30
0.0
 11
33.89199999999998
 21
2.2005998700899
 31
0.0
  0
LINE
  5
150
330
1E
100
AcDbEntity
  8
0
100
AcDbLine
 10
29.35748
 20
8.763817354395689
 30
0.0
 11
33.89942999999998
 21
10.28016599857768
 31
0.0
  0
LINE
  5
151
330
1E
100
AcDbEntity
  8
0
100
AcDbLine
 10
29.35757
 20
9.141635405857226
 30
0.0
 11
33.89949
 21
10.66163540585719
 31
0.0
  0
LINE
  5
152
330
1E
100
AcDbEntity
  8
0
100
AcDbLine
 10
33.89199999999998
 20
2.2005998700899
 30
0.0
 11
36.9269
 21
4.472618361943888
 31
0.0
  0
LINE
  5
153
330
1E
100
AcDbEntity
  8
0
100
AcDbLine
 10
33.89942999999998
 20
10.28016599857768
 30
0.0
 11
36.9343
 21
12.5521844038294
 31
0.0
  0
LINE
  5
154
330
1E
100
AcDbEntity
  8
0
100
AcDbLine
 10
36.9269
 20
4.472618361943888
 30
0.0
 11
37.9926
 21
7.160001142065611
 31
0.0
  0
LINE
  5
156
330
1E
100
AcDbEntity
  8
0
100
AcDbLine
 10
36.9343
 20
12.5521844038294
 30
0.0
 11
38.0
 21
15.23956332966069
 31
0.0
  0
LINE
  5
157
330
1E
100
AcDbEntity
  8
0
100
AcDbLine
 10
30.81865999999999
 20
69.73473540585729
 30
0.0
 11
32.8493146382373
 21
70.44949109213729
 31
0.0
  0
LINE
  5
158
330
1E
100
AcDbEntity
  8
0
100
AcDbLine
 10
28.4552426631137
 20
69.16308276001742
 30
0.0
 11
30.81865999999999
 21
69.73473540585729
 31
0.0
  0
LINE
  5
159
330
1E
100
AcDbEntity
  8
0
100
AcDbLine
 10
33.89949
 20
10.66163540585719
 30
0.0
 11
36.9343
 21
12.9353354058572
 31
0.0
  0
LINE
  5
15A
330
1E
100
AcDbEntity
  8
0
100
AcDbLine
 10
37.9926
 20
7.160001142065611
 30
0.0
 11
38.0
 21
15.23956332966069
 31
0.0
  0
LINE
  5
15B
330
1E
100
AcDbEntity
  8
0
100
AcDbLine
 10
37.9247920923322
 20
15.42852770920809
 30
0.0
 11
38.0
 21
15.23956332966069
 31
0.0
  0
LINE
  5
15C
330
1E
100
AcDbEntity
  8
0
100
AcDbLine
 10
36.9343
 20
12.9353354058572
 30
0.0
 11
38.0
 21
15.61783540585718
 31
0.0
  0
LINE
  5
15E
330
1E
100
AcDbEntity
  8
0
100
AcDbLine
 10
28.68802999999999
 20
87.41785247193702
 30
0.0
 11
28.6886
 21
88.5249252948599
 31
0.0
  0
LINE
  5
161
330
1E
100
AcDbEntity
  8
0
100
AcDbLine
 10
38.464
 20
72.97283540585728
 30
0.0
 11
39.7093
 21
74.61363540585729
 31
0.0
  0
LINE
  5
162
330
1E
100
AcDbEntity
  8
0
100
AcDbLine
 10
37.9868
 20
70.9422354058572
 30
0.0
 11
38.464
 21
72.97283540585728
 31
0.0
  0
LINE
  5
163
330
1E
100
AcDbEntity
  8
0
100
AcDbLine
 10
37.9868
 20
70.9422354058572
 30
0.0
 11
38.0
 21
15.61783540585718
 31
0.0
  0
LINE
  5
164
330
1E
100
AcDbEntity
  8
0
100
AcDbLine
 10
37.9868
 20
70.9422354058572
 30
0.0
 11
38.0
 21
15.61783540585718
 31
0.0
  0
LINE
  5
165
330
1E
100
AcDbEntity
  8
0
100
AcDbLine
 10
39.7093
 20
74.61363540585729
 30
0.0
 11
40.80095166130621
 21
75.61440985758827
 31
0.0
  0
LINE
  5
166
330
1E
100
AcDbEntity
  8
0
100
AcDbLine
 10
47.5388
 20
88.04202540585691
 30
0.0
 11
48.0
 21
92.72419640585692
 31
0.0
  0
LINE
  5
167
330
1E
100
AcDbEntity
  8
0
100
AcDbLine
 10
46.17309999999998
 20
83.53979540585699
 30
0.0
 11
47.5388
 21
88.04202540585691
 31
0.0
  0
LINE
  5
168
330
1E
100
AcDbEntity
  8
0
100
AcDbLine
 10
43.95529999999999
 20
79.39053540585722
 30
0.0
 11
46.17309999999998
 21
83.53979540585699
 31
0.0
  0
LINE
  5
169
330
1E
100
AcDbEntity
  8
0
100
AcDbLine
 10
40.97059999999999
 20
75.75363540585719
 30
0.0
 11
43.95529999999999
 21
79.39053540585722
 31
0.0
  0
LINE
  5
16A
330
1E
100
AcDbEntity
  8
0
100
AcDbLine
 10
37.3337
 20
72.76893540585721
 30
0.0
 11
40.97059999999999
 21
75.75363540585719
 31
0.0
  0
LINE
  5
16B
330
1E
100
AcDbEntity
  8
0
100
AcDbLine
 10
32.8493146382373
 20
70.44949109213729
 30
0.0
 11
37.3337
 21
72.76893540585721
 31
0.0
  0
LINE
  5
174
330
1E
100
AcDbEntity
  8
0
100
AcDbLine
 10
25.18073
 20
95.124082155275
 30
0.0
 11
25.76536
 21
94.89192065419791
 31
0.0
  0
LINE
  5
17A
330
1E
100
AcDbEntity
  8
0
100
AcDbLine
 10
24.932925
 20
95.15471701410401
 30
0.0
 11
25.18073
 21
95.124082155275
 31
0.0
  0
LINE
  5
17E
330
1E
100
AcDbEntity
  8
0
100
AcDbLine
 10
24.552341
 20
95.2017838222139
 30
0.0
 11
24.932925
 21
95.15471701410401
 31
0.0
  0
LINE
  5
181
330
1E
100
AcDbEntity
  8
0
100
AcDbLine
 10
26.11458
 20
94.67119033583989
 30
0.0
 11
26.62389
 21
94.30341307422791
 31
0.0
  0
LINE
  5
182
330
1E
100
AcDbEntity
  8
0
100
AcDbLine
 10
25.76536
 20
94.89192065419791
 30
0.0
 11
26.11458
 21
94.67119033583989
 31
0.0
  0
LINE
  5
183
330
1E
100
AcDbEntity
  8
0
100
AcDbLine
 10
26.62389
 20
94.30341307422791
 30
0.0
 11
26.99242
 21
93.9217318980159
 31
0.0
  0
LINE
  5
184
330
1E
100
AcDbEntity
  8
0
100
AcDbLine
 10
26.99242
 20
93.9217318980159
 30
0.0
 11
27.39195
 21
93.43839143056591
 31
0.0
  0
LINE
  5
185
330
1E
100
AcDbEntity
  8
0
100
AcDbLine
 10
27.39195
 20
93.43839143056591
 30
0.0
 11
27.70004
 21
92.93327067961
 31
0.0
  0
LINE
  5
188
330
1E
100
AcDbEntity
  8
0
100
AcDbLine
 10
27.70004
 20
92.93327067961
 30
0.0
 11
27.96334
 21
92.366339430971
 31
0.0
  0
LINE
  5
199
330
1E
100
AcDbEntity
  8
0
100
AcDbLine
 10
47.5388
 20
97.52580540585691
 30
0.0
 11
48.0
 21
92.84363540585692
 31
0.0
  0
LINE
  5
19D
330
1E
100
AcDbEntity
  8
0
100
AcDbLine
 10
43.95529999999999
 20
106.1773354058569
 30
0.0
 11
46.17309999999998
 21
102.028035405857
 31
0.0
  0
LINE
  5
1A1
330
1E
100
AcDbEntity
  8
0
100
AcDbLine
 10
37.3337
 20
112.7989354058569
 30
0.0
 11
40.97059999999999
 21
109.8142354058569
 31
0.0
  0
LINE
  5
1AB
330
1E
100
AcDbEntity
  8
0
100
AcDbLine
 10
26.31619
 20
142.8417947858569
 30
0.0
 11
26.50795999999999
 21
142.8416425258569
 31
0.0
  0
LINE
  5
1AC
330
1E
100
AcDbEntity
  8
0
100
AcDbLine
 10
26.31923
 20
142.8417924358569
 30
0.0
 11
26.50795999999999
 21
142.8416425258569
 31
0.0
  0
LINE
  5
1AD
330
1E
100
AcDbEntity
  8
0
100
AcDbLine
 10
24.00398114
 20
142.843635190955
 30
0.0
 11
24.961033
 21
142.8428731508569
 31
0.0
  0
LINE
  5
1AE
330
1E
100
AcDbEntity
  8
0
100
AcDbLine
 10
24.961033
 20
142.8428731508569
 30
0.0
 11
25.77289
 21
142.8422269158569
 31
0.0
  0
LINE
  5
1AF
330
1E
100
AcDbEntity
  8
0
100
AcDbLine
 10
25.77289
 20
142.8422269158569
 30
0.0
 11
26.31619
 21
142.8417947858569
 31
0.0
  0
LINE
  5
1B0
330
1E
100
AcDbEntity
  8
0
100
AcDbLine
 10
25.9850873534991
 20
142.842058138308
 30
0.0
 11
26.31923
 21
142.8417924358569
 31
0.0
  0
LINE
  5
1B1
330
1E
100
AcDbEntity
  8
0
100
AcDbLine
 10
26.49555
 20
126.8681354058569
 30
0.0
 11
26.49559
 21
126.4300354058569
 31
0.0
  0
LINE
  5
1B2
330
1E
100
AcDbEntity
  8
0
100
AcDbLine
 10
26.49555
 20
126.8681354058569
 30
0.0
 11
26.4957
 21
127.344935405857
 31
0.0
  0
LINE
  5
1B3
330
1E
100
AcDbEntity
  8
0
100
AcDbLine
 10
26.49601
 20
127.8416354058569
 30
0.0
 11
26.50795999999999
 21
142.8416425258569
 31
0.0
  0
LINE
  5
1B4
330
1E
100
AcDbEntity
  8
0
100
AcDbLine
 10
26.4957
 20
127.344935405857
 30
0.0
 11
26.49601
 21
127.8416354058569
 31
0.0
  0
LINE
  5
1B5
330
1E
100
AcDbEntity
  8
0
100
AcDbLine
 10
26.49559
 20
126.4300354058569
 30
0.0
 11
26.49579
 21
126.0482354058569
 31
0.0
  0
LINE
  5
1B6
330
1E
100
AcDbEntity
  8
0
100
AcDbLine
 10
26.49579
 20
126.0482354058569
 30
0.0
 11
26.49627999999999
 21
125.6765354058569
 31
0.0
  0
LINE
  5
1B7
330
1E
100
AcDbEntity
  8
0
100
AcDbLine
 10
26.49625
 20
125.6593354058569
 30
0.0
 11
26.51418762452389
 21
116.5406228974439
 31
0.0
  0
LINE
  5
1B8
330
1E
100
AcDbEntity
  8
0
100
AcDbLine
 10
26.5140787002343
 20
116.595995295279
 30
0.0
 11
28.68217
 21
116.3824354058569
 31
0.0
  0
LINE
  5
1B9
330
1E
100
AcDbEntity
  8
0
100
AcDbLine
 10
28.68217
 20
116.3824354058569
 30
0.0
 11
33.18439999999998
 21
115.0167354058569
 31
0.0
  0
LINE
  5
1BC
330
1E
100
AcDbEntity
  8
0
100
AcDbLine
 10
33.18439999999998
 20
115.0167354058569
 30
0.0
 11
37.3337
 21
112.7989354058569
 31
0.0
  0
LINE
  5
1C0
330
1E
100
AcDbEntity
  8
0
100
AcDbLine
 10
40.97059999999999
 20
109.8142354058569
 30
0.0
 11
43.95529999999999
 21
106.1773354058569
 31
0.0
  0
LINE
  5
1C4
330
1E
100
AcDbEntity
  8
0
100
AcDbLine
 10
46.17309999999998
 20
102.028035405857
 30
0.0
 11
47.5388
 21
97.52580540585691
 31
0.0
  0
LINE
  5
1C8
330
1E
100
AcDbEntity
  8
0
100
AcDbLine
 10
47.99497682978159
 20
92.79263944553301
 30
0.0
 11
48.0
 21
92.84363540585692
 31
0.0
  0
LINE
  5
1C9
330
1E
100
AcDbEntity
  8
0
100
AcDbLine
 10
48.0
 20
92.74052040585699
 30
0.0
 11
48.0
 21
92.84363540585692
 31
0.0
  0
LINE
  5
1CA
330
1E
100
AcDbEntity
  8
0
100
AcDbLine
 10
48.0
 20
92.84363540585692
 30
0.0
 11
48.0
 21
92.74052040585699
 31
0.0
  0
LINE
  5
1D1
330
1E
100
AcDbEntity
  8
0
100
AcDbLine
 10
21.51409103901446
 20
116.598770052227
 30
0.0
 11
26.51407870023437
 21
116.595995295279
 31
0.0
  0
ENDSEC
  0
SECTION
  2
OBJECTS
  0
DICTIONARY
  5
C
330
0
100
AcDbDictionary
  3
ACAD_GROUP
350
D
  3
ACAD_LAYOUT
350
19
  3
ACAD_MLINESTYLE
350
16
  3
ACAD_PLOTSETTINGS
350
18
  3
ACAD_PLOTSTYLENAME
350
E
  3
ACDBHEADERROUNDTRIPXREC
350
200
  3
ACDBVARIABLEDICTIONARY
350
1D2
  0
DICTIONARY
  5
1F7
330
1E
100
AcDbDictionary
280
     1
  3
ACAD_LAYOUTSELFREF
360
221
  0
DICTIONARY
  5
1F5
330
1A
100
AcDbDictionary
280
     1
  3
ACAD_LAYOUTSELFREF
360
220
  0
DICTIONARY
  5
D
102
{ACAD_REACTORS
330
C
102
}
330
C
100
AcDbDictionary
  0
DICTIONARY
  5
19
102
{ACAD_REACTORS
330
C
102
}
330
C
100
AcDbDictionary
  0
DICTIONARY
  5
16
102
{ACAD_REACTORS
330
C
102
}
330
C
100
AcDbDictionary
  3
STANDARD
350
17
  0
DICTIONARY
  5
18
102
{ACAD_REACTORS
330
C
102
}
330
C
100
AcDbDictionary
  0
ACDBDICTIONARYWDFLT
  5
E
102
{ACAD_REACTORS
330
C
102
}
330
C
100
AcDbDictionary
281
     1
  3
Normal
350
F
100
AcDbDictionaryWithDefault
340
F
  0
DICTIONARY
  5
200
102
{ACAD_REACTORS
330
C
102
}
330
C
100
AcDbDictionary
  3
CEPSNTYPE
350
20A
  3
FINGERPRINTGUID
350
20B
  3
HYPERLINKBASE
350
203
  3
INSUNITS
350
209
  3
LAYOUTDICT
350
205
  3
LWETCUNION
350
208
  3
PLOTSETDICT
350
206
  3
PLOTSTYLNAMDICT
350
207
  3
PSVPSCALE
350
20D
  3
PUCSBASE
350
210
  3
PUCSORGBACK
350
216
  3
PUCSORGBOTTOM
350
212
  3
PUCSORGFRONT
350
215
  3
PUCSORGLEFT
350
213
  3
PUCSORGRIGHT
350
214
  3
PUCSORGTOP
350
211
  3
PUCSORTHOREF
350
20E
  3
PUCSORTHOVIEW
350
20F
  3
STYLESHEET
350
204
  3
TSTACKALIGN
350
201
  3
TSTACKSIZE
350
202
  3
UCSBASE
350
219
  3
UCSORGBACK
350
21F
  3
UCSORGBOTTOM
350
21B
  3
UCSORGFRONT
350
21E
  3
UCSORGLEFT
350
21C
  3
UCSORGRIGHT
350
21D
  3
UCSORGTOP
350
21A
  3
UCSORTHOREF
350
217
  3
UCSORTHOVIEW
350
218
  3
VERSIONGUID
350
20C
  0
DICTIONARY
  5
1D2
102
{ACAD_REACTORS
330
C
102
}
330
C
100
AcDbDictionary
  3
DIMASSOC
350
1D3
  0
XRECORD
  5
221
102
{ACAD_REACTORS
330
1F7
102
}
330
1F7
100
AcDbXrecord
340
1E
  0
XRECORD
  5
220
102
{ACAD_REACTORS
330
1F5
102
}
330
1F5
100
AcDbXrecord
340
1A
  0
MLINESTYLE
  5
17
102
{ACAD_REACTORS
330
16
102
}
330
16
100
AcDbMlineStyle
  2
STANDARD
 70
     0
  3

 62
   256
 51
90.0
 52
90.0
 71
     2
 49
0.5
 62
   256
  6
BYLAYER
 49
-0.5
 62
   256
  6
BYLAYER
  0
ACDBPLACEHOLDER
  5
F
102
{ACAD_REACTORS
330
E
102
}
330
E
100
AcDbPlaceHolder
280
     0
  0
XRECORD
  5
20A
102
{ACAD_REACTORS
330
200
102
}
330
200
100
AcDbXrecord
 90
        0
  0
XRECORD
  5
20B
102
{ACAD_REACTORS
330
200
102
}
330
200
100
AcDbXrecord
  1
{E191964D-3CDC-4CCB-98EE-4A9C4430F544}
  0
XRECORD
  5
203
102
{ACAD_REACTORS
330
200
102
}
330
200
100
AcDbXrecord
  1

  0
XRECORD
  5
209
102
{ACAD_REACTORS
330
200
102
}
330
200
100
AcDbXrecord
 90
        0
  0
XRECORD
  5
205
102
{ACAD_REACTORS
330
200
102
}
330
200
100
AcDbXrecord
340
19
  0
XRECORD
  5
208
102
{ACAD_REACTORS
330
200
102
}
330
200
100
AcDbXrecord
 90
    10781
  0
XRECORD
  5
206
102
{ACAD_REACTORS
330
200
102
}
330
200
100
AcDbXrecord
340
18
  0
XRECORD
  5
207
102
{ACAD_REACTORS
330
200
102
}
330
200
100
AcDbXrecord
340
E
  0
XRECORD
  5
20D
102
{ACAD_REACTORS
330
200
102
}
330
200
100
AcDbXrecord
 40
0.0
  0
XRECORD
  5
210
102
{ACAD_REACTORS
330
200
102
}
330
200
100
AcDbXrecord
340
0
  0
XRECORD
  5
216
102
{ACAD_REACTORS
330
200
102
}
330
200
100
AcDbXrecord
 10
0.0
 20
0.0
 30
0.0
  0
XRECORD
  5
212
102
{ACAD_REACTORS
330
200
102
}
330
200
100
AcDbXrecord
 10
0.0
 20
0.0
 30
0.0
  0
XRECORD
  5
215
102
{ACAD_REACTORS
330
200
102
}
330
200
100
AcDbXrecord
 10
0.0
 20
0.0
 30
0.0
  0
XRECORD
  5
213
102
{ACAD_REACTORS
330
200
102
}
330
200
100
AcDbXrecord
 10
0.0
 20
0.0
 30
0.0
  0
XRECORD
  5
214
102
{ACAD_REACTORS
330
200
102
}
330
200
100
AcDbXrecord
 10
0.0
 20
0.0
 30
0.0
  0
XRECORD
  5
211
102
{ACAD_REACTORS
330
200
102
}
330
200
100
AcDbXrecord
 10
0.0
 20
0.0
 30
0.0
  0
XRECORD
  5
20E
102
{ACAD_REACTORS
330
200
102
}
330
200
100
AcDbXrecord
340
0
  0
XRECORD
  5
20F
102
{ACAD_REACTORS
330
200
102
}
330
200
100
AcDbXrecord
 70
     0
  0
XRECORD
  5
204
102
{ACAD_REACTORS
330
200
102
}
330
200
100
AcDbXrecord
  1

  0
XRECORD
  5
201
102
{ACAD_REACTORS
330
200
102
}
330
200
100
AcDbXrecord
 90
        1
  0
XRECORD
  5
202
102
{ACAD_REACTORS
330
200
102
}
330
200
100
AcDbXrecord
 90
       70
  0
XRECORD
  5
219
102
{ACAD_REACTORS
330
200
102
}
330
200
100
AcDbXrecord
340
0
  0
XRECORD
  5
21F
102
{ACAD_REACTORS
330
200
102
}
330
200
100
AcDbXrecord
 10
0.0
 20
0.0
 30
0.0
  0
XRECORD
  5
21B
102
{ACAD_REACTORS
330
200
102
}
330
200
100
AcDbXrecord
 10
0.0
 20
0.0
 30
0.0
  0
XRECORD
  5
21E
102
{ACAD_REACTORS
330
200
102
}
330
200
100
AcDbXrecord
 10
0.0
 20
0.0
 30
0.0
  0
XRECORD
  5
21C
102
{ACAD_REACTORS
330
200
102
}
330
200
100
AcDbXrecord
 10
0.0
 20
0.0
 30
0.0
  0
XRECORD
  5
21D
102
{ACAD_REACTORS
330
200
102
}
330
200
100
AcDbXrecord
 10
0.0
 20
0.0
 30
0.0
  0
XRECORD
  5
21A
102
{ACAD_REACTORS
330
200
102
}
330
200
100
AcDbXrecord
 10
0.0
 20
0.0
 30
0.0
  0
XRECORD
  5
217
102
{ACAD_REACTORS
330
200
102
}
330
200
100
AcDbXrecord
340
0
  0
XRECORD
  5
218
102
{ACAD_REACTORS
330
200
102
}
330
200
100
AcDbXrecord
 70
     1
  0
XRECORD
  5
20C
102
{ACAD_REACTORS
330
200
102
}
330
200
100
AcDbXrecord
  1
{4E67D258-8104-446A-9FCE-8AE86466B8A8}
  0
DICTIONARYVAR
  5
1D3
102
{ACAD_REACTORS
330
1D2
102
}
330
1D2
100
DictionaryVariables
280
     0
  1
1
  0
ENDSEC
  0
EOF
