  0
SECTION
  2
HEADER
  9
$ACADVER
  1
AC1014
  9
$ACADMAINTVER
 70
     9
  9
$DWGCODEPAGE
  3
ANSI_1252
  9
$INSBASE
 10
0.0
 20
0.0
 30
0.0
  9
$EXTMIN
 10
0.0000000000000088
 20
0.159480499999998
 30
0.0
  9
$EXTMAX
 10
108.0
 20
127.8405195
 30
0.0
  9
$LIMMIN
 10
0.0
 20
0.0
  9
$LIMMAX
 10
12.0
 20
9.0
  9
$ORTHOMODE
 70
     0
  9
$REGENMODE
 70
     1
  9
$FILLMODE
 70
     1
  9
$QTEXTMODE
 70
     0
  9
$MIRRTEXT
 70
     1
  9
$DRAGMODE
 70
     2
  9
$LTSCALE
 40
1.0
  9
$OSMODE
 70
    37
  9
$ATTMODE
 70
     1
  9
$TEXTSIZE
 40
0.2
  9
$TRACEWID
 40
0.05
  9
$TEXTSTYLE
  7
STANDARD
  9
$CLAYER
  8
0
  9
$CELTYPE
  6
CONTINUOUS
  9
$CECOLOR
 62
   256
  9
$CELTSCALE
 40
1.0
  9
$DELOBJ
 70
     1
  9
$DISPSILH
 70
     0
  9
$DIMSCALE
 40
1.0
  9
$DIMASZ
 40
0.18
  9
$DIMEXO
 40
0.0625
  9
$DIMDLI
 40
0.38
  9
$DIMRND
 40
0.0
  9
$DIMDLE
 40
0.0
  9
$DIMEXE
 40
0.18
  9
$DIMTP
 40
0.0
  9
$DIMTM
 40
0.0
  9
$DIMTXT
 40
0.18
  9
$DIMCEN
 40
0.09
  9
$DIMTSZ
 40
0.0
  9
$DIMTOL
 70
     0
  9
$DIMLIM
 70
     0
  9
$DIMTIH
 70
     1
  9
$DIMTOH
 70
     1
  9
$DIMSE1
 70
     0
  9
$DIMSE2
 70
     0
  9
$DIMTAD
 70
     0
  9
$DIMZIN
 70
     0
  9
$DIMBLK
  1

  9
$DIMASO
 70
     1
  9
$DIMSHO
 70
     1
  9
$DIMPOST
  1

  9
$DIMAPOST
  1

  9
$DIMALT
 70
     0
  9
$DIMALTD
 70
     2
  9
$DIMALTF
 40
25.4
  9
$DIMLFAC
 40
1.0
  9
$DIMTOFL
 70
     0
  9
$DIMTVP
 40
0.0
  9
$DIMTIX
 70
     0
  9
$DIMSOXD
 70
     0
  9
$DIMSAH
 70
     0
  9
$DIMBLK1
  1

  9
$DIMBLK2
  1

  9
$DIMSTYLE
  2
STANDARD
  9
$DIMCLRD
 70
     0
  9
$DIMCLRE
 70
     0
  9
$DIMCLRT
 70
     0
  9
$DIMTFAC
 40
1.0
  9
$DIMGAP
 40
0.09
  9
$DIMJUST
 70
     0
  9
$DIMSD1
 70
     0
  9
$DIMSD2
 70
     0
  9
$DIMTOLJ
 70
     1
  9
$DIMTZIN
 70
     0
  9
$DIMALTZ
 70
     0
  9
$DIMALTTZ
 70
     0
  9
$DIMFIT
 70
     3
  9
$DIMUPT
 70
     0
  9
$DIMUNIT
 70
     2
  9
$DIMDEC
 70
     4
  9
$DIMTDEC
 70
     4
  9
$DIMALTU
 70
     2
  9
$DIMALTTD
 70
     2
  9
$DIMTXSTY
  7
STANDARD
  9
$DIMAUNIT
 70
     0
  9
$LUNITS
 70
     2
  9
$LUPREC
 70
     4
  9
$SKETCHINC
 40
0.1
  9
$FILLETRAD
 40
0.0
  9
$AUNITS
 70
     0
  9
$AUPREC
 70
     0
  9
$MENU
  1
.
  9
$ELEVATION
 40
0.0
  9
$PELEVATION
 40
0.0
  9
$THICKNESS
 40
0.0
  9
$LIMCHECK
 70
     0
  9
$BLIPMODE
 70
     0
  9
$CHAMFERA
 40
0.0
  9
$CHAMFERB
 40
0.0
  9
$CHAMFERC
 40
0.0
  9
$CHAMFERD
 40
0.0
  9
$SKPOLY
 70
     0
  9
$TDCREATE
 40
2454690.846884757
  9
$TDUPDATE
 40
2454690.847969826
  9
$TDINDWG
 40
0.0010852546
  9
$TDUSRTIMER
 40
0.0010852546
  9
$USRTIMER
 70
     1
  9
$ANGBASE
 50
0.0
  9
$ANGDIR
 70
     0
  9
$PDMODE
 70
     0
  9
$PDSIZE
 40
0.0
  9
$PLINEWID
 40
0.0
  9
$COORDS
 70
     1
  9
$SPLFRAME
 70
     0
  9
$SPLINETYPE
 70
     6
  9
$SPLINESEGS
 70
     8
  9
$ATTDIA
 70
     0
  9
$ATTREQ
 70
     1
  9
$HANDLING
 70
 22529
  9
$HANDSEED
  5
FC
  9
$SURFTAB1
 70
     6
  9
$SURFTAB2
 70
     6
  9
$SURFTYPE
 70
     6
  9
$SURFU
 70
     6
  9
$SURFV
 70
     6
  9
$UCSNAME
  2

  9
$UCSORG
 10
0.0
 20
0.0
 30
0.0
  9
$UCSXDIR
 10
1.0
 20
0.0
 30
0.0
  9
$UCSYDIR
 10
0.0
 20
1.0
 30
0.0
  9
$PUCSNAME
  2

  9
$PUCSORG
 10
0.0
 20
0.0
 30
0.0
  9
$PUCSXDIR
 10
1.0
 20
0.0
 30
0.0
  9
$PUCSYDIR
 10
0.0
 20
1.0
 30
0.0
  9
$USERI1
 70
     0
  9
$USERI2
 70
     0
  9
$USERI3
 70
     0
  9
$USERI4
 70
     0
  9
$USERI5
 70
     0
  9
$USERR1
 40
0.0
  9
$USERR2
 40
0.0
  9
$USERR3
 40
0.0
  9
$USERR4
 40
0.0
  9
$USERR5
 40
0.0
  9
$WORLDVIEW
 70
     1
  9
$SHADEDGE
 70
     3
  9
$SHADEDIF
 70
    70
  9
$TILEMODE
 70
     1
  9
$MAXACTVP
 70
    64
  9
$PINSBASE
 10
0.0
 20
0.0
 30
0.0
  9
$PLIMCHECK
 70
     0
  9
$PEXTMIN
 10
1.000000000000000E+20
 20
1.000000000000000E+20
 30
1.000000000000000E+20
  9
$PEXTMAX
 10
-1.000000000000000E+20
 20
-1.000000000000000E+20
 30
-1.000000000000000E+20
  9
$PLIMMIN
 10
0.0
 20
0.0
  9
$PLIMMAX
 10
12.0
 20
9.0
  9
$UNITMODE
 70
     0
  9
$VISRETAIN
 70
     1
  9
$PLINEGEN
 70
     0
  9
$PSLTSCALE
 70
     1
  9
$TREEDEPTH
 70
  3020
  9
$PICKSTYLE
 70
     1
  9
$CMLSTYLE
  2
STANDARD
  9
$CMLJUST
 70
     0
  9
$CMLSCALE
 40
1.0
  9
$PROXYGRAPHICS
 70
     1
  9
$MEASUREMENT
 70
     0
  0
ENDSEC
  0
SECTION
  2
CLASSES
  0
CLASS
  1
ACDBDICTIONARYWDFLT
  2
AcDbDictionaryWithDefault
  3
AutoCAD 2000
 90
        0
280
     0
281
     0
  0
CLASS
  1
ACDBPLACEHOLDER
  2
AcDbPlaceHolder
  3
AutoCAD 2000
 90
        0
280
     0
281
     0
  0
CLASS
  1
LAYOUT
  2
AcDbLayout
  3
AutoCAD 2000
 90
        0
280
     0
281
     0
  0
CLASS
  1
DICTIONARYVAR
  2
AcDbDictionaryVar
  3
AutoCAD 2000
 90
        0
280
     0
281
     0
  0
CLASS
  1
LONG_TRANSACTION
  2
AcDbLongTransaction
  3
AutoCAD 2000
 90
        0
280
     0
281
     0
  0
CLASS
  1
LWPOLYLINE
  2
AcDbPolyline
  3
AutoCAD 2000
 90
        0
280
     0
281
     1
  0
CLASS
  1
HATCH
  2
AcDbHatch
  3
AutoCAD 2000
 90
        0
280
     0
281
     1
  0
CLASS
  1
XRECORD
  2
AcDbXrecord
  3
AutoCAD 2000
 90
        0
280
     0
281
     0
  0
ENDSEC
  0
SECTION
  2
TABLES
  0
TABLE
  2
VPORT
  5
8
330
0
100
AcDbSymbolTable
 70
     2
  0
VPORT
  5
D7
330
8
100
AcDbSymbolTableRecord
100
AcDbViewportTableRecord
  2
*ACTIVE
 70
     0
 10
0.0
 20
0.0
 11
1.0
 21
1.0
 12
54.0
 22
64.0
 13
0.0
 23
0.0
 14
1.0
 24
1.0
 15
0.0
 25
0.0
 16
0.0
 26
0.0
 36
1.0
 17
0.0
 27
0.0
 37
0.0
 40
128.660688915601
 41
2.043533930857874
 42
50.0
 43
0.0
 44
0.0
 50
0.0
 51
0.0
 71
     0
 72
   100
 73
     1
 74
     3
 75
     0
 76
     0
 77
     0
 78
     0
  0
ENDTAB
  0
TABLE
  2
LTYPE
  5
5
330
0
100
AcDbSymbolTable
 70
     1
  0
LTYPE
  5
13
330
5
100
AcDbSymbolTableRecord
100
AcDbLinetypeTableRecord
  2
BYBLOCK
 70
     0
  3

 72
    65
 73
     0
 40
0.0
  0
LTYPE
  5
14
330
5
100
AcDbSymbolTableRecord
100
AcDbLinetypeTableRecord
  2
BYLAYER
 70
     0
  3

 72
    65
 73
     0
 40
0.0
  0
LTYPE
  5
15
330
5
100
AcDbSymbolTableRecord
100
AcDbLinetypeTableRecord
  2
CONTINUOUS
 70
     0
  3
Solid line
 72
    65
 73
     0
 40
0.0
  0
ENDTAB
  0
TABLE
  2
LAYER
  5
2
330
0
100
AcDbSymbolTable
 70
     1
  0
LAYER
  5
10
330
2
100
AcDbSymbolTableRecord
100
AcDbLayerTableRecord
  2
0
 70
     0
 62
     7
  6
CONTINUOUS
  0
ENDTAB
  0
TABLE
  2
STYLE
  5
3
330
0
100
AcDbSymbolTable
 70
     1
  0
STYLE
  5
11
330
3
100
AcDbSymbolTableRecord
100
AcDbTextStyleTableRecord
  2
STANDARD
 70
     0
 40
0.0
 41
1.0
 50
0.0
 71
     0
 42
0.2
  3
txt
  4

  0
ENDTAB
  0
TABLE
  2
VIEW
  5
6
330
0
100
AcDbSymbolTable
 70
     0
  0
ENDTAB
  0
TABLE
  2
UCS
  5
7
330
0
100
AcDbSymbolTable
 70
     0
  0
ENDTAB
  0
TABLE
  2
APPID
  5
9
330
0
100
AcDbSymbolTable
 70
     1
  0
APPID
  5
12
330
9
100
AcDbSymbolTableRecord
100
AcDbRegAppTableRecord
  2
ACAD
 70
     0
  0
ENDTAB
  0
TABLE
  2
DIMSTYLE
  5
A
330
0
100
AcDbSymbolTable
 70
     1
  0
DIMSTYLE
105
D1
330
A
100
AcDbSymbolTableRecord
100
AcDbDimStyleTableRecord
  2
STANDARD
 70
     0
  3

  4

  5

  6

  7

 40
1.0
 41
0.18
 42
0.0625
 43
0.38
 44
0.18
 45
0.0
 46
0.0
 47
0.0
 48
0.0
140
0.18
141
0.09
142
0.0
143
25.4
144
1.0
145
0.0
146
1.0
147
0.09
 71
     0
 72
     0
 73
     1
 74
     1
 75
     0
 76
     0
 77
     0
 78
     0
170
     0
171
     2
172
     0
173
     0
174
     0
175
     0
176
     0
177
     0
178
     0
270
     2
271
     4
272
     4
273
     2
274
     2
340
11
275
     0
280
     0
281
     0
282
     0
283
     1
284
     0
285
     0
286
     0
287
     3
288
     0
  0
ENDTAB
  0
TABLE
  2
BLOCK_RECORD
  5
1
330
0
100
AcDbSymbolTable
 70
     0
  0
BLOCK_RECORD
  5
1E
102
{ACAD_XDICTIONARY
360
FA
102
}
330
1
100
AcDbSymbolTableRecord
100
AcDbBlockTableRecord
  2
*MODEL_SPACE
  0
BLOCK_RECORD
  5
1A
102
{ACAD_XDICTIONARY
360
F8
102
}
330
1
100
AcDbSymbolTableRecord
100
AcDbBlockTableRecord
  2
*PAPER_SPACE
  0
ENDTAB
  0
ENDSEC
  0
SECTION
  2
BLOCKS
  0
BLOCK
  5
1F
330
1E
100
AcDbEntity
  8
0
100
AcDbBlockBegin
  2
*MODEL_SPACE
 70
     0
 10
0.0
 20
0.0
 30
0.0
  3
*MODEL_SPACE
  1

  0
ENDBLK
  5
20
330
1E
100
AcDbEntity
  8
0
100
AcDbBlockEnd
  0
BLOCK
  5
1B
330
1A
100
AcDbEntity
 67
     1
  8
0
100
AcDbBlockBegin
  2
*PAPER_SPACE
 70
     0
 10
0.0
 20
0.0
 30
0.0
  3
*PAPER_SPACE
  1

  0
ENDBLK
  5
1C
330
1A
100
AcDbEntity
 67
     1
  8
0
100
AcDbBlockEnd
  0
ENDSEC
  0
SECTION
  2
ENTITIES
  0
LINE
  5
22
330
1E
100
AcDbEntity
  8
0
100
AcDbLine
 10
0.0000000000000089
 20
96.1438195
 30
0.0
 11
63.6162
 21
1.126859499999989
 31
0.0
  0
LINE
  5
23
330
1E
100
AcDbEntity
  8
0
100
AcDbLine
 10
0.0000000000000089
 20
96.1438195
 30
0.0
 11
1.178200000000009
 21
96.6932195
 31
0.0
  0
LINE
  5
24
330
1E
100
AcDbEntity
  8
0
100
AcDbLine
 10
0.0000000000000088
 20
96.1438195
 30
0.0
 11
1.178200000000009
 21
96.6932195
 31
0.0
  0
LINE
  5
30
330
1E
100
AcDbEntity
  8
0
100
AcDbLine
 10
0.000000000000012
 20
96.1438195
 30
0.0
 11
63.6162
 21
1.126859499999999
 31
0.0
  0
LINE
  5
3B
330
1E
100
AcDbEntity
  8
0
100
AcDbLine
 10
66.27410000000001
 20
0.159480499999998
 30
0.0
 11
66.81789999999999
 21
0.413051499999998
 31
0.0
  0
LINE
  5
3C
330
1E
100
AcDbEntity
  8
0
100
AcDbLine
 10
64.25069999999999
 20
1.422689499999999
 30
0.0
 11
66.06329999999999
 21
2.267929499999999
 31
0.0
  0
LINE
  5
3D
330
1E
100
AcDbEntity
  8
0
100
AcDbLine
 10
66.06329999999999
 20
2.267929499999999
 30
0.0
 11
68.96349999999999
 21
3.6203095
 31
0.0
  0
LINE
  5
3E
330
1E
100
AcDbEntity
  8
0
100
AcDbLine
 10
66.81789999999999
 20
0.413051499999998
 30
0.0
 11
68.44920000000001
 21
1.173759499999999
 31
0.0
  0
LINE
  5
3F
330
1E
100
AcDbEntity
  8
0
100
AcDbLine
 10
68.44920000000001
 20
1.173759499999999
 30
0.0
 11
71.0775
 21
2.3993595
 31
0.0
  0
LINE
  5
40
330
1E
100
AcDbEntity
  8
0
100
AcDbLine
 10
68.96349999999999
 20
3.6203095
 30
0.0
 11
72.67929999999999
 21
5.353039499999999
 31
0.0
  0
LINE
  5
41
330
1E
100
AcDbEntity
  8
0
100
AcDbLine
 10
71.0775
 20
2.3993595
 30
0.0
 11
74.43089999999999
 21
3.963039499999999
 31
0.0
  0
LINE
  5
42
330
1E
100
AcDbEntity
  8
0
100
AcDbLine
 10
63.6162
 20
1.126859499999999
 30
0.0
 11
66.27410000000001
 21
0.159480499999998
 31
0.0
  0
LINE
  5
43
330
1E
100
AcDbEntity
  8
0
100
AcDbLine
 10
63.6162
 20
1.126859499999999
 30
0.0
 11
64.25069999999999
 21
1.422689499999999
 31
0.0
  0
LINE
  5
44
330
1E
100
AcDbEntity
  8
0
100
AcDbLine
 10
63.6162
 20
1.126859499999999
 30
0.0
 11
66.27410000000001
 21
0.159480499999998
 31
0.0
  0
LINE
  5
45
330
1E
100
AcDbEntity
  8
0
100
AcDbLine
 10
72.67929999999999
 20
5.353039499999999
 30
0.0
 11
77.0296
 21
7.381609499999999
 31
0.0
  0
LINE
  5
46
330
1E
100
AcDbEntity
  8
0
100
AcDbLine
 10
77.0296
 20
7.381609499999999
 30
0.0
 11
81.74240000000001
 21
9.5792295
 31
0.0
  0
LINE
  5
47
330
1E
100
AcDbEntity
  8
0
100
AcDbLine
 10
86.45520000000001
 20
11.77681949999999
 30
0.0
 11
90.8055
 21
13.8054195
 31
0.0
  0
LINE
  5
48
330
1E
100
AcDbEntity
  8
0
100
AcDbLine
 10
81.74240000000001
 20
9.5792295
 30
0.0
 11
86.45520000000001
 21
11.77681949999999
 31
0.0
  0
LINE
  5
49
330
1E
100
AcDbEntity
  8
0
100
AcDbLine
 10
90.8055
 20
13.8054195
 30
0.0
 11
94.5213
 21
15.5381195
 31
0.0
  0
LINE
  5
4A
330
1E
100
AcDbEntity
  8
0
100
AcDbLine
 10
96.726
 20
14.3594195
 30
0.0
 11
98.35740000000001
 21
15.1201195
 31
0.0
  0
LINE
  5
4B
330
1E
100
AcDbEntity
  8
0
100
AcDbLine
 10
97.4215
 20
16.8905195
 30
0.0
 11
99.2341
 21
17.7357195
 31
0.0
  0
LINE
  5
4C
330
1E
100
AcDbEntity
  8
0
100
AcDbLine
 10
94.5213
 20
15.5381195
 30
0.0
 11
97.4215
 21
16.8905195
 31
0.0
  0
LINE
  5
4D
330
1E
100
AcDbEntity
  8
0
100
AcDbLine
 10
96.726
 20
14.3594195
 30
0.0
 11
98.35740000000001
 21
15.1201195
 31
0.0
  0
LINE
  5
4E
330
1E
100
AcDbEntity
  8
0
100
AcDbLine
 10
94.09769999999999
 20
13.1338195
 30
0.0
 11
96.726
 21
14.3594195
 31
0.0
  0
LINE
  5
4F
330
1E
100
AcDbEntity
  8
0
100
AcDbLine
 10
90.7444
 20
11.5702195
 30
0.0
 11
94.09769999999999
 21
13.1338195
 31
0.0
  0
LINE
  5
50
330
1E
100
AcDbEntity
  8
0
100
AcDbLine
 10
86.7567
 20
9.710649499999998
 30
0.0
 11
90.7444
 21
11.5702195
 31
0.0
  0
LINE
  5
51
330
1E
100
AcDbEntity
  8
0
100
AcDbLine
 10
82.5876
 20
7.7666095
 30
0.0
 11
86.7567
 21
9.710649499999998
 31
0.0
  0
LINE
  5
52
330
1E
100
AcDbEntity
  8
0
100
AcDbLine
 10
78.4186
 20
5.8225595
 30
0.0
 11
82.5876
 21
7.7666095
 31
0.0
  0
LINE
  5
53
330
1E
100
AcDbEntity
  8
0
100
AcDbLine
 10
74.43089999999999
 20
3.963039499999999
 30
0.0
 11
78.4186
 21
5.8225595
 31
0.0
  0
LINE
  5
54
330
1E
100
AcDbEntity
  8
0
100
AcDbLine
 10
98.0
 20
61.6595195
 30
0.0
 11
98.0
 21
62.5595195
 31
0.0
  0
LINE
  5
55
330
1E
100
AcDbEntity
  8
0
100
AcDbLine
 10
98.0
 20
61.6595195
 30
0.0
 11
99.50000000000001
 21
60.15951949999999
 31
0.0
  0
LINE
  5
56
330
1E
100
AcDbEntity
  8
0
100
AcDbLine
 10
98.0
 20
64.4595195
 30
0.0
 11
98.0
 21
63.65951949999999
 31
0.0
  0
LINE
  5
57
330
1E
100
AcDbEntity
  8
0
100
AcDbLine
 10
98.0
 20
63.65951949999999
 30
0.0
 11
98.0
 21
64.4595195
 31
0.0
  0
LINE
  5
58
330
1E
100
AcDbEntity
  8
0
100
AcDbLine
 10
98.0
 20
66.75951949999999
 30
0.0
 11
98.0
 21
70.6595195
 31
0.0
  0
LINE
  5
59
330
1E
100
AcDbEntity
  8
0
100
AcDbLine
 10
98.0
 20
62.5595195
 30
0.0
 11
98.0
 21
65.0595195
 31
0.0
  0
LINE
  5
5A
330
1E
100
AcDbEntity
  8
0
100
AcDbLine
 10
98.0
 20
62.5595195
 30
0.0
 11
98.0
 21
61.6595195
 31
0.0
  0
LINE
  5
5B
330
1E
100
AcDbEntity
  8
0
100
AcDbLine
 10
98.0
 20
65.0595195
 30
0.0
 11
98.0
 21
69.25951949999999
 31
0.0
  0
LINE
  5
5C
330
1E
100
AcDbEntity
  8
0
100
AcDbLine
 10
98.0
 20
65.0595195
 30
0.0
 11
98.0
 21
62.5595195
 31
0.0
  0
LINE
  5
5D
330
1E
100
AcDbEntity
  8
0
100
AcDbLine
 10
98.0
 20
75.6595195
 30
0.0
 11
98.0
 21
81.4595195
 31
0.0
  0
LINE
  5
5E
330
1E
100
AcDbEntity
  8
0
100
AcDbLine
 10
98.0
 20
70.6595195
 30
0.0
 11
98.0
 21
66.75951949999999
 31
0.0
  0
LINE
  5
5F
330
1E
100
AcDbEntity
  8
0
100
AcDbLine
 10
98.0
 20
69.25951949999999
 30
0.0
 11
98.0
 21
74.75951949999999
 31
0.0
  0
LINE
  5
60
330
1E
100
AcDbEntity
  8
0
100
AcDbLine
 10
98.0
 20
69.25951949999999
 30
0.0
 11
98.0
 21
65.0595195
 31
0.0
  0
LINE
  5
61
330
1E
100
AcDbEntity
  8
0
100
AcDbLine
 10
98.90120000000001
 20
15.37371949999999
 30
0.0
 11
99.8686
 21
18.0316195
 31
0.0
  0
LINE
  5
62
330
1E
100
AcDbEntity
  8
0
100
AcDbLine
 10
99.2341
 20
17.7357195
 30
0.0
 11
99.8686
 21
18.0316195
 31
0.0
  0
LINE
  5
63
330
1E
100
AcDbEntity
  8
0
100
AcDbLine
 10
98.35740000000001
 20
15.1201195
 30
0.0
 11
98.90120000000001
 21
15.37371949999999
 31
0.0
  0
LINE
  5
64
330
1E
100
AcDbEntity
  8
0
100
AcDbLine
 10
99.50000000000001
 20
61.05951949999999
 30
0.0
 11
99.50000000000001
 21
60.15951949999999
 31
0.0
  0
LINE
  5
65
330
1E
100
AcDbEntity
  8
0
100
AcDbLine
 10
99.50000000000001
 20
61.05951949999999
 30
0.0
 11
99.50000000000001
 21
63.7595195
 31
0.0
  0
LINE
  5
66
330
1E
100
AcDbEntity
  8
0
100
AcDbLine
 10
99.50000000000001
 20
63.7595195
 30
0.0
 11
99.50000000000001
 21
61.05951949999999
 31
0.0
  0
LINE
  5
67
330
1E
100
AcDbEntity
  8
0
100
AcDbLine
 10
99.50000000000001
 20
63.7595195
 30
0.0
 11
99.50000000000001
 21
68.1595195
 31
0.0
  0
LINE
  5
68
330
1E
100
AcDbEntity
  8
0
100
AcDbLine
 10
99.50000000000001
 20
68.1595195
 30
0.0
 11
99.50000000000001
 21
63.7595195
 31
0.0
  0
LINE
  5
69
330
1E
100
AcDbEntity
  8
0
100
AcDbLine
 10
99.50000000000001
 20
68.1595195
 30
0.0
 11
99.50000000000001
 21
74.05951949999999
 31
0.0
  0
LINE
  5
6A
330
1E
100
AcDbEntity
  8
0
100
AcDbLine
 10
99.50000000000001
 20
74.05951949999999
 30
0.0
 11
99.50000000000001
 21
68.1595195
 31
0.0
  0
LINE
  5
6B
330
1E
100
AcDbEntity
  8
0
100
AcDbLine
 10
99.50000000000001
 20
74.05951949999999
 30
0.0
 11
99.50000000000001
 21
80.6595195
 31
0.0
  0
LINE
  5
6C
330
1E
100
AcDbEntity
  8
0
100
AcDbLine
 10
99.50000000000001
 20
80.6595195
 30
0.0
 11
99.50000000000001
 21
74.05951949999999
 31
0.0
  0
LINE
  5
6D
330
1E
100
AcDbEntity
  8
0
100
AcDbLine
 10
99.50000000000001
 20
80.6595195
 30
0.0
 11
99.50000000000001
 21
87.65951949999999
 31
0.0
  0
LINE
  5
6E
330
1E
100
AcDbEntity
  8
0
100
AcDbLine
 10
98.0
 20
74.75951949999999
 30
0.0
 11
98.0
 21
80.95951949999999
 31
0.0
  0
LINE
  5
6F
330
1E
100
AcDbEntity
  8
0
100
AcDbLine
 10
98.0
 20
74.75951949999999
 30
0.0
 11
98.0
 21
69.25951949999999
 31
0.0
  0
LINE
  5
70
330
1E
100
AcDbEntity
  8
0
100
AcDbLine
 10
98.0
 20
81.4595195
 30
0.0
 11
98.0
 21
75.6595195
 31
0.0
  0
LINE
  5
71
330
1E
100
AcDbEntity
  8
0
100
AcDbLine
 10
72.14774104123709
 20
113.4681867059349
 30
0.0
 11
99.8686
 21
18.0316195
 31
0.0
  0
LINE
  5
72
330
1E
100
AcDbEntity
  8
0
100
AcDbLine
 10
98.0
 20
87.65951949999999
 30
0.0
 11
98.0
 21
80.95951949999999
 31
0.0
  0
LINE
  5
73
330
1E
100
AcDbEntity
  8
0
100
AcDbLine
 10
98.0
 20
87.65951949999999
 30
0.0
 11
98.0
 21
94.35951949999999
 31
0.0
  0
LINE
  5
74
330
1E
100
AcDbEntity
  8
0
100
AcDbLine
 10
98.0
 20
99.6595195
 30
0.0
 11
98.0
 21
104.6595195
 31
0.0
  0
LINE
  5
75
330
1E
100
AcDbEntity
  8
0
100
AcDbLine
 10
98.0
 20
99.6595195
 30
0.0
 11
98.0
 21
95.36113893319841
 31
0.0
  0
LINE
  5
76
330
1E
100
AcDbEntity
  8
0
100
AcDbLine
 10
98.0
 20
95.36113893319841
 30
0.0
 11
98.0
 21
100.5595194999999
 31
0.0
  0
LINE
  5
77
330
1E
100
AcDbEntity
  8
0
100
AcDbLine
 10
98.0
 20
95.36113893319841
 30
0.0
 11
98.0
 21
99.6595195
 31
0.0
  0
LINE
  5
78
330
1E
100
AcDbEntity
  8
0
100
AcDbLine
 10
98.0
 20
94.35951949999999
 30
0.0
 11
98.0
 21
100.5595194999999
 31
0.0
  0
LINE
  5
79
330
1E
100
AcDbEntity
  8
0
100
AcDbLine
 10
98.0
 20
100.5595194999999
 30
0.0
 11
98.0
 21
94.35951949999999
 31
0.0
  0
LINE
  5
7A
330
1E
100
AcDbEntity
  8
0
100
AcDbLine
 10
98.0
 20
100.5595194999999
 30
0.0
 11
98.0
 21
106.0595195
 31
0.0
  0
LINE
  5
7B
330
1E
100
AcDbEntity
  8
0
100
AcDbLine
 10
98.0
 20
100.5595194999999
 30
0.0
 11
98.0
 21
95.36113893319841
 31
0.0
  0
LINE
  5
7C
330
1E
100
AcDbEntity
  8
0
100
AcDbLine
 10
99.50000000000001
 20
94.6595195
 30
0.0
 11
99.50000000000001
 21
87.65951949999999
 31
0.0
  0
LINE
  5
7D
330
1E
100
AcDbEntity
  8
0
100
AcDbLine
 10
99.50000000000001
 20
94.6595195
 30
0.0
 11
99.50000000000001
 21
101.2595195
 31
0.0
  0
LINE
  5
7E
330
1E
100
AcDbEntity
  8
0
100
AcDbLine
 10
99.50000000000001
 20
87.65951949999999
 30
0.0
 11
99.50000000000001
 21
80.6595195
 31
0.0
  0
LINE
  5
7F
330
1E
100
AcDbEntity
  8
0
100
AcDbLine
 10
99.50000000000001
 20
87.65951949999999
 30
0.0
 11
99.50000000000001
 21
94.6595195
 31
0.0
  0
LINE
  5
80
330
1E
100
AcDbEntity
  8
0
100
AcDbLine
 10
98.0
 20
85.55951949999998
 30
0.0
 11
98.0
 21
80.95951949999999
 31
0.0
  0
LINE
  5
81
330
1E
100
AcDbEntity
  8
0
100
AcDbLine
 10
98.0
 20
80.95951949999999
 30
0.0
 11
98.0
 21
85.55951949999998
 31
0.0
  0
LINE
  5
82
330
1E
100
AcDbEntity
  8
0
100
AcDbLine
 10
98.0
 20
80.95951949999999
 30
0.0
 11
98.0
 21
74.75951949999999
 31
0.0
  0
LINE
  5
83
330
1E
100
AcDbEntity
  8
0
100
AcDbLine
 10
98.0
 20
80.95951949999999
 30
0.0
 11
98.0
 21
87.65951949999999
 31
0.0
  0
LINE
  5
84
330
1E
100
AcDbEntity
  8
0
100
AcDbLine
 10
108.0
 20
60.15951949999999
 30
0.0
 11
108.0
 21
61.05951949999999
 31
0.0
  0
LINE
  5
85
330
1E
100
AcDbEntity
  8
0
100
AcDbLine
 10
108.0
 20
61.05951949999999
 30
0.0
 11
108.0
 21
60.15951949999999
 31
0.0
  0
LINE
  5
86
330
1E
100
AcDbEntity
  8
0
100
AcDbLine
 10
108.0
 20
61.05951949999999
 30
0.0
 11
108.0
 21
63.7595195
 31
0.0
  0
LINE
  5
87
330
1E
100
AcDbEntity
  8
0
100
AcDbLine
 10
108.0
 20
63.7595195
 30
0.0
 11
108.0
 21
61.05951949999999
 31
0.0
  0
LINE
  5
88
330
1E
100
AcDbEntity
  8
0
100
AcDbLine
 10
108.0
 20
63.7595195
 30
0.0
 11
108.0
 21
68.1595195
 31
0.0
  0
LINE
  5
89
330
1E
100
AcDbEntity
  8
0
100
AcDbLine
 10
108.0
 20
68.1595195
 30
0.0
 11
108.0
 21
63.7595195
 31
0.0
  0
LINE
  5
8A
330
1E
100
AcDbEntity
  8
0
100
AcDbLine
 10
108.0
 20
68.1595195
 30
0.0
 11
108.0
 21
74.05951949999999
 31
0.0
  0
LINE
  5
8B
330
1E
100
AcDbEntity
  8
0
100
AcDbLine
 10
108.0
 20
74.05951949999999
 30
0.0
 11
108.0
 21
68.1595195
 31
0.0
  0
LINE
  5
8C
330
1E
100
AcDbEntity
  8
0
100
AcDbLine
 10
108.0
 20
74.05951949999999
 30
0.0
 11
108.0
 21
80.6595195
 31
0.0
  0
LINE
  5
8D
330
1E
100
AcDbEntity
  8
0
100
AcDbLine
 10
108.0
 20
80.6595195
 30
0.0
 11
108.0
 21
74.05951949999999
 31
0.0
  0
LINE
  5
8E
330
1E
100
AcDbEntity
  8
0
100
AcDbLine
 10
108.0
 20
80.6595195
 30
0.0
 11
108.0
 21
87.65951949999999
 31
0.0
  0
LINE
  5
8F
330
1E
100
AcDbEntity
  8
0
100
AcDbLine
 10
108.0
 20
94.6595195
 30
0.0
 11
108.0
 21
87.65951949999999
 31
0.0
  0
LINE
  5
90
330
1E
100
AcDbEntity
  8
0
100
AcDbLine
 10
108.0
 20
94.6595195
 30
0.0
 11
108.0
 21
101.2595195
 31
0.0
  0
LINE
  5
91
330
1E
100
AcDbEntity
  8
0
100
AcDbLine
 10
108.0
 20
87.65951949999999
 30
0.0
 11
108.0
 21
80.6595195
 31
0.0
  0
LINE
  5
92
330
1E
100
AcDbEntity
  8
0
100
AcDbLine
 10
108.0
 20
87.65951949999999
 30
0.0
 11
108.0
 21
94.6595195
 31
0.0
  0
LINE
  5
93
330
1E
100
AcDbEntity
  8
0
100
AcDbLine
 10
99.50000000000001
 20
60.15951949999999
 30
0.0
 11
108.0
 21
60.15951949999999
 31
0.0
  0
LINE
  5
94
330
1E
100
AcDbEntity
  8
0
100
AcDbLine
 10
99.50000000000001
 20
60.15951949999999
 30
0.0
 11
99.50000000000001
 21
61.05951949999999
 31
0.0
  0
LINE
  5
95
330
1E
100
AcDbEntity
  8
0
100
AcDbLine
 10
48.0
 20
120.5595195
 30
0.0
 11
49.74292087457829
 21
119.3394748877949
 31
0.0
  0
LINE
  5
96
330
1E
100
AcDbEntity
  8
0
100
AcDbLine
 10
48.5749999999998
 20
121.3845195
 30
0.0
 11
50.3
 21
123.8595195
 31
0.0
  0
LINE
  5
97
330
1E
100
AcDbEntity
  8
0
100
AcDbLine
 10
48.2
 20
120.8595195
 30
0.0
 11
50.3
 21
123.8595195
 31
0.0
  0
LINE
  5
98
330
1E
100
AcDbEntity
  8
0
100
AcDbLine
 10
48.2
 20
120.8595195
 30
0.0
 11
48.7
 21
121.5595195
 31
0.0
  0
LINE
  5
9D
330
1E
100
AcDbEntity
  8
0
100
AcDbLine
 10
50.3
 20
123.8595195
 30
0.0
 11
51.1
 21
125.0595195
 31
0.0
  0
LINE
  5
9E
330
1E
100
AcDbEntity
  8
0
100
AcDbLine
 10
49.4
 20
122.5595195
 30
0.0
 11
50.3
 21
123.8595195
 31
0.0
  0
LINE
  5
9F
330
1E
100
AcDbEntity
  8
0
100
AcDbLine
 10
98.0
 20
104.6595195
 30
0.0
 11
98.0
 21
108.5595195
 31
0.0
  0
LINE
  5
A0
330
1E
100
AcDbEntity
  8
0
100
AcDbLine
 10
98.0
 20
104.6595195
 30
0.0
 11
98.0
 21
99.6595195
 31
0.0
  0
LINE
  5
A1
330
1E
100
AcDbEntity
  8
0
100
AcDbLine
 10
98.0
 20
106.0595195
 30
0.0
 11
98.0
 21
100.5595194999999
 31
0.0
  0
LINE
  5
A2
330
1E
100
AcDbEntity
  8
0
100
AcDbLine
 10
98.0
 20
106.0595195
 30
0.0
 11
98.0
 21
110.2595195
 31
0.0
  0
LINE
  5
A3
330
1E
100
AcDbEntity
  8
0
100
AcDbLine
 10
99.50000000000001
 20
107.1595195
 30
0.0
 11
99.50000000000001
 21
101.2595195
 31
0.0
  0
LINE
  5
A4
330
1E
100
AcDbEntity
  8
0
100
AcDbLine
 10
99.50000000000001
 20
107.1595195
 30
0.0
 11
99.50000000000001
 21
111.5595195
 31
0.0
  0
LINE
  5
A5
330
1E
100
AcDbEntity
  8
0
100
AcDbLine
 10
99.50000000000001
 20
101.2595195
 30
0.0
 11
99.50000000000001
 21
94.6595195
 31
0.0
  0
LINE
  5
A6
330
1E
100
AcDbEntity
  8
0
100
AcDbLine
 10
99.50000000000001
 20
101.2595195
 30
0.0
 11
99.50000000000001
 21
107.1595195
 31
0.0
  0
LINE
  5
A7
330
1E
100
AcDbEntity
  8
0
100
AcDbLine
 10
98.0
 20
110.8595195
 30
0.0
 11
98.0
 21
111.6595195
 31
0.0
  0
LINE
  5
A8
330
1E
100
AcDbEntity
  8
0
100
AcDbLine
 10
98.0
 20
110.8595195
 30
0.0
 11
98.0
 21
108.5595195
 31
0.0
  0
LINE
  5
A9
330
1E
100
AcDbEntity
  8
0
100
AcDbLine
 10
98.0
 20
111.6595195
 30
0.0
 11
98.0
 21
110.8595195
 31
0.0
  0
LINE
  5
AA
330
1E
100
AcDbEntity
  8
0
100
AcDbLine
 10
98.0
 20
108.5595195
 30
0.0
 11
98.0
 21
104.6595195
 31
0.0
  0
LINE
  5
AB
330
1E
100
AcDbEntity
  8
0
100
AcDbLine
 10
98.0
 20
108.5595195
 30
0.0
 11
98.0
 21
110.8595195
 31
0.0
  0
LINE
  5
AC
330
1E
100
AcDbEntity
  8
0
100
AcDbLine
 10
98.0
 20
113.6595194999999
 30
0.0
 11
98.0
 21
112.7595195
 31
0.0
  0
LINE
  5
AD
330
1E
100
AcDbEntity
  8
0
100
AcDbLine
 10
98.0
 20
113.6595194999999
 30
0.0
 11
99.50000000000001
 21
115.1595195
 31
0.0
  0
LINE
  5
AE
330
1E
100
AcDbEntity
  8
0
100
AcDbLine
 10
98.0
 20
112.7595195
 30
0.0
 11
98.0
 21
110.2595195
 31
0.0
  0
LINE
  5
AF
330
1E
100
AcDbEntity
  8
0
100
AcDbLine
 10
98.0
 20
112.7595195
 30
0.0
 11
98.0
 21
113.6595194999999
 31
0.0
  0
LINE
  5
B0
330
1E
100
AcDbEntity
  8
0
100
AcDbLine
 10
98.0
 20
110.2595195
 30
0.0
 11
98.0
 21
106.0595195
 31
0.0
  0
LINE
  5
B1
330
1E
100
AcDbEntity
  8
0
100
AcDbLine
 10
98.0
 20
110.2595195
 30
0.0
 11
98.0
 21
112.7595195
 31
0.0
  0
LINE
  5
B2
330
1E
100
AcDbEntity
  8
0
100
AcDbLine
 10
99.50000000000001
 20
114.2595195
 30
0.0
 11
99.50000000000001
 21
111.5595195
 31
0.0
  0
LINE
  5
B3
330
1E
100
AcDbEntity
  8
0
100
AcDbLine
 10
99.50000000000001
 20
114.2595195
 30
0.0
 11
99.50000000000001
 21
115.1595195
 31
0.0
  0
LINE
  5
B4
330
1E
100
AcDbEntity
  8
0
100
AcDbLine
 10
99.50000000000001
 20
111.5595195
 30
0.0
 11
99.50000000000001
 21
107.1595195
 31
0.0
  0
LINE
  5
B5
330
1E
100
AcDbEntity
  8
0
100
AcDbLine
 10
99.50000000000001
 20
111.5595195
 30
0.0
 11
99.50000000000001
 21
114.2595195
 31
0.0
  0
LINE
  5
B6
330
1E
100
AcDbEntity
  8
0
100
AcDbLine
 10
99.50000000000001
 20
115.1595195
 30
0.0
 11
99.50000000000001
 21
114.2595195
 31
0.0
  0
LINE
  5
B7
330
1E
100
AcDbEntity
  8
0
100
AcDbLine
 10
99.50000000000001
 20
115.1595195
 30
0.0
 11
108.0
 21
115.1595195
 31
0.0
  0
LINE
  5
B8
330
1E
100
AcDbEntity
  8
0
100
AcDbLine
 10
108.0
 20
115.1595195
 30
0.0
 11
108.0
 21
114.2595195
 31
0.0
  0
LINE
  5
B9
330
1E
100
AcDbEntity
  8
0
100
AcDbLine
 10
108.0
 20
114.2595195
 30
0.0
 11
108.0
 21
111.5595195
 31
0.0
  0
LINE
  5
BA
330
1E
100
AcDbEntity
  8
0
100
AcDbLine
 10
108.0
 20
114.2595195
 30
0.0
 11
108.0
 21
115.1595195
 31
0.0
  0
LINE
  5
BB
330
1E
100
AcDbEntity
  8
0
100
AcDbLine
 10
108.0
 20
111.5595195
 30
0.0
 11
108.0
 21
107.1595195
 31
0.0
  0
LINE
  5
BC
330
1E
100
AcDbEntity
  8
0
100
AcDbLine
 10
108.0
 20
111.5595195
 30
0.0
 11
108.0
 21
114.2595195
 31
0.0
  0
LINE
  5
BD
330
1E
100
AcDbEntity
  8
0
100
AcDbLine
 10
108.0
 20
107.1595195
 30
0.0
 11
108.0
 21
101.2595195
 31
0.0
  0
LINE
  5
BE
330
1E
100
AcDbEntity
  8
0
100
AcDbLine
 10
108.0
 20
107.1595195
 30
0.0
 11
108.0
 21
111.5595195
 31
0.0
  0
LINE
  5
BF
330
1E
100
AcDbEntity
  8
0
100
AcDbLine
 10
108.0
 20
101.2595195
 30
0.0
 11
108.0
 21
94.6595195
 31
0.0
  0
LINE
  5
C0
330
1E
100
AcDbEntity
  8
0
100
AcDbLine
 10
108.0
 20
101.2595195
 30
0.0
 11
108.0
 21
107.1595195
 31
0.0
  0
LINE
  5
C1
330
1E
100
AcDbEntity
  8
0
100
AcDbLine
 10
75.7251764915203
 20
101.151895955936
 30
0.0
 11
98.0
 21
85.55951949999998
 31
0.0
  0
LINE
  5
C2
330
1E
100
AcDbEntity
  8
0
100
AcDbLine
 10
72.14774104123709
 20
113.4681867059349
 30
0.0
 11
99.8686
 21
18.0316195
 31
0.0
  0
LINE
  5
C3
330
1E
100
AcDbEntity
  8
0
100
AcDbLine
 10
72.14774104123709
 20
113.4681867059349
 30
0.0
 11
98.0
 21
95.36113893319841
 31
0.0
  0
LINE
  5
C4
330
1E
100
AcDbEntity
  8
0
100
AcDbLine
 10
1.178200000000011
 20
96.6932195
 30
0.0
 11
66.7949
 21
127.2905195
 31
0.0
  0
LINE
  5
C5
330
1E
100
AcDbEntity
  8
0
100
AcDbLine
 10
52.0250000000002
 20
126.3345195
 30
0.0
 11
52.6
 21
127.1595194999999
 31
0.0
  0
LINE
  5
C6
330
1E
100
AcDbEntity
  8
0
100
AcDbLine
 10
67.9731
 20
127.8405195
 30
0.0
 11
72.14774104123709
 21
113.4681867059349
 31
0.0
  0
LINE
  5
C7
330
1E
100
AcDbEntity
  8
0
100
AcDbLine
 10
66.7949
 20
127.2905195
 30
0.0
 11
67.9731
 21
127.8405195
 31
0.0
  0
LINE
  5
C8
330
1E
100
AcDbEntity
  8
0
100
AcDbLine
 10
52.6
 20
127.1595194999999
 30
0.0
 11
58.1607337579989
 21
123.2647545601869
 31
0.0
  0
LINE
  5
C9
330
1E
100
AcDbEntity
  8
0
100
AcDbLine
 10
52.4
 20
126.8595195
 30
0.0
 11
52.6
 21
127.1595194999999
 31
0.0
  0
LINE
  5
CA
330
1E
100
AcDbEntity
  8
0
100
AcDbLine
 10
51.9
 20
126.1595194999999
 30
0.0
 11
52.0250000000002
 21
126.3345195
 31
0.0
  0
LINE
  5
CB
330
1E
100
AcDbEntity
  8
0
100
AcDbLine
 10
51.9
 20
126.1595194999999
 30
0.0
 11
52.4
 21
126.8595195
 31
0.0
  0
LINE
  5
CC
330
1E
100
AcDbEntity
  8
0
100
AcDbLine
 10
51.1
 20
125.0595195
 30
0.0
 11
51.9
 21
126.1595194999999
 31
0.0
  0
LINE
  5
CD
330
1E
100
AcDbEntity
  8
0
100
AcDbLine
 10
48.7
 20
121.5595195
 30
0.0
 11
49.4
 21
122.5595195
 31
0.0
  0
LINE
  5
CE
330
1E
100
AcDbEntity
  8
0
100
AcDbLine
 10
75.7251764915203
 20
101.151895955936
 30
0.0
 11
98.0
 21
85.55951949999998
 31
0.0
  0
LINE
  5
CF
330
1E
100
AcDbEntity
  8
0
100
AcDbLine
 10
48.0
 20
120.5595195
 30
0.0
 11
49.74292087457829
 21
119.3394748877949
 31
0.0
  0
LINE
  5
D0
330
1E
100
AcDbEntity
  8
0
100
AcDbLine
 10
48.0
 20
120.5595195
 30
0.0
 11
48.2
 21
120.8595195
 31
0.0
  0
ENDSEC
  0
SECTION
  2
OBJECTS
  0
DICTIONARY
  5
C
330
0
100
AcDbDictionary
  3
ACAD_GROUP
350
D
  3
ACAD_LAYOUT
350
19
  3
ACAD_MLINESTYLE
350
16
  3
ACAD_PLOTSETTINGS
350
18
  3
ACAD_PLOTSTYLENAME
350
E
  3
ACDBHEADERROUNDTRIPXREC
350
D8
  3
ACDBVARIABLEDICTIONARY
350
D5
  0
DICTIONARY
  5
FA
330
1E
100
AcDbDictionary
280
     1
  3
ACAD_LAYOUTSELFREF
360
FB
  0
DICTIONARY
  5
F8
330
1A
100
AcDbDictionary
280
     1
  3
ACAD_LAYOUTSELFREF
360
F9
  0
DICTIONARY
  5
D
102
{ACAD_REACTORS
330
C
102
}
330
C
100
AcDbDictionary
  0
DICTIONARY
  5
19
102
{ACAD_REACTORS
330
C
102
}
330
C
100
AcDbDictionary
  0
DICTIONARY
  5
16
102
{ACAD_REACTORS
330
C
102
}
330
C
100
AcDbDictionary
  3
STANDARD
350
17
  0
DICTIONARY
  5
18
102
{ACAD_REACTORS
330
C
102
}
330
C
100
AcDbDictionary
  0
ACDBDICTIONARYWDFLT
  5
E
102
{ACAD_REACTORS
330
C
102
}
330
C
100
AcDbDictionary
281
     1
  3
Normal
350
F
100
AcDbDictionaryWithDefault
340
F
  0
DICTIONARY
  5
D8
102
{ACAD_REACTORS
330
C
102
}
330
C
100
AcDbDictionary
  3
CEPSNTYPE
350
E2
  3
FINGERPRINTGUID
350
E3
  3
HYPERLINKBASE
350
DB
  3
INSUNITS
350
E1
  3
LAYOUTDICT
350
DD
  3
LWETCUNION
350
E0
  3
PLOTSETDICT
350
DE
  3
PLOTSTYLNAMDICT
350
DF
  3
PSVPSCALE
350
E5
  3
PUCSBASE
350
E8
  3
PUCSORGBACK
350
EE
  3
PUCSORGBOTTOM
350
EA
  3
PUCSORGFRONT
350
ED
  3
PUCSORGLEFT
350
EB
  3
PUCSORGRIGHT
350
EC
  3
PUCSORGTOP
350
E9
  3
PUCSORTHOREF
350
E6
  3
PUCSORTHOVIEW
350
E7
  3
STYLESHEET
350
DC
  3
TSTACKALIGN
350
D9
  3
TSTACKSIZE
350
DA
  3
UCSBASE
350
F1
  3
UCSORGBACK
350
F7
  3
UCSORGBOTTOM
350
F3
  3
UCSORGFRONT
350
F6
  3
UCSORGLEFT
350
F4
  3
UCSORGRIGHT
350
F5
  3
UCSORGTOP
350
F2
  3
UCSORTHOREF
350
EF
  3
UCSORTHOVIEW
350
F0
  3
VERSIONGUID
350
E4
  0
DICTIONARY
  5
D5
102
{ACAD_REACTORS
330
C
102
}
330
C
100
AcDbDictionary
  3
DIMASSOC
350
D6
  0
XRECORD
  5
FB
102
{ACAD_REACTORS
330
FA
102
}
330
FA
100
AcDbXrecord
340
1E
  0
XRECORD
  5
F9
102
{ACAD_REACTORS
330
F8
102
}
330
F8
100
AcDbXrecord
340
1A
  0
MLINESTYLE
  5
17
102
{ACAD_REACTORS
330
16
102
}
330
16
100
AcDbMlineStyle
  2
STANDARD
 70
     0
  3

 62
   256
 51
90.0
 52
90.0
 71
     2
 49
0.5
 62
   256
  6
BYLAYER
 49
-0.5
 62
   256
  6
BYLAYER
  0
ACDBPLACEHOLDER
  5
F
102
{ACAD_REACTORS
330
E
102
}
330
E
100
AcDbPlaceHolder
280
     0
  0
XRECORD
  5
E2
102
{ACAD_REACTORS
330
D8
102
}
330
D8
100
AcDbXrecord
 90
        0
  0
XRECORD
  5
E3
102
{ACAD_REACTORS
330
D8
102
}
330
D8
100
AcDbXrecord
  1
{DA90F435-C9C2-495E-A56E-0E6060452E60}
  0
XRECORD
  5
DB
102
{ACAD_REACTORS
330
D8
102
}
330
D8
100
AcDbXrecord
  1

  0
XRECORD
  5
E1
102
{ACAD_REACTORS
330
D8
102
}
330
D8
100
AcDbXrecord
 90
        0
  0
XRECORD
  5
DD
102
{ACAD_REACTORS
330
D8
102
}
330
D8
100
AcDbXrecord
340
19
  0
XRECORD
  5
E0
102
{ACAD_REACTORS
330
D8
102
}
330
D8
100
AcDbXrecord
 90
    10781
  0
XRECORD
  5
DE
102
{ACAD_REACTORS
330
D8
102
}
330
D8
100
AcDbXrecord
340
18
  0
XRECORD
  5
DF
102
{ACAD_REACTORS
330
D8
102
}
330
D8
100
AcDbXrecord
340
E
  0
XRECORD
  5
E5
102
{ACAD_REACTORS
330
D8
102
}
330
D8
100
AcDbXrecord
 40
0.0
  0
XRECORD
  5
E8
102
{ACAD_REACTORS
330
D8
102
}
330
D8
100
AcDbXrecord
340
0
  0
XRECORD
  5
EE
102
{ACAD_REACTORS
330
D8
102
}
330
D8
100
AcDbXrecord
 10
0.0
 20
0.0
 30
0.0
  0
XRECORD
  5
EA
102
{ACAD_REACTORS
330
D8
102
}
330
D8
100
AcDbXrecord
 10
0.0
 20
0.0
 30
0.0
  0
XRECORD
  5
ED
102
{ACAD_REACTORS
330
D8
102
}
330
D8
100
AcDbXrecord
 10
0.0
 20
0.0
 30
0.0
  0
XRECORD
  5
EB
102
{ACAD_REACTORS
330
D8
102
}
330
D8
100
AcDbXrecord
 10
0.0
 20
0.0
 30
0.0
  0
XRECORD
  5
EC
102
{ACAD_REACTORS
330
D8
102
}
330
D8
100
AcDbXrecord
 10
0.0
 20
0.0
 30
0.0
  0
XRECORD
  5
E9
102
{ACAD_REACTORS
330
D8
102
}
330
D8
100
AcDbXrecord
 10
0.0
 20
0.0
 30
0.0
  0
XRECORD
  5
E6
102
{ACAD_REACTORS
330
D8
102
}
330
D8
100
AcDbXrecord
340
0
  0
XRECORD
  5
E7
102
{ACAD_REACTORS
330
D8
102
}
330
D8
100
AcDbXrecord
 70
     0
  0
XRECORD
  5
DC
102
{ACAD_REACTORS
330
D8
102
}
330
D8
100
AcDbXrecord
  1

  0
XRECORD
  5
D9
102
{ACAD_REACTORS
330
D8
102
}
330
D8
100
AcDbXrecord
 90
        1
  0
XRECORD
  5
DA
102
{ACAD_REACTORS
330
D8
102
}
330
D8
100
AcDbXrecord
 90
       70
  0
XRECORD
  5
F1
102
{ACAD_REACTORS
330
D8
102
}
330
D8
100
AcDbXrecord
340
0
  0
XRECORD
  5
F7
102
{ACAD_REACTORS
330
D8
102
}
330
D8
100
AcDbXrecord
 10
0.0
 20
0.0
 30
0.0
  0
XRECORD
  5
F3
102
{ACAD_REACTORS
330
D8
102
}
330
D8
100
AcDbXrecord
 10
0.0
 20
0.0
 30
0.0
  0
XRECORD
  5
F6
102
{ACAD_REACTORS
330
D8
102
}
330
D8
100
AcDbXrecord
 10
0.0
 20
0.0
 30
0.0
  0
XRECORD
  5
F4
102
{ACAD_REACTORS
330
D8
102
}
330
D8
100
AcDbXrecord
 10
0.0
 20
0.0
 30
0.0
  0
XRECORD
  5
F5
102
{ACAD_REACTORS
330
D8
102
}
330
D8
100
AcDbXrecord
 10
0.0
 20
0.0
 30
0.0
  0
XRECORD
  5
F2
102
{ACAD_REACTORS
330
D8
102
}
330
D8
100
AcDbXrecord
 10
0.0
 20
0.0
 30
0.0
  0
XRECORD
  5
EF
102
{ACAD_REACTORS
330
D8
102
}
330
D8
100
AcDbXrecord
340
0
  0
XRECORD
  5
F0
102
{ACAD_REACTORS
330
D8
102
}
330
D8
100
AcDbXrecord
 70
     1
  0
XRECORD
  5
E4
102
{ACAD_REACTORS
330
D8
102
}
330
D8
100
AcDbXrecord
  1
{E0A86001-A685-4A14-9A76-464653EC5D83}
  0
DICTIONARYVAR
  5
D6
102
{ACAD_REACTORS
330
D5
102
}
330
D5
100
DictionaryVariables
280
     0
  1
1
  0
ENDSEC
  0
EOF
