  0
SECTION
  2
HEADER
  9
$ACADVER
  1
AC1014
  9
$ACADMAINTVER
 70
     9
  9
$DWGCODEPAGE
  3
ANSI_1252
  9
$INSBASE
 10
0.0
 20
0.0
 30
0.0
  9
$EXTMIN
 10
0.13388346399672
 20
-0.0930611891140694
 30
0.0
  9
$EXTMAX
 10
364.866116536003
 20
166.0930611891139
 30
0.0
  9
$LIMMIN
 10
0.0
 20
0.0
  9
$LIMMAX
 10
12.0
 20
9.0
  9
$ORTHOMODE
 70
     0
  9
$REGENMODE
 70
     1
  9
$FILLMODE
 70
     1
  9
$QTEXTMODE
 70
     0
  9
$MIRRTEXT
 70
     1
  9
$DRAGMODE
 70
     2
  9
$LTSCALE
 40
1.0
  9
$OSMODE
 70
    37
  9
$ATTMODE
 70
     1
  9
$TEXTSIZE
 40
0.2
  9
$TRACEWID
 40
0.05
  9
$TEXTSTYLE
  7
STANDARD
  9
$CLAYER
  8
0
  9
$CELTYPE
  6
CONTINUOUS
  9
$CECOLOR
 62
   256
  9
$CELTSCALE
 40
1.0
  9
$DELOBJ
 70
     1
  9
$DISPSILH
 70
     0
  9
$DIMSCALE
 40
1.0
  9
$DIMASZ
 40
0.18
  9
$DIMEXO
 40
0.0625
  9
$DIMDLI
 40
0.38
  9
$DIMRND
 40
0.0
  9
$DIMDLE
 40
0.0
  9
$DIMEXE
 40
0.18
  9
$DIMTP
 40
0.0
  9
$DIMTM
 40
0.0
  9
$DIMTXT
 40
0.18
  9
$DIMCEN
 40
0.09
  9
$DIMTSZ
 40
0.0
  9
$DIMTOL
 70
     0
  9
$DIMLIM
 70
     0
  9
$DIMTIH
 70
     1
  9
$DIMTOH
 70
     1
  9
$DIMSE1
 70
     0
  9
$DIMSE2
 70
     0
  9
$DIMTAD
 70
     0
  9
$DIMZIN
 70
     0
  9
$DIMBLK
  1

  9
$DIMASO
 70
     1
  9
$DIMSHO
 70
     1
  9
$DIMPOST
  1

  9
$DIMAPOST
  1

  9
$DIMALT
 70
     0
  9
$DIMALTD
 70
     2
  9
$DIMALTF
 40
25.4
  9
$DIMLFAC
 40
1.0
  9
$DIMTOFL
 70
     0
  9
$DIMTVP
 40
0.0
  9
$DIMTIX
 70
     0
  9
$DIMSOXD
 70
     0
  9
$DIMSAH
 70
     0
  9
$DIMBLK1
  1

  9
$DIMBLK2
  1

  9
$DIMSTYLE
  2
STANDARD
  9
$DIMCLRD
 70
     0
  9
$DIMCLRE
 70
     0
  9
$DIMCLRT
 70
     0
  9
$DIMTFAC
 40
1.0
  9
$DIMGAP
 40
0.09
  9
$DIMJUST
 70
     0
  9
$DIMSD1
 70
     0
  9
$DIMSD2
 70
     0
  9
$DIMTOLJ
 70
     1
  9
$DIMTZIN
 70
     0
  9
$DIMALTZ
 70
     0
  9
$DIMALTTZ
 70
     0
  9
$DIMFIT
 70
     3
  9
$DIMUPT
 70
     0
  9
$DIMUNIT
 70
     2
  9
$DIMDEC
 70
     4
  9
$DIMTDEC
 70
     4
  9
$DIMALTU
 70
     2
  9
$DIMALTTD
 70
     2
  9
$DIMTXSTY
  7
STANDARD
  9
$DIMAUNIT
 70
     0
  9
$LUNITS
 70
     2
  9
$LUPREC
 70
     4
  9
$SKETCHINC
 40
0.1
  9
$FILLETRAD
 40
0.0
  9
$AUNITS
 70
     0
  9
$AUPREC
 70
     0
  9
$MENU
  1
.
  9
$ELEVATION
 40
0.0
  9
$PELEVATION
 40
0.0
  9
$THICKNESS
 40
0.0
  9
$LIMCHECK
 70
     0
  9
$BLIPMODE
 70
     0
  9
$CHAMFERA
 40
0.0
  9
$CHAMFERB
 40
0.0
  9
$CHAMFERC
 40
0.0
  9
$CHAMFERD
 40
0.0
  9
$SKPOLY
 70
     0
  9
$TDCREATE
 40
2454691.729524733
  9
$TDUPDATE
 40
2454691.730810544
  9
$TDINDWG
 40
0.0012858102
  9
$TDUSRTIMER
 40
0.0012858102
  9
$USRTIMER
 70
     1
  9
$ANGBASE
 50
0.0
  9
$ANGDIR
 70
     0
  9
$PDMODE
 70
     0
  9
$PDSIZE
 40
0.0
  9
$PLINEWID
 40
0.0
  9
$COORDS
 70
     1
  9
$SPLFRAME
 70
     0
  9
$SPLINETYPE
 70
     6
  9
$SPLINESEGS
 70
     8
  9
$ATTDIA
 70
     0
  9
$ATTREQ
 70
     1
  9
$HANDLING
 70
 22529
  9
$HANDSEED
  5
354
  9
$SURFTAB1
 70
     6
  9
$SURFTAB2
 70
     6
  9
$SURFTYPE
 70
     6
  9
$SURFU
 70
     6
  9
$SURFV
 70
     6
  9
$UCSNAME
  2

  9
$UCSORG
 10
0.0
 20
0.0
 30
0.0
  9
$UCSXDIR
 10
1.0
 20
0.0
 30
0.0
  9
$UCSYDIR
 10
0.0
 20
1.0
 30
0.0
  9
$PUCSNAME
  2

  9
$PUCSORG
 10
0.0
 20
0.0
 30
0.0
  9
$PUCSXDIR
 10
1.0
 20
0.0
 30
0.0
  9
$PUCSYDIR
 10
0.0
 20
1.0
 30
0.0
  9
$USERI1
 70
     0
  9
$USERI2
 70
     0
  9
$USERI3
 70
     0
  9
$USERI4
 70
     0
  9
$USERI5
 70
     0
  9
$USERR1
 40
0.0
  9
$USERR2
 40
0.0
  9
$USERR3
 40
0.0
  9
$USERR4
 40
0.0
  9
$USERR5
 40
0.0
  9
$WORLDVIEW
 70
     1
  9
$SHADEDGE
 70
     3
  9
$SHADEDIF
 70
    70
  9
$TILEMODE
 70
     1
  9
$MAXACTVP
 70
    64
  9
$PINSBASE
 10
0.0
 20
0.0
 30
0.0
  9
$PLIMCHECK
 70
     0
  9
$PEXTMIN
 10
1.000000000000000E+20
 20
1.000000000000000E+20
 30
1.000000000000000E+20
  9
$PEXTMAX
 10
-1.000000000000000E+20
 20
-1.000000000000000E+20
 30
-1.000000000000000E+20
  9
$PLIMMIN
 10
0.0
 20
0.0
  9
$PLIMMAX
 10
12.0
 20
9.0
  9
$UNITMODE
 70
     0
  9
$VISRETAIN
 70
     1
  9
$PLINEGEN
 70
     0
  9
$PSLTSCALE
 70
     1
  9
$TREEDEPTH
 70
  3020
  9
$PICKSTYLE
 70
     1
  9
$CMLSTYLE
  2
STANDARD
  9
$CMLJUST
 70
     0
  9
$CMLSCALE
 40
1.0
  9
$PROXYGRAPHICS
 70
     1
  9
$MEASUREMENT
 70
     0
  0
ENDSEC
  0
SECTION
  2
CLASSES
  0
CLASS
  1
ACDBDICTIONARYWDFLT
  2
AcDbDictionaryWithDefault
  3
AutoCAD 2000
 90
        0
280
     0
281
     0
  0
CLASS
  1
ACDBPLACEHOLDER
  2
AcDbPlaceHolder
  3
AutoCAD 2000
 90
        0
280
     0
281
     0
  0
CLASS
  1
LAYOUT
  2
AcDbLayout
  3
AutoCAD 2000
 90
        0
280
     0
281
     0
  0
CLASS
  1
DICTIONARYVAR
  2
AcDbDictionaryVar
  3
AutoCAD 2000
 90
        0
280
     0
281
     0
  0
CLASS
  1
LONG_TRANSACTION
  2
AcDbLongTransaction
  3
AutoCAD 2000
 90
        0
280
     0
281
     0
  0
CLASS
  1
LWPOLYLINE
  2
AcDbPolyline
  3
AutoCAD 2000
 90
        0
280
     0
281
     1
  0
CLASS
  1
HATCH
  2
AcDbHatch
  3
AutoCAD 2000
 90
        0
280
     0
281
     1
  0
CLASS
  1
XRECORD
  2
AcDbXrecord
  3
AutoCAD 2000
 90
        0
280
     0
281
     0
  0
ENDSEC
  0
SECTION
  2
TABLES
  0
TABLE
  2
VPORT
  5
8
330
0
100
AcDbSymbolTable
 70
     2
  0
VPORT
  5
32F
330
8
100
AcDbSymbolTableRecord
100
AcDbViewportTableRecord
  2
*ACTIVE
 70
     0
 10
0.0
 20
0.0
 11
1.0
 21
1.0
 12
182.4999999999998
 22
82.99999999999997
 13
0.0
 23
0.0
 14
1.0
 24
1.0
 15
0.0
 25
0.0
 16
0.0
 26
0.0
 36
1.0
 17
0.0
 27
0.0
 37
0.0
 40
179.15168559661
 41
2.043533930857874
 42
50.0
 43
0.0
 44
0.0
 50
0.0
 51
0.0
 71
     0
 72
   100
 73
     1
 74
     3
 75
     0
 76
     0
 77
     0
 78
     0
  0
ENDTAB
  0
TABLE
  2
LTYPE
  5
5
330
0
100
AcDbSymbolTable
 70
     1
  0
LTYPE
  5
13
330
5
100
AcDbSymbolTableRecord
100
AcDbLinetypeTableRecord
  2
BYBLOCK
 70
     0
  3

 72
    65
 73
     0
 40
0.0
  0
LTYPE
  5
14
330
5
100
AcDbSymbolTableRecord
100
AcDbLinetypeTableRecord
  2
BYLAYER
 70
     0
  3

 72
    65
 73
     0
 40
0.0
  0
LTYPE
  5
15
330
5
100
AcDbSymbolTableRecord
100
AcDbLinetypeTableRecord
  2
CONTINUOUS
 70
     0
  3
Solid line
 72
    65
 73
     0
 40
0.0
  0
ENDTAB
  0
TABLE
  2
LAYER
  5
2
330
0
100
AcDbSymbolTable
 70
     1
  0
LAYER
  5
10
330
2
100
AcDbSymbolTableRecord
100
AcDbLayerTableRecord
  2
0
 70
     0
 62
     7
  6
CONTINUOUS
  0
ENDTAB
  0
TABLE
  2
STYLE
  5
3
330
0
100
AcDbSymbolTable
 70
     1
  0
STYLE
  5
11
330
3
100
AcDbSymbolTableRecord
100
AcDbTextStyleTableRecord
  2
STANDARD
 70
     0
 40
0.0
 41
1.0
 50
0.0
 71
     0
 42
0.2
  3
txt
  4

  0
ENDTAB
  0
TABLE
  2
VIEW
  5
6
330
0
100
AcDbSymbolTable
 70
     0
  0
ENDTAB
  0
TABLE
  2
UCS
  5
7
330
0
100
AcDbSymbolTable
 70
     0
  0
ENDTAB
  0
TABLE
  2
APPID
  5
9
330
0
100
AcDbSymbolTable
 70
     1
  0
APPID
  5
12
330
9
100
AcDbSymbolTableRecord
100
AcDbRegAppTableRecord
  2
ACAD
 70
     0
  0
ENDTAB
  0
TABLE
  2
DIMSTYLE
  5
A
330
0
100
AcDbSymbolTable
 70
     1
  0
DIMSTYLE
105
329
330
A
100
AcDbSymbolTableRecord
100
AcDbDimStyleTableRecord
  2
STANDARD
 70
     0
  3

  4

  5

  6

  7

 40
1.0
 41
0.18
 42
0.0625
 43
0.38
 44
0.18
 45
0.0
 46
0.0
 47
0.0
 48
0.0
140
0.18
141
0.09
142
0.0
143
25.4
144
1.0
145
0.0
146
1.0
147
0.09
 71
     0
 72
     0
 73
     1
 74
     1
 75
     0
 76
     0
 77
     0
 78
     0
170
     0
171
     2
172
     0
173
     0
174
     0
175
     0
176
     0
177
     0
178
     0
270
     2
271
     4
272
     4
273
     2
274
     2
340
11
275
     0
280
     0
281
     0
282
     0
283
     1
284
     0
285
     0
286
     0
287
     3
288
     0
  0
ENDTAB
  0
TABLE
  2
BLOCK_RECORD
  5
1
330
0
100
AcDbSymbolTable
 70
     0
  0
BLOCK_RECORD
  5
1E
102
{ACAD_XDICTIONARY
360
352
102
}
330
1
100
AcDbSymbolTableRecord
100
AcDbBlockTableRecord
  2
*MODEL_SPACE
  0
BLOCK_RECORD
  5
1A
102
{ACAD_XDICTIONARY
360
350
102
}
330
1
100
AcDbSymbolTableRecord
100
AcDbBlockTableRecord
  2
*PAPER_SPACE
  0
ENDTAB
  0
ENDSEC
  0
SECTION
  2
BLOCKS
  0
BLOCK
  5
1F
330
1E
100
AcDbEntity
  8
0
100
AcDbBlockBegin
  2
*MODEL_SPACE
 70
     0
 10
0.0
 20
0.0
 30
0.0
  3
*MODEL_SPACE
  1

  0
ENDBLK
  5
20
330
1E
100
AcDbEntity
  8
0
100
AcDbBlockEnd
  0
BLOCK
  5
1B
330
1A
100
AcDbEntity
 67
     1
  8
0
100
AcDbBlockBegin
  2
*PAPER_SPACE
 70
     0
 10
0.0
 20
0.0
 30
0.0
  3
*PAPER_SPACE
  1

  0
ENDBLK
  5
1C
330
1A
100
AcDbEntity
 67
     1
  8
0
100
AcDbBlockEnd
  0
ENDSEC
  0
SECTION
  2
ENTITIES
  0
LINE
  5
22
330
1E
100
AcDbEntity
  8
0
100
AcDbLine
 10
79.8604385777888
 20
61.327974760092
 30
0.0
 11
80.70561652978449
 21
63.1406176453456
 31
0.0
  0
LINE
  5
23
330
1E
100
AcDbEntity
  8
0
100
AcDbLine
 10
80.60643175721491
 20
60.9801417739482
 30
0.0
 11
81.45160970921059
 21
62.79278465920179
 31
0.0
  0
LINE
  5
24
330
1E
100
AcDbEntity
  8
0
100
AcDbLine
 10
80.60643175721491
 20
60.9801417739482
 30
0.0
 11
80.9462116660557
 21
60.8217131668466
 31
0.0
  0
LINE
  5
25
330
1E
100
AcDbEntity
  8
0
100
AcDbLine
 10
77.38436839653241
 20
62.4824878425181
 30
0.0
 11
78.22954634852809
 21
64.2951307277717
 31
0.0
  0
LINE
  5
26
330
1E
100
AcDbEntity
  8
0
100
AcDbLine
 10
77.38436839653241
 20
62.4824878425181
 30
0.0
 11
78.954117135162
 21
61.75056373608989
 31
0.0
  0
LINE
  5
27
330
1E
100
AcDbEntity
  8
0
100
AcDbLine
 10
77.38436839653241
 20
62.4824878425181
 30
0.0
 11
78.2906898391592
 21
62.0598988665203
 31
0.0
  0
LINE
  5
28
330
1E
100
AcDbEntity
  8
0
100
AcDbLine
 10
78.954117135162
 20
61.75056373608989
 30
0.0
 11
79.8604385777888
 21
61.327974760092
 31
0.0
  0
LINE
  5
29
330
1E
100
AcDbEntity
  8
0
100
AcDbLine
 10
78.954117135162
 20
61.75056373608989
 30
0.0
 11
79.7992950871577
 21
63.5632066213435
 31
0.0
  0
LINE
  5
2A
330
1E
100
AcDbEntity
  8
0
100
AcDbLine
 10
77.2188741011088
 20
62.5596525895353
 30
0.0
 11
78.96979649611949
 21
61.7432529468051
 31
0.0
  0
LINE
  5
2B
330
1E
100
AcDbEntity
  8
0
100
AcDbLine
 10
76.74976212240508
 20
62.7783846435118
 30
0.0
 11
78.5005938852716
 21
61.9620272596792
 31
0.0
  0
LINE
  5
2C
330
1E
100
AcDbEntity
  8
0
100
AcDbLine
 10
79.70011031458809
 20
61.4027307499461
 30
0.0
 11
80.60643175721491
 21
60.9801417739482
 31
0.0
  0
LINE
  5
2D
330
1E
100
AcDbEntity
  8
0
100
AcDbLine
 10
81.4153236447593
 20
60.6029811128702
 30
0.0
 11
83.16624603976999
 21
59.78658147014
 31
0.0
  0
LINE
  5
2E
330
1E
100
AcDbEntity
  8
0
100
AcDbLine
 10
80.9462116660557
 20
60.8217131668466
 30
0.0
 11
81.4153236447593
 21
60.6029811128702
 31
0.0
  0
LINE
  5
2F
330
1E
100
AcDbEntity
  8
0
100
AcDbLine
 10
80.9462116660557
 20
60.8217131668466
 30
0.0
 11
81.79138961805142
 21
62.6343560521002
 31
0.0
  0
LINE
  5
30
330
1E
100
AcDbEntity
  8
0
100
AcDbLine
 10
80.9462116660557
 20
60.8217131668466
 30
0.0
 11
82.69704342892209
 21
60.005355783014
 31
0.0
  0
LINE
  5
31
330
1E
100
AcDbEntity
  8
0
100
AcDbLine
 10
80.70561652978449
 20
63.1406176453456
 30
0.0
 11
81.45160970921059
 21
62.79278465920179
 31
0.0
  0
LINE
  5
32
330
1E
100
AcDbEntity
  8
0
100
AcDbLine
 10
76.22228304279629
 20
63.02433142754249
 30
0.0
 11
77.50400282695919
 21
62.4267060976864
 31
0.0
  0
LINE
  5
33
330
1E
100
AcDbEntity
  8
0
100
AcDbLine
 10
76.22228304279629
 20
63.02433142754249
 30
0.0
 11
77.067460994792
 21
64.8369743127961
 31
0.0
  0
LINE
  5
34
330
1E
100
AcDbEntity
  8
0
100
AcDbLine
 10
81.45160970921059
 20
62.79278465920179
 30
0.0
 11
81.79138961805142
 21
62.6343560521002
 31
0.0
  0
LINE
  5
35
330
1E
100
AcDbEntity
  8
0
100
AcDbLine
 10
84.55355227199891
 20
59.13972452458009
 30
0.0
 11
85.8352720561616
 21
58.5420991947239
 31
0.0
  0
LINE
  5
36
330
1E
100
AcDbEntity
  8
0
100
AcDbLine
 10
89.73390437376499
 20
56.72429045557169
 30
0.0
 11
90.2033788810457
 21
56.50538936600479
 31
0.0
  0
LINE
  5
37
330
1E
100
AcDbEntity
  8
0
100
AcDbLine
 10
89.73390437376499
 20
56.72429045557169
 30
0.0
 11
90.57908232576071
 21
58.53693334082521
 31
0.0
  0
LINE
  5
38
330
1E
100
AcDbEntity
  8
0
100
AcDbLine
 10
93.72171872132289
 20
54.8648989611812
 30
0.0
 11
93.95011172486489
 21
54.75840653922971
 31
0.0
  0
LINE
  5
39
330
1E
100
AcDbEntity
  8
0
100
AcDbLine
 10
93.25315053548479
 20
55.0833774617721
 30
0.0
 11
93.72171872132289
 21
54.8648989611812
 31
0.0
  0
LINE
  5
3A
330
1E
100
AcDbEntity
  8
0
100
AcDbLine
 10
93.25315053548479
 20
55.0833774617721
 30
0.0
 11
94.09832848748051
 21
56.8960203470256
 31
0.0
  0
LINE
  5
3B
330
1E
100
AcDbEntity
  8
0
100
AcDbLine
 10
93.95011172486489
 20
54.75840653922971
 30
0.0
 11
94.7952896768605
 21
56.5710494244833
 31
0.0
  0
LINE
  5
3C
330
1E
100
AcDbEntity
  8
0
100
AcDbLine
 10
94.1667225496527
 20
54.65740777396629
 30
0.0
 11
95.01190050164829
 21
56.4700506592198
 31
0.0
  0
LINE
  5
3D
330
1E
100
AcDbEntity
  8
0
100
AcDbLine
 10
94.1667225496527
 20
54.65740777396629
 30
0.0
 11
95.0204773486071
 21
54.2593289585763
 31
0.0
  0
LINE
  5
3E
330
1E
100
AcDbEntity
  8
0
100
AcDbLine
 10
93.72171872132289
 20
54.8648989611812
 30
0.0
 11
94.56689667331859
 21
56.67754184643479
 31
0.0
  0
LINE
  5
3F
330
1E
100
AcDbEntity
  8
0
100
AcDbLine
 10
91.50213750832991
 20
55.8998193633999
 30
0.0
 11
92.34731546032559
 21
57.71246224865349
 31
0.0
  0
LINE
  5
40
330
1E
100
AcDbEntity
  8
0
100
AcDbLine
 10
91.50213750832991
 20
55.8998193633999
 30
0.0
 11
93.25315053548479
 21
55.0833774617721
 31
0.0
  0
LINE
  5
41
330
1E
100
AcDbEntity
  8
0
100
AcDbLine
 10
91.50213750832991
 20
55.8998193633999
 30
0.0
 11
91.97070569416791
 21
55.681340862809
 31
0.0
  0
LINE
  5
42
330
1E
100
AcDbEntity
  8
0
100
AcDbLine
 10
90.9791900359343
 20
56.1436532025506
 30
0.0
 11
91.8243679879299
 21
57.9562960878042
 31
0.0
  0
LINE
  5
43
330
1E
100
AcDbEntity
  8
0
100
AcDbLine
 10
90.9791900359343
 20
56.1436532025506
 30
0.0
 11
91.50213750832991
 21
55.8998193633999
 31
0.0
  0
LINE
  5
44
330
1E
100
AcDbEntity
  8
0
100
AcDbLine
 10
90.35020295475129
 20
56.4369299518931
 30
0.0
 11
92.10121598190621
 21
55.62048805026529
 31
0.0
  0
LINE
  5
45
330
1E
100
AcDbEntity
  8
0
100
AcDbLine
 10
90.35020295475129
 20
56.4369299518931
 30
0.0
 11
91.19538090674691
 21
58.2495728371467
 31
0.0
  0
LINE
  5
46
330
1E
100
AcDbEntity
  8
0
100
AcDbLine
 10
91.63264779606821
 20
55.8389665508562
 30
0.0
 11
92.10121598190621
 21
55.62048805026529
 31
0.0
  0
LINE
  5
47
330
1E
100
AcDbEntity
  8
0
100
AcDbLine
 10
90.2033788810457
 20
56.50538936600479
 30
0.0
 11
90.35020295475129
 21
56.4369299518931
 31
0.0
  0
LINE
  5
48
330
1E
100
AcDbEntity
  8
0
100
AcDbLine
 10
90.2033788810457
 20
56.50538936600479
 30
0.0
 11
91.0485568330414
 21
58.3180322512584
 31
0.0
  0
LINE
  5
49
330
1E
100
AcDbEntity
  8
0
100
AcDbLine
 10
86.68485777647999
 20
58.1459642886236
 30
0.0
 11
87.53003572847571
 21
59.9586071738771
 31
0.0
  0
LINE
  5
4A
330
1E
100
AcDbEntity
  8
0
100
AcDbLine
 10
86.2156551656321
 20
58.3647386014976
 30
0.0
 11
86.68485777647999
 21
58.1459642886236
 31
0.0
  0
LINE
  5
4B
330
1E
100
AcDbEntity
  8
0
100
AcDbLine
 10
86.2156551656321
 20
58.3647386014976
 30
0.0
 11
87.0608331176278
 21
60.1773814867512
 31
0.0
  0
LINE
  5
4C
330
1E
100
AcDbEntity
  8
0
100
AcDbLine
 10
87.1169918403244
 20
57.9444738648678
 30
0.0
 11
87.9621697923201
 21
59.7571167501214
 31
0.0
  0
LINE
  5
4D
330
1E
100
AcDbEntity
  8
0
100
AcDbLine
 10
87.98343513947559
 20
57.54047880381389
 30
0.0
 11
88.45254711817929
 21
57.3217467498374
 31
0.0
  0
LINE
  5
4E
330
1E
100
AcDbEntity
  8
0
100
AcDbLine
 10
87.98343513947559
 20
57.54047880381389
 30
0.0
 11
89.73390437376499
 21
56.72429045557169
 31
0.0
  0
LINE
  5
4F
330
1E
100
AcDbEntity
  8
0
100
AcDbLine
 10
87.98343513947559
 20
57.54047880381389
 30
0.0
 11
88.82861309147129
 21
59.3531216890675
 31
0.0
  0
LINE
  5
50
330
1E
100
AcDbEntity
  8
0
100
AcDbLine
 10
85.8352720561616
 20
58.5420991947239
 30
0.0
 11
86.2156551656321
 21
58.3647386014976
 31
0.0
  0
LINE
  5
51
330
1E
100
AcDbEntity
  8
0
100
AcDbLine
 10
85.8352720561616
 20
58.5420991947239
 30
0.0
 11
87.1169918403244
 21
57.9444738648678
 31
0.0
  0
LINE
  5
52
330
1E
100
AcDbEntity
  8
0
100
AcDbLine
 10
88.82861309147129
 20
59.3531216890675
 30
0.0
 11
90.57908232576071
 21
58.53693334082521
 31
0.0
  0
LINE
  5
53
330
1E
100
AcDbEntity
  8
0
100
AcDbLine
 10
84.1817792162333
 20
59.3130705225344
 30
0.0
 11
85.026957168229
 21
61.12571340778799
 31
0.0
  0
LINE
  5
54
330
1E
100
AcDbEntity
  8
0
100
AcDbLine
 10
84.1817792162333
 20
59.3130705225344
 30
0.0
 11
84.4648234027657
 21
59.18109598533029
 31
0.0
  0
LINE
  5
55
330
1E
100
AcDbEntity
  8
0
100
AcDbLine
 10
84.4648234027657
 20
59.18109598533029
 30
0.0
 11
85.31000135476141
 21
60.9937388705838
 31
0.0
  0
LINE
  5
56
330
1E
100
AcDbEntity
  8
0
100
AcDbLine
 10
84.4648234027657
 20
59.18109598533029
 30
0.0
 11
86.2156551656321
 21
58.3647386014976
 31
0.0
  0
LINE
  5
57
330
1E
100
AcDbEntity
  8
0
100
AcDbLine
 10
95.0204773486071
 20
54.2593289585763
 30
0.0
 11
95.8656553006028
 21
56.07197184382989
 31
0.0
  0
LINE
  5
58
330
1E
100
AcDbEntity
  8
0
100
AcDbLine
 10
95.0204773486071
 20
54.2593289585763
 30
0.0
 11
96.7714903757621
 21
53.4428870569485
 31
0.0
  0
LINE
  5
59
330
1E
100
AcDbEntity
  8
0
100
AcDbLine
 10
102.5266315364419
 20
50.7594470593623
 30
0.0
 11
104.277644563597
 21
49.94300515773439
 31
0.0
  0
LINE
  5
5A
330
1E
100
AcDbEntity
  8
0
100
AcDbLine
 10
104.277644563597
 20
49.94300515773439
 30
0.0
 11
105.1228225155929
 21
51.75564804298801
 31
0.0
  0
LINE
  5
5B
330
1E
100
AcDbEntity
  8
0
100
AcDbLine
 10
103.809076377759
 20
50.1614836583253
 30
0.0
 11
104.277644563597
 21
49.94300515773439
 31
0.0
  0
LINE
  5
5C
330
1E
100
AcDbEntity
  8
0
100
AcDbLine
 10
103.809076377759
 20
50.1614836583253
 30
0.0
 11
104.654254329755
 21
51.9741265435789
 31
0.0
  0
LINE
  5
5D
330
1E
100
AcDbEntity
  8
0
100
AcDbLine
 10
97.24096488304269
 20
53.2239859673816
 30
0.0
 11
98.08614283503843
 21
55.0366288526352
 31
0.0
  0
LINE
  5
5E
330
1E
100
AcDbEntity
  8
0
100
AcDbLine
 10
100.7593047233199
 20
51.58349556255799
 30
0.0
 11
101.604482675316
 21
53.3961384478116
 31
0.0
  0
LINE
  5
5F
330
1E
100
AcDbEntity
  8
0
100
AcDbLine
 10
100.289830216039
 20
51.80239665212489
 30
0.0
 11
100.7593047233199
 21
51.58349556255799
 31
0.0
  0
LINE
  5
60
330
1E
100
AcDbEntity
  8
0
100
AcDbLine
 10
100.289830216039
 20
51.80239665212489
 30
0.0
 11
101.1350081680349
 21
53.6150395373785
 31
0.0
  0
LINE
  5
61
330
1E
100
AcDbEntity
  8
0
100
AcDbLine
 10
104.654254329755
 20
51.9741265435789
 30
0.0
 11
105.1228225155929
 21
51.75564804298801
 31
0.0
  0
LINE
  5
62
330
1E
100
AcDbEntity
  8
0
100
AcDbLine
 10
98.5388171888843
 20
52.6188385537527
 30
0.0
 11
99.3839951408799
 21
54.43148143900629
 31
0.0
  0
LINE
  5
63
330
1E
100
AcDbEntity
  8
0
100
AcDbLine
 10
98.5388171888843
 20
52.6188385537527
 30
0.0
 11
100.289830216039
 21
51.80239665212489
 31
0.0
  0
LINE
  5
64
330
1E
100
AcDbEntity
  8
0
100
AcDbLine
 10
97.77660085563521
 20
52.9742358825669
 30
0.0
 11
98.68292229826192
 21
52.5516469065691
 31
0.0
  0
LINE
  5
65
330
1E
100
AcDbEntity
  8
0
100
AcDbLine
 10
97.77660085563521
 20
52.9742358825669
 30
0.0
 11
98.62177880763081
 21
54.7868787678205
 31
0.0
  0
LINE
  5
66
330
1E
100
AcDbEntity
  8
0
100
AcDbLine
 10
97.77660085563521
 20
52.9742358825669
 30
0.0
 11
99.3463495942648
 21
52.2423117761386
 31
0.0
  0
LINE
  5
67
330
1E
100
AcDbEntity
  8
0
100
AcDbLine
 10
102.058063350604
 20
50.9779255599531
 30
0.0
 11
102.5266315364419
 21
50.7594470593623
 31
0.0
  0
LINE
  5
68
330
1E
100
AcDbEntity
  8
0
100
AcDbLine
 10
102.058063350604
 20
50.9779255599531
 30
0.0
 11
102.9032413026
 21
52.7905684452067
 31
0.0
  0
LINE
  5
69
330
1E
100
AcDbEntity
  8
0
100
AcDbLine
 10
102.058063350604
 20
50.9779255599531
 30
0.0
 11
103.809076377759
 21
50.1614836583253
 31
0.0
  0
LINE
  5
6A
330
1E
100
AcDbEntity
  8
0
100
AcDbLine
 10
96.7714903757621
 20
53.4428870569485
 30
0.0
 11
97.24096488304269
 21
53.2239859673816
 31
0.0
  0
LINE
  5
6B
330
1E
100
AcDbEntity
  8
0
100
AcDbLine
 10
96.7714903757621
 20
53.4428870569485
 30
0.0
 11
97.61666832775771
 21
55.2555299422021
 31
0.0
  0
LINE
  5
6C
330
1E
100
AcDbEntity
  8
0
100
AcDbLine
 10
94.75384207423349
 20
57.693736422821
 30
0.0
 11
108.892456579211
 21
51.1013483972548
 31
0.0
  0
LINE
  5
6D
330
1E
100
AcDbEntity
  8
0
100
AcDbLine
 10
94.33125309823559
 20
56.7874149801942
 30
0.0
 11
108.4698676032139
 21
50.195026954628
 31
0.0
  0
LINE
  5
6E
330
1E
100
AcDbEntity
  8
0
100
AcDbLine
 10
83.16624603976999
 20
59.78658147014
 30
0.0
 11
84.01142399176569
 21
61.5992243553935
 31
0.0
  0
LINE
  5
6F
330
1E
100
AcDbEntity
  8
0
100
AcDbLine
 10
83.54222138091779
 20
61.81799866826761
 30
0.0
 11
84.01142399176569
 21
61.5992243553935
 31
0.0
  0
LINE
  5
70
330
1E
100
AcDbEntity
  8
0
100
AcDbLine
 10
85.31000135476141
 20
60.9937388705838
 30
0.0
 11
87.0608331176278
 21
60.1773814867512
 31
0.0
  0
LINE
  5
71
330
1E
100
AcDbEntity
  8
0
100
AcDbLine
 10
86.68045000815729
 20
60.35474207997751
 30
0.0
 11
87.9621697923201
 21
59.7571167501214
 31
0.0
  0
LINE
  5
72
330
1E
100
AcDbEntity
  8
0
100
AcDbLine
 10
82.69704342892209
 20
60.005355783014
 30
0.0
 11
83.16624603976999
 21
59.78658147014
 31
0.0
  0
LINE
  5
73
330
1E
100
AcDbEntity
  8
0
100
AcDbLine
 10
82.69704342892209
 20
60.005355783014
 30
0.0
 11
83.54222138091779
 21
61.81799866826761
 31
0.0
  0
LINE
  5
74
330
1E
100
AcDbEntity
  8
0
100
AcDbLine
 10
87.9621697923201
 20
59.7571167501214
 30
0.0
 11
88.82861309147129
 21
59.3531216890675
 31
0.0
  0
LINE
  5
75
330
1E
100
AcDbEntity
  8
0
100
AcDbLine
 10
81.79138961805142
 20
62.6343560521002
 30
0.0
 11
85.026957168229
 21
61.12571340778799
 31
0.0
  0
LINE
  5
76
330
1E
100
AcDbEntity
  8
0
100
AcDbLine
 10
35.0823588547926
 20
82.20657474383141
 30
0.0
 11
35.92753680678829
 21
84.01921762908491
 31
0.0
  0
LINE
  5
77
330
1E
100
AcDbEntity
  8
0
100
AcDbLine
 10
35.1189742410748
 20
82.189502149201
 30
0.0
 11
35.9641521930704
 21
84.00214503445459
 31
0.0
  0
LINE
  5
78
330
1E
100
AcDbEntity
  8
0
100
AcDbLine
 10
35.1189742410748
 20
82.189502149201
 30
0.0
 11
36.93161712632829
 21
81.34432419720541
 31
0.0
  0
LINE
  5
79
330
1E
100
AcDbEntity
  8
0
100
AcDbLine
 10
34.17603741216579
 20
82.62916371982921
 30
0.0
 11
35.0823588547926
 21
82.20657474383141
 31
0.0
  0
LINE
  5
7A
330
1E
100
AcDbEntity
  8
0
100
AcDbLine
 10
33.512610116163
 20
82.93849885025959
 30
0.0
 11
35.0823588547926
 21
82.20657474383141
 31
0.0
  0
LINE
  5
7B
330
1E
100
AcDbEntity
  8
0
100
AcDbLine
 10
33.512610116163
 20
82.93849885025959
 30
0.0
 11
34.3577880681587
 21
84.7511417355132
 31
0.0
  0
LINE
  5
7C
330
1E
100
AcDbEntity
  8
0
100
AcDbLine
 10
32.60628867353629
 20
83.3610878262575
 30
0.0
 11
33.4514666255319
 21
85.173730711511
 31
0.0
  0
LINE
  5
7D
330
1E
100
AcDbEntity
  8
0
100
AcDbLine
 10
32.60628867353629
 20
83.3610878262575
 30
0.0
 11
34.17603741216579
 21
82.62916371982921
 31
0.0
  0
LINE
  5
7E
330
1E
100
AcDbEntity
  8
0
100
AcDbLine
 10
32.60628867353629
 20
83.3610878262575
 30
0.0
 11
33.512610116163
 21
82.93849885025959
 31
0.0
  0
LINE
  5
7F
330
1E
100
AcDbEntity
  8
0
100
AcDbLine
 10
36.4885165730281
 20
81.5509279475707
 30
0.0
 11
37.7703269893352
 21
80.95326035881699
 31
0.0
  0
LINE
  5
80
330
1E
100
AcDbEntity
  8
0
100
AcDbLine
 10
36.4885165730281
 20
81.5509279475707
 30
0.0
 11
37.3336945250238
 21
83.36357083282429
 31
0.0
  0
LINE
  5
81
330
1E
100
AcDbEntity
  8
0
100
AcDbLine
 10
39.052046773498
 20
80.3556350289609
 30
0.0
 11
39.8972247254936
 21
82.16827791421442
 31
0.0
  0
LINE
  5
82
330
1E
100
AcDbEntity
  8
0
100
AcDbLine
 10
39.57499424589359
 20
80.11180118981009
 30
0.0
 11
40.42017219788929
 21
81.9244440750637
 31
0.0
  0
LINE
  5
83
330
1E
100
AcDbEntity
  8
0
100
AcDbLine
 10
37.7703269893352
 20
80.95326035881699
 30
0.0
 11
39.052046773498
 21
80.3556350289609
 31
0.0
  0
LINE
  5
84
330
1E
100
AcDbEntity
  8
0
100
AcDbLine
 10
37.7703269893352
 20
80.95326035881699
 30
0.0
 11
38.6155049413308
 21
82.76590324407059
 31
0.0
  0
LINE
  5
85
330
1E
100
AcDbEntity
  8
0
100
AcDbLine
 10
39.8972247254936
 20
82.16827791421442
 30
0.0
 11
40.42017219788929
 21
81.9244440750637
 31
0.0
  0
LINE
  5
86
330
1E
100
AcDbEntity
  8
0
100
AcDbLine
 10
37.82416248302721
 20
80.9281585736427
 30
0.0
 11
39.57499424589359
 21
80.11180118981009
 31
0.0
  0
LINE
  5
87
330
1E
100
AcDbEntity
  8
0
100
AcDbLine
 10
37.3549598721793
 20
81.14693288651679
 30
0.0
 11
37.82416248302721
 21
80.9281585736427
 31
0.0
  0
LINE
  5
88
330
1E
100
AcDbEntity
  8
0
100
AcDbLine
 10
35.9641521930704
 20
84.00214503445459
 30
0.0
 11
37.3336945250238
 21
83.36357083282429
 31
0.0
  0
LINE
  5
89
330
1E
100
AcDbEntity
  8
0
100
AcDbLine
 10
35.92753680678829
 20
84.01921762908491
 30
0.0
 11
38.6155049413308
 21
82.76590324407059
 31
0.0
  0
LINE
  5
8A
330
1E
100
AcDbEntity
  8
0
100
AcDbLine
 10
35.92753680678829
 20
84.01921762908491
 30
0.0
 11
38.6155049413308
 21
82.76590324407059
 31
0.0
  0
LINE
  5
8B
330
1E
100
AcDbEntity
  8
0
100
AcDbLine
 10
50.9556726009582
 20
74.80535141820531
 30
0.0
 11
51.8008505529539
 21
76.61799430345891
 31
0.0
  0
LINE
  5
8C
330
1E
100
AcDbEntity
  8
0
100
AcDbLine
 10
50.9556726009582
 20
74.80535141820531
 30
0.0
 11
52.70659499596889
 21
73.98895177547508
 31
0.0
  0
LINE
  5
8D
330
1E
100
AcDbEntity
  8
0
100
AcDbLine
 10
52.2374830172653
 20
74.20768382945159
 30
0.0
 11
52.70659499596889
 21
73.98895177547508
 31
0.0
  0
LINE
  5
8E
330
1E
100
AcDbEntity
  8
0
100
AcDbLine
 10
52.70659499596889
 20
73.98895177547508
 30
0.0
 11
53.5517729479646
 21
75.8015946607287
 31
0.0
  0
LINE
  5
8F
330
1E
100
AcDbEntity
  8
0
100
AcDbLine
 10
48.6650357868633
 20
75.8734027961422
 30
0.0
 11
49.5102137388589
 21
77.68604568139579
 31
0.0
  0
LINE
  5
90
330
1E
100
AcDbEntity
  8
0
100
AcDbLine
 10
50.4865606222546
 20
75.0240834721818
 30
0.0
 11
50.9556726009582
 21
74.80535141820531
 31
0.0
  0
LINE
  5
91
330
1E
100
AcDbEntity
  8
0
100
AcDbLine
 10
50.4865606222546
 20
75.0240834721818
 30
0.0
 11
51.33173857425029
 21
76.8367263574354
 31
0.0
  0
LINE
  5
92
330
1E
100
AcDbEntity
  8
0
100
AcDbLine
 10
50.4865606222546
 20
75.0240834721818
 30
0.0
 11
52.2374830172653
 21
74.20768382945159
 31
0.0
  0
LINE
  5
93
330
1E
100
AcDbEntity
  8
0
100
AcDbLine
 10
53.08266096926089
 20
76.02032671470521
 30
0.0
 11
53.5517729479646
 21
75.8015946607287
 31
0.0
  0
LINE
  5
94
330
1E
100
AcDbEntity
  8
0
100
AcDbLine
 10
51.8008505529539
 20
76.61799430345891
 30
0.0
 11
53.5517729479646
 21
75.8015946607287
 31
0.0
  0
LINE
  5
95
330
1E
100
AcDbEntity
  8
0
100
AcDbLine
 10
51.33173857425029
 20
76.8367263574354
 30
0.0
 11
51.8008505529539
 21
76.61799430345891
 31
0.0
  0
LINE
  5
96
330
1E
100
AcDbEntity
  8
0
100
AcDbLine
 10
48.71379588047659
 20
75.85066750923359
 30
0.0
 11
49.55897383247229
 21
77.6633103944871
 31
0.0
  0
LINE
  5
97
330
1E
100
AcDbEntity
  8
0
100
AcDbLine
 10
48.71379588047659
 20
75.85066750923359
 30
0.0
 11
50.5264387657302
 21
75.0054895572379
 31
0.0
  0
LINE
  5
98
330
1E
100
AcDbEntity
  8
0
100
AcDbLine
 10
50.5264387657302
 20
75.0054895572379
 30
0.0
 11
52.2374830172653
 21
74.20768382945159
 31
0.0
  0
LINE
  5
99
330
1E
100
AcDbEntity
  8
0
100
AcDbLine
 10
50.5264387657302
 20
75.0054895572379
 30
0.0
 11
50.9556726009582
 21
74.80535141820531
 31
0.0
  0
LINE
  5
9A
330
1E
100
AcDbEntity
  8
0
100
AcDbLine
 10
47.3833160027005
 20
76.4710281259984
 30
0.0
 11
48.6650357868633
 21
75.8734027961422
 31
0.0
  0
LINE
  5
9B
330
1E
100
AcDbEntity
  8
0
100
AcDbLine
 10
47.3833160027005
 20
76.4710281259984
 30
0.0
 11
48.2284939546961
 21
78.28367101125199
 31
0.0
  0
LINE
  5
9C
330
1E
100
AcDbEntity
  8
0
100
AcDbLine
 10
45.2860881844621
 20
77.4488990164574
 30
0.0
 11
46.1312661364577
 21
79.26154190171091
 31
0.0
  0
LINE
  5
9D
330
1E
100
AcDbEntity
  8
0
100
AcDbLine
 10
45.2860881844621
 20
77.4488990164574
 30
0.0
 11
46.10150558639339
 21
77.06869571475209
 31
0.0
  0
LINE
  5
9E
330
1E
100
AcDbEntity
  8
0
100
AcDbLine
 10
46.1312661364577
 20
79.26154190171091
 30
0.0
 11
47.7010148750873
 21
78.5296177952827
 31
0.0
  0
LINE
  5
9F
330
1E
100
AcDbEntity
  8
0
100
AcDbLine
 10
44.3797667418353
 20
77.8714879924552
 30
0.0
 11
45.224944693831
 21
79.6841308777088
 31
0.0
  0
LINE
  5
A0
330
1E
100
AcDbEntity
  8
0
100
AcDbLine
 10
44.3797667418353
 20
77.8714879924552
 30
0.0
 11
45.2860881844621
 21
77.4488990164574
 31
0.0
  0
LINE
  5
A1
330
1E
100
AcDbEntity
  8
0
100
AcDbLine
 10
48.2284939546961
 20
78.28367101125199
 30
0.0
 11
49.5102137388589
 21
77.68604568139579
 31
0.0
  0
LINE
  5
A2
330
1E
100
AcDbEntity
  8
0
100
AcDbLine
 10
46.10150558639339
 20
77.06869571475209
 30
0.0
 11
47.3833160027005
 21
76.4710281259984
 31
0.0
  0
LINE
  5
A3
330
1E
100
AcDbEntity
  8
0
100
AcDbLine
 10
46.10150558639339
 20
77.06869571475209
 30
0.0
 11
46.9466835383891
 21
78.88133860000571
 31
0.0
  0
LINE
  5
A4
330
1E
100
AcDbEntity
  8
0
100
AcDbLine
 10
54.7850664543921
 20
76.32991026432541
 30
0.0
 11
67.38293450690441
 21
70.45592349795551
 31
0.0
  0
LINE
  5
A5
330
1E
100
AcDbEntity
  8
0
100
AcDbLine
 10
42.8216234117185
 20
81.9080847474968
 30
0.0
 11
54.7850664543921
 21
76.32991026432541
 31
0.0
  0
LINE
  5
A6
330
1E
100
AcDbEntity
  8
0
100
AcDbLine
 10
42.9428273012967
 20
80.74820991927131
 30
0.0
 11
54.81563819970761
 21
75.2122943336997
 31
0.0
  0
LINE
  5
A7
330
1E
100
AcDbEntity
  8
0
100
AcDbLine
 10
39.8972247254936
 20
82.16827791421442
 30
0.0
 11
42.9428273012967
 21
80.74820991927131
 31
0.0
  0
LINE
  5
A8
330
1E
100
AcDbEntity
  8
0
100
AcDbLine
 10
0.13388346399672
 20
101.8120255169949
 30
0.0
 11
0.617615930625676
 21
100.48311509837
 31
0.0
  0
LINE
  5
A9
330
1E
100
AcDbEntity
  8
0
100
AcDbLine
 10
0.13388346399672
 20
101.8120255169949
 30
0.0
 11
3.937184247977209
 21
109.968918500636
 31
0.0
  0
LINE
  5
AA
330
1E
100
AcDbEntity
  8
0
100
AcDbLine
 10
0.13388346399672
 20
101.8120255169949
 30
0.0
 11
1.22146919514887
 21
101.304918745797
 31
0.0
  0
LINE
  5
AB
330
1E
100
AcDbEntity
  8
0
100
AcDbLine
 10
7.92933096227111
 20
94.86717142913601
 30
0.0
 11
8.774508914266769
 21
96.6798143143896
 31
0.0
  0
LINE
  5
AC
330
1E
100
AcDbEntity
  8
0
100
AcDbLine
 10
7.92933096227111
 20
94.86717142913601
 30
0.0
 11
9.741973847524679
 21
94.02199347714041
 31
0.0
  0
LINE
  5
AD
330
1E
100
AcDbEntity
  8
0
100
AcDbLine
 10
8.653305024688529
 20
97.83968914261508
 30
0.0
 11
14.725658690288
 21
95.00834300342958
 31
0.0
  0
LINE
  5
AE
330
1E
100
AcDbEntity
  8
0
100
AcDbLine
 10
9.741973847524679
 20
94.02199347714041
 30
0.0
 11
10.5871517995203
 21
95.83463636239391
 31
0.0
  0
LINE
  5
AF
330
1E
100
AcDbEntity
  8
0
100
AcDbLine
 10
9.046405347054809
 20
96.55303762159029
 30
0.0
 11
15.0281268683916
 21
93.7639503800046
 31
0.0
  0
LINE
  5
B0
330
1E
100
AcDbEntity
  8
0
100
AcDbLine
 10
4.514798133920869
 20
98.6659825015794
 30
0.0
 11
9.046405347054809
 21
96.55303762159029
 31
0.0
  0
LINE
  5
B1
330
1E
100
AcDbEntity
  8
0
100
AcDbLine
 10
11.5609609828766
 20
93.17385740231269
 30
0.0
 11
12.4061389348723
 21
94.9865002875663
 31
0.0
  0
LINE
  5
B2
330
1E
100
AcDbEntity
  8
0
100
AcDbLine
 10
11.5609609828766
 20
93.17385740231269
 30
0.0
 11
13.3117927457431
 21
92.35750001848009
 31
0.0
  0
LINE
  5
B3
330
1E
100
AcDbEntity
  8
0
100
AcDbLine
 10
12.8426807670395
 20
92.57623207245659
 30
0.0
 11
13.3117927457431
 21
92.35750001848009
 31
0.0
  0
LINE
  5
B4
330
1E
100
AcDbEntity
  8
0
100
AcDbLine
 10
13.3117927457431
 20
92.35750001848009
 30
0.0
 11
14.15697069773869
 21
94.17014290373371
 31
0.0
  0
LINE
  5
B5
330
1E
100
AcDbEntity
  8
0
100
AcDbLine
 10
11.0917583720288
 20
93.3926317151868
 30
0.0
 11
11.9369363240244
 21
95.20527460044041
 31
0.0
  0
LINE
  5
B6
330
1E
100
AcDbEntity
  8
0
100
AcDbLine
 10
11.0917583720288
 20
93.3926317151868
 30
0.0
 11
11.5609609828766
 21
93.17385740231269
 31
0.0
  0
LINE
  5
B7
330
1E
100
AcDbEntity
  8
0
100
AcDbLine
 10
21.73913204786399
 20
88.4280986840619
 30
0.0
 11
22.5843099998597
 21
90.24074156931542
 31
0.0
  0
LINE
  5
B8
330
1E
100
AcDbEntity
  8
0
100
AcDbLine
 10
21.73913204786399
 20
88.4280986840619
 30
0.0
 11
23.30897141863789
 21
87.696132318736
 31
0.0
  0
LINE
  5
B9
330
1E
100
AcDbEntity
  8
0
100
AcDbLine
 10
25.9742815171147
 20
86.45338265812158
 30
0.0
 11
26.4433934958184
 21
86.23465060414508
 31
0.0
  0
LINE
  5
BA
330
1E
100
AcDbEntity
  8
0
100
AcDbLine
 10
26.4433934958184
 20
86.23465060414508
 30
0.0
 11
27.288571447814
 21
88.0472934893987
 31
0.0
  0
LINE
  5
BB
330
1E
100
AcDbEntity
  8
0
100
AcDbLine
 10
24.69256173295189
 20
87.0510079879777
 30
0.0
 11
26.4433934958184
 21
86.23465060414508
 31
0.0
  0
LINE
  5
BC
330
1E
100
AcDbEntity
  8
0
100
AcDbLine
 10
24.69256173295189
 20
87.0510079879777
 30
0.0
 11
25.5377396849476
 21
88.86365087323129
 31
0.0
  0
LINE
  5
BD
330
1E
100
AcDbEntity
  8
0
100
AcDbLine
 10
23.3367954869265
 20
87.6831588371729
 30
0.0
 11
24.1819734389222
 21
89.49580172242642
 31
0.0
  0
LINE
  5
BE
330
1E
100
AcDbEntity
  8
0
100
AcDbLine
 10
23.30897141863789
 20
87.696132318736
 30
0.0
 11
24.1541493706335
 21
89.50877520398959
 31
0.0
  0
LINE
  5
BF
330
1E
100
AcDbEntity
  8
0
100
AcDbLine
 10
24.223359122104
 20
87.2697823008518
 30
0.0
 11
25.0685370740997
 21
89.0824251861054
 31
0.0
  0
LINE
  5
C0
330
1E
100
AcDbEntity
  8
0
100
AcDbLine
 10
24.223359122104
 20
87.2697823008518
 30
0.0
 11
25.9742815171147
 21
86.45338265812158
 31
0.0
  0
LINE
  5
C1
330
1E
100
AcDbEntity
  8
0
100
AcDbLine
 10
24.223359122104
 20
87.2697823008518
 30
0.0
 11
24.69256173295189
 21
87.0510079879777
 31
0.0
  0
LINE
  5
C2
330
1E
100
AcDbEntity
  8
0
100
AcDbLine
 10
22.4026499760111
 20
88.11872129473378
 30
0.0
 11
23.30897141863789
 21
87.696132318736
 31
0.0
  0
LINE
  5
C3
330
1E
100
AcDbEntity
  8
0
100
AcDbLine
 10
25.5377396849476
 20
88.86365087323129
 30
0.0
 11
27.288571447814
 21
88.0472934893987
 31
0.0
  0
LINE
  5
C4
330
1E
100
AcDbEntity
  8
0
100
AcDbLine
 10
23.24782792800669
 20
89.93136417998741
 30
0.0
 11
24.1541493706335
 21
89.50877520398959
 31
0.0
  0
LINE
  5
C5
330
1E
100
AcDbEntity
  8
0
100
AcDbLine
 10
20.8328106052372
 20
88.8506876600597
 30
0.0
 11
22.4026499760111
 21
88.11872129473378
 31
0.0
  0
LINE
  5
C6
330
1E
100
AcDbEntity
  8
0
100
AcDbLine
 10
20.8328106052372
 20
88.8506876600597
 30
0.0
 11
21.73913204786399
 21
88.4280986840619
 31
0.0
  0
LINE
  5
C7
330
1E
100
AcDbEntity
  8
0
100
AcDbLine
 10
20.8328106052372
 20
88.8506876600597
 30
0.0
 11
21.6779885572329
 21
90.6633305453133
 31
0.0
  0
LINE
  5
C8
330
1E
100
AcDbEntity
  8
0
100
AcDbLine
 10
32.1270303887224
 20
86.8946346642712
 30
0.0
 11
42.8216234117185
 21
81.9080847474968
 31
0.0
  0
LINE
  5
C9
330
1E
100
AcDbEntity
  8
0
100
AcDbLine
 10
22.5843099998597
 20
90.24074156931542
 30
0.0
 11
24.1541493706335
 21
89.50877520398959
 31
0.0
  0
LINE
  5
CA
330
1E
100
AcDbEntity
  8
0
100
AcDbLine
 10
22.3693305536686
 20
90.34097967442209
 30
0.0
 11
24.1819734389222
 21
89.49580172242642
 31
0.0
  0
LINE
  5
CB
330
1E
100
AcDbEntity
  8
0
100
AcDbLine
 10
47.5913060372729
 20
90.71774578816601
 30
0.0
 11
59.46411693568379
 21
85.1818302025944
 31
0.0
  0
LINE
  5
CC
330
1E
100
AcDbEntity
  8
0
100
AcDbLine
 10
46.624924195699
 20
90.06497773113791
 30
0.0
 11
58.5883672383726
 21
84.48680324796651
 31
0.0
  0
LINE
  5
CD
330
1E
100
AcDbEntity
  8
0
100
AcDbLine
 10
22.7919195296664
 20
91.2473011170489
 30
0.0
 11
32.1270303887224
 21
86.8946346642712
 31
0.0
  0
LINE
  5
CE
330
1E
100
AcDbEntity
  8
0
100
AcDbLine
 10
23.09438770777
 20
90.00290849362391
 30
0.0
 11
32.33886642256329
 21
85.69250093844599
 31
0.0
  0
LINE
  5
CF
330
1E
100
AcDbEntity
  8
0
100
AcDbLine
 10
15.0281268683916
 20
93.7639503800046
 30
0.0
 11
23.09438770777
 21
90.00290849362391
 31
0.0
  0
LINE
  5
D0
330
1E
100
AcDbEntity
  8
0
100
AcDbLine
 10
12.4061389348723
 20
94.9865002875663
 30
0.0
 11
14.15697069773869
 21
94.17014290373371
 31
0.0
  0
LINE
  5
D1
330
1E
100
AcDbEntity
  8
0
100
AcDbLine
 10
36.98734515853939
 20
95.6620368073406
 30
0.0
 11
47.5913060372729
 21
90.71774578816601
 31
0.0
  0
LINE
  5
D2
330
1E
100
AcDbEntity
  8
0
100
AcDbLine
 10
35.9303311727028
 20
95.0515276479123
 30
0.0
 11
46.624924195699
 21
90.06497773113791
 31
0.0
  0
LINE
  5
D3
330
1E
100
AcDbEntity
  8
0
100
AcDbLine
 10
27.74286644374619
 20
99.9724443625185
 30
0.0
 11
36.98734515853939
 21
95.6620368073406
 31
0.0
  0
LINE
  5
D4
330
1E
100
AcDbEntity
  8
0
100
AcDbLine
 10
26.59522031364689
 20
99.40419410069001
 30
0.0
 11
35.9303311727028
 21
95.0515276479123
 31
0.0
  0
LINE
  5
D5
330
1E
100
AcDbEntity
  8
0
100
AcDbLine
 10
14.725658690288
 20
95.00834300342958
 30
0.0
 11
22.7919195296664
 21
91.2473011170489
 31
0.0
  0
LINE
  5
D6
330
1E
100
AcDbEntity
  8
0
100
AcDbLine
 10
14.15697069773869
 20
94.17014290373371
 30
0.0
 11
15.0281268683916
 21
93.7639503800046
 31
0.0
  0
LINE
  5
D7
330
1E
100
AcDbEntity
  8
0
100
AcDbLine
 10
10.5871517995203
 20
95.83463636239391
 30
0.0
 11
11.9369363240244
 21
95.20527460044041
 31
0.0
  0
LINE
  5
D8
330
1E
100
AcDbEntity
  8
0
100
AcDbLine
 10
1.22146919514887
 20
101.304918745797
 30
0.0
 11
4.031065667291909
 21
99.99489292020408
 31
0.0
  0
LINE
  5
D9
330
1E
100
AcDbEntity
  8
0
100
AcDbLine
 10
5.02476997912936
 20
109.461811729438
 30
0.0
 11
7.834366451272409
 21
108.151785903845
 31
0.0
  0
LINE
  5
DA
330
1E
100
AcDbEntity
  8
0
100
AcDbLine
 10
4.031065667291909
 20
99.99489292020408
 30
0.0
 11
8.653305024688529
 21
97.83968914261508
 31
0.0
  0
LINE
  5
DB
330
1E
100
AcDbEntity
  8
0
100
AcDbLine
 10
1.22146919514887
 20
101.304918745797
 30
0.0
 11
4.031065667291909
 21
99.99489292020408
 31
0.0
  0
LINE
  5
DC
330
1E
100
AcDbEntity
  8
0
100
AcDbLine
 10
3.937184247977209
 20
109.968918500636
 30
0.0
 11
5.26609466660183
 21
110.4526509672649
 31
0.0
  0
LINE
  5
DD
330
1E
100
AcDbEntity
  8
0
100
AcDbLine
 10
3.937184247977209
 20
109.968918500636
 30
0.0
 11
5.02476997912936
 21
109.461811729438
 31
0.0
  0
LINE
  5
DE
330
1E
100
AcDbEntity
  8
0
100
AcDbLine
 10
19.6766056043678
 20
103.7334862488989
 30
0.0
 11
27.74286644374619
 21
99.9724443625185
 31
0.0
  0
LINE
  5
DF
330
1E
100
AcDbEntity
  8
0
100
AcDbLine
 10
18.5289594742685
 20
103.1652359870709
 30
0.0
 11
26.59522031364689
 21
99.40419410069001
 31
0.0
  0
LINE
  5
E0
330
1E
100
AcDbEntity
  8
0
100
AcDbLine
 10
13.694884083031
 20
106.5225734904849
 30
0.0
 11
19.6766056043678
 21
103.7334862488989
 31
0.0
  0
LINE
  5
E1
330
1E
100
AcDbEntity
  8
0
100
AcDbLine
 10
9.163276869897028
 20
108.6355183704739
 30
0.0
 11
13.694884083031
 21
106.5225734904849
 31
0.0
  0
LINE
  5
E2
330
1E
100
AcDbEntity
  8
0
100
AcDbLine
 10
12.456605808669
 20
105.996582126256
 30
0.0
 11
18.5289594742685
 21
103.1652359870709
 31
0.0
  0
LINE
  5
E3
330
1E
100
AcDbEntity
  8
0
100
AcDbLine
 10
7.834366451272409
 20
108.151785903845
 30
0.0
 11
12.456605808669
 21
105.996582126256
 31
0.0
  0
LINE
  5
E4
330
1E
100
AcDbEntity
  8
0
100
AcDbLine
 10
6.353680397753979
 20
109.945544196067
 30
0.0
 11
9.163276869897028
 21
108.6355183704739
 31
0.0
  0
LINE
  5
E5
330
1E
100
AcDbEntity
  8
0
100
AcDbLine
 10
5.26609466660183
 20
110.4526509672649
 30
0.0
 11
6.353680397753979
 21
109.945544196067
 31
0.0
  0
LINE
  5
E6
330
1E
100
AcDbEntity
  8
0
100
AcDbLine
 10
1.70520166177782
 20
99.97600832717269
 30
0.0
 11
4.514798133920869
 21
98.6659825015794
 31
0.0
  0
LINE
  5
E7
330
1E
100
AcDbEntity
  8
0
100
AcDbLine
 10
0.617615930625676
 20
100.48311509837
 30
0.0
 11
1.70520166177782
 21
99.97600832717269
 31
0.0
  0
LINE
  5
E8
330
1E
100
AcDbEntity
  8
0
100
AcDbLine
 10
32.33886642256329
 20
85.69250093844599
 30
0.0
 11
33.4514666255319
 21
85.173730711511
 31
0.0
  0
LINE
  5
E9
330
1E
100
AcDbEntity
  8
0
100
AcDbLine
 10
32.33886642256329
 20
85.69250093844599
 30
0.0
 11
42.9428273012967
 21
80.74820991927131
 31
0.0
  0
LINE
  5
EA
330
1E
100
AcDbEntity
  8
0
100
AcDbLine
 10
58.56188467605929
 20
71.2588156960411
 30
0.0
 11
59.4682061186861
 21
70.8362267200433
 31
0.0
  0
LINE
  5
EB
330
1E
100
AcDbEntity
  8
0
100
AcDbLine
 10
58.56188467605929
 20
71.2588156960411
 30
0.0
 11
59.40706262805489
 21
73.07145858129469
 31
0.0
  0
LINE
  5
EC
330
1E
100
AcDbEntity
  8
0
100
AcDbLine
 10
64.6958681997574
 20
68.3987335064878
 30
0.0
 11
66.26561693838699
 21
67.66680940005951
 31
0.0
  0
LINE
  5
ED
330
1E
100
AcDbEntity
  8
0
100
AcDbLine
 10
66.26561693838699
 20
67.66680940005951
 30
0.0
 11
67.11079489038271
 21
69.4794522853131
 31
0.0
  0
LINE
  5
EE
330
1E
100
AcDbEntity
  8
0
100
AcDbLine
 10
65.35929549576021
 20
68.08939837605739
 30
0.0
 11
66.26561693838699
 21
67.66680940005951
 31
0.0
  0
LINE
  5
EF
330
1E
100
AcDbEntity
  8
0
100
AcDbLine
 10
65.35929549576021
 20
68.08939837605739
 30
0.0
 11
66.2044734477559
 21
69.902041261311
 31
0.0
  0
LINE
  5
F0
330
1E
100
AcDbEntity
  8
0
100
AcDbLine
 10
66.6092940294311
 20
67.50656366036121
 30
0.0
 11
67.8910138135938
 21
66.90893833050499
 31
0.0
  0
LINE
  5
F1
330
1E
100
AcDbEntity
  8
0
100
AcDbLine
 10
66.6092940294311
 20
67.50656366036121
 30
0.0
 11
67.4544719814267
 21
69.3192065456147
 31
0.0
  0
LINE
  5
F2
330
1E
100
AcDbEntity
  8
0
100
AcDbLine
 10
65.32757424526829
 20
68.1041889902173
 30
0.0
 11
66.6092940294311
 21
67.50656366036121
 31
0.0
  0
LINE
  5
F3
330
1E
100
AcDbEntity
  8
0
100
AcDbLine
 10
63.15379547187411
 20
71.32447575451969
 30
0.0
 11
64.6347247091263
 21
70.63396536773919
 31
0.0
  0
LINE
  5
F4
330
1E
100
AcDbEntity
  8
0
100
AcDbLine
 10
62.30861751987839
 20
69.5118328692661
 30
0.0
 11
63.15379547187411
 21
71.32447575451969
 31
0.0
  0
LINE
  5
F5
330
1E
100
AcDbEntity
  8
0
100
AcDbLine
 10
62.30861751987839
 20
69.5118328692661
 30
0.0
 11
63.6181613723299
 21
68.90123405784679
 31
0.0
  0
LINE
  5
F6
330
1E
100
AcDbEntity
  8
0
100
AcDbLine
 10
64.4633393243255
 20
70.7138769431004
 30
0.0
 11
64.6347247091263
 21
70.63396536773919
 31
0.0
  0
LINE
  5
F7
330
1E
100
AcDbEntity
  8
0
100
AcDbLine
 10
63.6181613723299
 20
68.90123405784679
 30
0.0
 11
63.7895467571306
 21
68.82132248248559
 31
0.0
  0
LINE
  5
F8
330
1E
100
AcDbEntity
  8
0
100
AcDbLine
 10
63.6181613723299
 20
68.90123405784679
 30
0.0
 11
64.4633393243255
 21
70.7138769431004
 31
0.0
  0
LINE
  5
F9
330
1E
100
AcDbEntity
  8
0
100
AcDbLine
 10
63.7895467571306
 20
68.82132248248559
 30
0.0
 11
64.6347247091263
 21
70.63396536773919
 31
0.0
  0
LINE
  5
FA
330
1E
100
AcDbEntity
  8
0
100
AcDbLine
 10
63.7895467571306
 20
68.82132248248559
 30
0.0
 11
65.35929549576021
 21
68.08939837605739
 31
0.0
  0
LINE
  5
FB
330
1E
100
AcDbEntity
  8
0
100
AcDbLine
 10
63.7895467571306
 20
68.82132248248559
 30
0.0
 11
64.6958681997574
 21
68.3987335064878
 31
0.0
  0
LINE
  5
FC
330
1E
100
AcDbEntity
  8
0
100
AcDbLine
 10
59.4682061186861
 20
70.8362267200433
 30
0.0
 11
60.31338407068171
 21
72.64886960529691
 31
0.0
  0
LINE
  5
FD
330
1E
100
AcDbEntity
  8
0
100
AcDbLine
 10
56.9921359374297
 20
71.9907398024694
 30
0.0
 11
57.8373138894253
 21
73.8033826877229
 31
0.0
  0
LINE
  5
FE
330
1E
100
AcDbEntity
  8
0
100
AcDbLine
 10
56.9921359374297
 20
71.9907398024694
 30
0.0
 11
58.56188467605929
 21
71.2588156960411
 31
0.0
  0
LINE
  5
FF
330
1E
100
AcDbEntity
  8
0
100
AcDbLine
 10
56.1531541779901
 20
72.38193041755049
 30
0.0
 11
56.9963050160658
 21
71.98879589317979
 31
0.0
  0
LINE
  5
100
330
1E
100
AcDbEntity
  8
0
100
AcDbLine
 10
56.1531541779901
 20
72.38193041755049
 30
0.0
 11
56.9921359374297
 21
71.9907398024694
 31
0.0
  0
LINE
  5
101
330
1E
100
AcDbEntity
  8
0
100
AcDbLine
 10
55.7144945997587
 20
72.58646348193349
 30
0.0
 11
56.5596725517544
 21
74.39910636718709
 31
0.0
  0
LINE
  5
102
330
1E
100
AcDbEntity
  8
0
100
AcDbLine
 10
55.7144945997587
 20
72.58646348193349
 30
0.0
 11
56.9963050160658
 21
71.98879589317979
 31
0.0
  0
LINE
  5
103
330
1E
100
AcDbEntity
  8
0
100
AcDbLine
 10
74.94056325863359
 20
63.6219567573987
 30
0.0
 11
76.22228304279629
 21
63.02433142754249
 31
0.0
  0
LINE
  5
104
330
1E
100
AcDbEntity
  8
0
100
AcDbLine
 10
74.94056325863359
 20
63.6219567573987
 30
0.0
 11
75.78574121062921
 21
65.43459964265228
 31
0.0
  0
LINE
  5
105
330
1E
100
AcDbEntity
  8
0
100
AcDbLine
 10
71.4932790194583
 20
65.229316186504
 30
0.0
 11
73.0630277580879
 21
64.4973920800758
 31
0.0
  0
LINE
  5
106
330
1E
100
AcDbEntity
  8
0
100
AcDbLine
 10
72.15670631546109
 20
64.91998105607359
 30
0.0
 11
73.0630277580879
 21
64.4973920800758
 31
0.0
  0
LINE
  5
107
330
1E
100
AcDbEntity
  8
0
100
AcDbLine
 10
72.15670631546109
 20
64.91998105607359
 30
0.0
 11
73.0018842674568
 21
66.7326239413272
 31
0.0
  0
LINE
  5
108
330
1E
100
AcDbEntity
  8
0
100
AcDbLine
 10
73.0630277580879
 20
64.4973920800758
 30
0.0
 11
73.90820571008359
 21
66.31003496532939
 31
0.0
  0
LINE
  5
109
330
1E
100
AcDbEntity
  8
0
100
AcDbLine
 10
68.83295368891591
 20
66.46974160775051
 30
0.0
 11
69.6781316409115
 21
68.2823844930041
 31
0.0
  0
LINE
  5
10A
330
1E
100
AcDbEntity
  8
0
100
AcDbLine
 10
68.83295368891591
 20
66.46974160775051
 30
0.0
 11
70.40279305968979
 21
65.7377752424246
 31
0.0
  0
LINE
  5
10B
330
1E
100
AcDbEntity
  8
0
100
AcDbLine
 10
70.40279305968979
 20
65.7377752424246
 30
0.0
 11
71.24797101168541
 21
67.5504181276782
 31
0.0
  0
LINE
  5
10C
330
1E
100
AcDbEntity
  8
0
100
AcDbLine
 10
69.49647161706299
 20
66.1603642184225
 30
0.0
 11
70.40279305968979
 21
65.7377752424246
 31
0.0
  0
LINE
  5
10D
330
1E
100
AcDbEntity
  8
0
100
AcDbLine
 10
70.58695757683151
 20
65.6519051625019
 30
0.0
 11
71.4932790194583
 21
65.229316186504
 31
0.0
  0
LINE
  5
10E
330
1E
100
AcDbEntity
  8
0
100
AcDbLine
 10
70.58695757683151
 20
65.6519051625019
 30
0.0
 11
71.4321355288272
 21
67.4645480477554
 31
0.0
  0
LINE
  5
10F
330
1E
100
AcDbEntity
  8
0
100
AcDbLine
 10
70.58695757683151
 20
65.6519051625019
 30
0.0
 11
72.15670631546109
 21
64.91998105607359
 31
0.0
  0
LINE
  5
110
330
1E
100
AcDbEntity
  8
0
100
AcDbLine
 10
98.55714285821392
 20
65.85062940646209
 30
0.0
 11
112.6957573631919
 21
59.2582413808959
 31
0.0
  0
LINE
  5
111
330
1E
100
AcDbEntity
  8
0
100
AcDbLine
 10
80.79649185778091
 20
64.2016066531876
 30
0.0
 11
94.75384207423349
 21
57.693736422821
 31
0.0
  0
LINE
  5
112
330
1E
100
AcDbEntity
  8
0
100
AcDbLine
 10
101.426799729304
 20
65.6159606138947
 30
0.0
 11
107.2272569621159
 21
62.9113911675086
 31
0.0
  0
LINE
  5
113
330
1E
100
AcDbEntity
  8
0
100
AcDbLine
 10
67.4544719814267
 20
69.3192065456147
 30
0.0
 11
68.73619176558951
 21
68.72158121575861
 31
0.0
  0
LINE
  5
114
330
1E
100
AcDbEntity
  8
0
100
AcDbLine
 10
67.8910138135938
 20
66.90893833050499
 30
0.0
 11
68.73619176558951
 21
68.72158121575861
 31
0.0
  0
LINE
  5
115
330
1E
100
AcDbEntity
  8
0
100
AcDbLine
 10
67.9266322462891
 20
66.89233058374829
 30
0.0
 11
68.7718101982848
 21
68.7049734690019
 31
0.0
  0
LINE
  5
116
330
1E
100
AcDbEntity
  8
0
100
AcDbLine
 10
67.9266322462891
 20
66.89233058374829
 30
0.0
 11
68.83295368891591
 21
66.46974160775051
 31
0.0
  0
LINE
  5
117
330
1E
100
AcDbEntity
  8
0
100
AcDbLine
 10
84.59979264176141
 20
72.3584996368287
 30
0.0
 11
98.55714285821392
 21
65.85062940646209
 31
0.0
  0
LINE
  5
118
330
1E
100
AcDbEntity
  8
0
100
AcDbLine
 10
67.38293450690441
 20
70.45592349795551
 30
0.0
 11
80.79649185778091
 21
64.2016066531876
 31
0.0
  0
LINE
  5
119
330
1E
100
AcDbEntity
  8
0
100
AcDbLine
 10
67.23224196369461
 20
69.42282536252941
 30
0.0
 11
80.64579931457108
 21
63.16850851776149
 31
0.0
  0
LINE
  5
11A
330
1E
100
AcDbEntity
  8
0
100
AcDbLine
 10
105.382959239862
 20
68.1847739444073
 30
0.0
 11
107.1049699808529
 21
67.38185489001139
 31
0.0
  0
LINE
  5
11B
330
1E
100
AcDbEntity
  8
0
100
AcDbLine
 10
97.4979626890094
 20
71.86129803558841
 30
0.0
 11
103.1171556332949
 21
69.2412463844019
 31
0.0
  0
LINE
  5
11C
330
1E
100
AcDbEntity
  8
0
100
AcDbLine
 10
104.29537350871
 20
68.69188071560471
 30
0.0
 11
105.382959239862
 21
68.1847739444073
 31
0.0
  0
LINE
  5
11D
330
1E
100
AcDbEntity
  8
0
100
AcDbLine
 10
103.9328449316599
 20
68.8609163060038
 30
0.0
 11
104.29537350871
 21
68.69188071560471
 31
0.0
  0
LINE
  5
11E
330
1E
100
AcDbEntity
  8
0
100
AcDbLine
 10
103.9328449316599
 20
68.8609163060038
 30
0.0
 11
110.271679571627
 21
82.4557379454057
 31
0.0
  0
LINE
  5
11F
330
1E
100
AcDbEntity
  8
0
100
AcDbLine
 10
103.1171556332949
 20
69.2412463844019
 30
0.0
 11
107.1049699808529
 21
67.38185489001139
 31
0.0
  0
LINE
  5
120
330
1E
100
AcDbEntity
  8
0
100
AcDbLine
 10
103.1171556332949
 20
69.2412463844019
 30
0.0
 11
108.917612866107
 21
66.5366769380158
 31
0.0
  0
LINE
  5
121
330
1E
100
AcDbEntity
  8
0
100
AcDbLine
 10
95.80760678501802
 20
68.2360122650813
 30
0.0
 11
101.426799729304
 21
65.6159606138947
 31
0.0
  0
LINE
  5
122
330
1E
100
AcDbEntity
  8
0
100
AcDbLine
 10
90.5509424177826
 20
70.68702832586869
 30
0.0
 11
98.97973183421179
 21
66.75695084908889
 31
0.0
  0
LINE
  5
123
330
1E
100
AcDbEntity
  8
0
100
AcDbLine
 10
98.97973183421179
 20
66.75695084908889
 30
0.0
 11
113.1183463391899
 21
60.1645628235227
 31
0.0
  0
LINE
  5
124
330
1E
100
AcDbEntity
  8
0
100
AcDbLine
 10
67.11079489038271
 20
69.4794522853131
 30
0.0
 11
67.23224196369461
 21
69.42282536252941
 31
0.0
  0
LINE
  5
125
330
1E
100
AcDbEntity
  8
0
100
AcDbLine
 10
56.5596725517544
 20
74.39910636718709
 30
0.0
 11
57.8373138894253
 21
73.8033826877229
 31
0.0
  0
LINE
  5
126
330
1E
100
AcDbEntity
  8
0
100
AcDbLine
 10
71.18623529088491
 20
78.6128164815966
 30
0.0
 11
84.59979264176141
 21
72.3584996368287
 31
0.0
  0
LINE
  5
127
330
1E
100
AcDbEntity
  8
0
100
AcDbLine
 10
59.46411693568379
 20
85.1818302025944
 30
0.0
 11
71.88072069967081
 21
79.39236123142409
 31
0.0
  0
LINE
  5
128
330
1E
100
AcDbEntity
  8
0
100
AcDbLine
 10
58.5883672383726
 20
84.48680324796651
 30
0.0
 11
71.18623529088491
 21
78.6128164815966
 31
0.0
  0
LINE
  5
129
330
1E
100
AcDbEntity
  8
0
100
AcDbLine
 10
67.80227420785021
 20
81.29401162341428
 30
0.0
 11
69.49263011184161
 21
84.9192973939215
 31
0.0
  0
LINE
  5
12A
330
1E
100
AcDbEntity
  8
0
100
AcDbLine
 10
73.02728373808609
 20
83.2712003875299
 30
0.0
 11
75.56498377744109
 21
82.08795125473599
 31
0.0
  0
LINE
  5
12B
330
1E
100
AcDbEntity
  8
0
100
AcDbLine
 10
71.12400870856979
 20
84.1586372371254
 30
0.0
 11
73.02728373808609
 21
83.2712003875299
 31
0.0
  0
LINE
  5
12C
330
1E
100
AcDbEntity
  8
0
100
AcDbLine
 10
69.945790833155
 20
84.7080029059226
 30
0.0
 11
71.12400870856979
 21
84.1586372371254
 31
0.0
  0
LINE
  5
12D
330
1E
100
AcDbEntity
  8
0
100
AcDbLine
 10
69.49263011184161
 20
84.9192973939215
 30
0.0
 11
69.945790833155
 21
84.7080029059226
 31
0.0
  0
LINE
  5
12E
330
1E
100
AcDbEntity
  8
0
100
AcDbLine
 10
71.88072069967081
 20
79.39236123142409
 30
0.0
 11
85.29427805054728
 21
73.1380443866562
 31
0.0
  0
LINE
  5
12F
330
1E
100
AcDbEntity
  8
0
100
AcDbLine
 10
85.56617448333529
 20
73.01126769385679
 30
0.0
 11
90.5509424177826
 21
70.68702832586869
 31
0.0
  0
LINE
  5
130
330
1E
100
AcDbEntity
  8
0
100
AcDbLine
 10
78.9183731151602
 20
80.52437204354399
 30
0.0
 11
82.8155553184554
 21
78.7072394467533
 31
0.0
  0
LINE
  5
131
330
1E
100
AcDbEntity
  8
0
100
AcDbLine
 10
75.56498377744109
 20
82.08795125473599
 30
0.0
 11
78.9183731151602
 21
80.52437204354399
 31
0.0
  0
LINE
  5
132
330
1E
100
AcDbEntity
  8
0
100
AcDbLine
 10
87.2565303873266
 20
76.63655346436399
 30
0.0
 11
92.24129832177402
 21
74.31231409637589
 31
0.0
  0
LINE
  5
133
330
1E
100
AcDbEntity
  8
0
100
AcDbLine
 10
92.24129832177402
 20
74.31231409637589
 30
0.0
 11
97.4979626890094
 21
71.86129803558841
 31
0.0
  0
LINE
  5
134
330
1E
100
AcDbEntity
  8
0
100
AcDbLine
 10
82.8155553184554
 20
78.7072394467533
 30
0.0
 11
87.2565303873266
 21
76.63655346436399
 31
0.0
  0
LINE
  5
135
330
1E
100
AcDbEntity
  8
0
100
AcDbLine
 10
85.29427805054728
 20
73.1380443866562
 30
0.0
 11
98.97973183421179
 21
66.75695084908889
 31
0.0
  0
LINE
  5
136
330
1E
100
AcDbEntity
  8
0
100
AcDbLine
 10
73.87462787344971
 20
78.46266548422891
 30
0.0
 11
81.12519941446398
 21
75.0819536762462
 31
0.0
  0
LINE
  5
137
330
1E
100
AcDbEntity
  8
0
100
AcDbLine
 10
60.31338407068171
 20
72.64886960529691
 30
0.0
 11
64.6347247091263
 21
70.63396536773919
 31
0.0
  0
LINE
  5
138
330
1E
100
AcDbEntity
  8
0
100
AcDbLine
 10
54.81563819970761
 20
75.2122943336997
 30
0.0
 11
57.8373138894253
 21
73.8033826877229
 31
0.0
  0
LINE
  5
139
330
1E
100
AcDbEntity
  8
0
100
AcDbLine
 10
54.81563819970761
 20
75.2122943336997
 30
0.0
 11
67.23224196369461
 21
69.42282536252941
 31
0.0
  0
LINE
  5
13A
330
1E
100
AcDbEntity
  8
0
100
AcDbLine
 10
80.64579931457108
 20
63.16850851776149
 30
0.0
 11
81.79138961805142
 21
62.6343560521002
 31
0.0
  0
LINE
  5
13B
330
1E
100
AcDbEntity
  8
0
100
AcDbLine
 10
80.64579931457108
 20
63.16850851776149
 30
0.0
 11
94.33125309823559
 21
56.7874149801942
 31
0.0
  0
LINE
  5
13C
330
1E
100
AcDbEntity
  8
0
100
AcDbLine
 10
108.4698676032139
 20
50.195026954628
 30
0.0
 11
122.6084821081909
 21
43.60263892906179
 31
0.0
  0
LINE
  5
13D
330
1E
100
AcDbEntity
  8
0
100
AcDbLine
 10
108.4698676032139
 20
50.195026954628
 30
0.0
 11
111.816912690834
 21
48.634405866268
 31
0.0
  0
LINE
  5
13E
330
1E
100
AcDbEntity
  8
0
100
AcDbLine
 10
112.722747765994
 20
46.0053210793866
 30
0.0
 11
113.191315951832
 21
45.78684257879579
 31
0.0
  0
LINE
  5
13F
330
1E
100
AcDbEntity
  8
0
100
AcDbLine
 10
119.8011182329089
 20
42.70490117684359
 30
0.0
 11
121.082656752783
 21
42.1073603647826
 31
0.0
  0
LINE
  5
140
330
1E
100
AcDbEntity
  8
0
100
AcDbLine
 10
118.519579713034
 20
43.3024419889045
 30
0.0
 11
119.8011182329089
 21
42.70490117684359
 31
0.0
  0
LINE
  5
141
330
1E
100
AcDbEntity
  8
0
100
AcDbLine
 10
123.148163320529
 20
41.14428008848359
 30
0.0
 11
123.616731506368
 21
40.9258015878927
 31
0.0
  0
LINE
  5
142
330
1E
100
AcDbEntity
  8
0
100
AcDbLine
 10
122.869922637643
 20
41.27401490411489
 30
0.0
 11
123.77624408027
 21
40.8514259281171
 31
0.0
  0
LINE
  5
143
330
1E
100
AcDbEntity
  8
0
100
AcDbLine
 10
122.869922637643
 20
41.27401490411489
 30
0.0
 11
123.148163320529
 21
41.14428008848359
 31
0.0
  0
LINE
  5
144
330
1E
100
AcDbEntity
  8
0
100
AcDbLine
 10
123.747241794106
 20
40.86494877534899
 30
0.0
 11
124.270189266501
 21
40.6211149361982
 31
0.0
  0
LINE
  5
145
330
1E
100
AcDbEntity
  8
0
100
AcDbLine
 10
122.700440527872
 20
41.3530390426265
 30
0.0
 11
123.2786736082679
 21
41.08342727593989
 31
0.0
  0
LINE
  5
146
330
1E
100
AcDbEntity
  8
0
100
AcDbLine
 10
125.751118503754
 20
39.93060454941779
 30
0.0
 11
126.797013448545
 21
39.44293687111629
 31
0.0
  0
LINE
  5
147
330
1E
100
AcDbEntity
  8
0
100
AcDbLine
 10
130.696008294725
 20
37.6249590963736
 30
0.0
 11
130.784827796103
 21
37.58354537672579
 31
0.0
  0
LINE
  5
148
330
1E
100
AcDbEntity
  8
0
100
AcDbLine
 10
130.784827796103
 20
37.58354537672579
 30
0.0
 11
131.0676000862019
 21
37.4516976162145
 31
0.0
  0
LINE
  5
149
330
1E
100
AcDbEntity
  8
0
100
AcDbLine
 10
129.414469774851
 20
38.2224999084345
 30
0.0
 11
130.696008294725
 21
37.6249590963736
 31
0.0
  0
LINE
  5
14A
330
1E
100
AcDbEntity
  8
0
100
AcDbLine
 10
129.497851347573
 20
38.18362172264279
 30
0.0
 11
130.784827796103
 21
37.58354537672579
 31
0.0
  0
LINE
  5
14B
330
1E
100
AcDbEntity
  8
0
100
AcDbLine
 10
130.315353288822
 20
37.8024464662927
 30
0.0
 11
130.784827796103
 21
37.58354537672579
 31
0.0
  0
LINE
  5
14C
330
1E
100
AcDbEntity
  8
0
100
AcDbLine
 10
133.9796108813619
 20
36.09391923633349
 30
0.0
 11
134.30316763638
 21
35.9430549719022
 31
0.0
  0
LINE
  5
14D
330
1E
100
AcDbEntity
  8
0
100
AcDbLine
 10
134.30316763638
 20
35.9430549719022
 30
0.0
 11
134.6430381773649
 21
35.7845841059031
 31
0.0
  0
LINE
  5
14E
330
1E
100
AcDbEntity
  8
0
100
AcDbLine
 10
133.833693129099
 20
36.1619560614691
 30
0.0
 11
134.30316763638
 21
35.9430549719022
 31
0.0
  0
LINE
  5
14F
330
1E
100
AcDbEntity
  8
0
100
AcDbLine
 10
137.7453764754769
 20
34.3380620410625
 30
0.0
 11
139.026914995351
 21
33.7405212290015
 31
0.0
  0
LINE
  5
150
330
1E
100
AcDbEntity
  8
0
100
AcDbLine
 10
136.9586894632769
 20
34.7048692722286
 30
0.0
 11
137.865010905903
 21
34.2822802962308
 31
0.0
  0
LINE
  5
151
330
1E
100
AcDbEntity
  8
0
100
AcDbLine
 10
143.756100282977
 20
31.5354519522448
 30
0.0
 11
144.6624217256039
 21
31.112862976247
 31
0.0
  0
LINE
  5
152
330
1E
100
AcDbEntity
  8
0
100
AcDbLine
 10
151.1616527906809
 20
28.0824774293665
 30
0.0
 11
151.459832545305
 21
27.9434456562633
 31
0.0
  0
LINE
  5
153
330
1E
100
AcDbEntity
  8
0
100
AcDbLine
 10
151.459832545305
 20
27.9434456562633
 30
0.0
 11
151.631127297962
 21
27.8635763397997
 31
0.0
  0
LINE
  5
154
330
1E
100
AcDbEntity
  8
0
100
AcDbLine
 10
151.459832545305
 20
27.9434456562633
 30
0.0
 11
152.940761782557
 21
27.25293526948279
 31
0.0
  0
LINE
  5
155
330
1E
100
AcDbEntity
  8
0
100
AcDbLine
 10
158.252711757793
 20
24.7761412811595
 30
0.0
 11
159.53515659911
 21
24.1781778801226
 31
0.0
  0
LINE
  5
156
330
1E
100
AcDbEntity
  8
0
100
AcDbLine
 10
156.971173237919
 20
25.3736820932204
 30
0.0
 11
158.252711757793
 21
24.7761412811595
 31
0.0
  0
LINE
  5
157
330
1E
100
AcDbEntity
  8
0
100
AcDbLine
 10
157.5267482822489
 20
25.1146350509338
 30
0.0
 11
159.096497020878
 21
24.3827109445055
 31
0.0
  0
LINE
  5
158
330
1E
100
AcDbEntity
  8
0
100
AcDbLine
 10
159.53515659911
 20
24.1781778801226
 30
0.0
 11
160.380334551105
 21
25.99082076537619
 31
0.0
  0
LINE
  5
159
330
1E
100
AcDbEntity
  8
0
100
AcDbLine
 10
164.762818680181
 20
21.7406846665671
 30
0.0
 11
166.535583421959
 21
20.91410062951529
 31
0.0
  0
LINE
  5
15A
330
1E
100
AcDbEntity
  8
0
100
AcDbLine
 10
169.14760181961
 20
19.6961992006896
 30
0.0
 11
169.992779771605
 21
21.5088420859431
 31
0.0
  0
LINE
  5
15B
330
1E
100
AcDbEntity
  8
0
100
AcDbLine
 10
169.299863821971
 20
19.62520425272189
 30
0.0
 11
169.9632911179739
 21
19.3158691222915
 31
0.0
  0
LINE
  5
15C
330
1E
100
AcDbEntity
  8
0
100
AcDbLine
 10
177.8945100624009
 20
15.6177929933345
 30
0.0
 11
178.3177621761069
 21
15.42044394154349
 31
0.0
  0
LINE
  5
15D
330
1E
100
AcDbEntity
  8
0
100
AcDbLine
 10
177.479414841678
 20
15.8113387443415
 30
0.0
 11
178.3245927936729
 21
17.6239816295951
 31
0.0
  0
LINE
  5
15E
330
1E
100
AcDbEntity
  8
0
100
AcDbLine
 10
177.479414841678
 20
15.8113387443415
 30
0.0
 11
178.7609533615519
 21
15.2137979322806
 31
0.0
  0
LINE
  5
15F
330
1E
100
AcDbEntity
  8
0
100
AcDbLine
 10
176.1969700003609
 20
16.4093021453784
 30
0.0
 11
177.479414841678
 21
15.8113387443415
 31
0.0
  0
LINE
  5
160
330
1E
100
AcDbEntity
  8
0
100
AcDbLine
 10
176.1969700003609
 20
16.4093021453784
 30
0.0
 11
177.042147952356
 21
18.22194503063199
 31
0.0
  0
LINE
  5
161
330
1E
100
AcDbEntity
  8
0
100
AcDbLine
 10
180.130405061361
 20
14.5752659895478
 30
0.0
 11
180.975583013357
 21
16.3879088748014
 31
0.0
  0
LINE
  5
162
330
1E
100
AcDbEntity
  8
0
100
AcDbLine
 10
178.3177621761069
 20
15.42044394154349
 30
0.0
 11
180.130405061361
 21
14.5752659895478
 31
0.0
  0
LINE
  5
163
330
1E
100
AcDbEntity
  8
0
100
AcDbLine
 10
178.7609533615519
 20
15.2137979322806
 30
0.0
 11
179.606131313548
 21
17.02644081753409
 31
0.0
  0
LINE
  5
164
330
1E
100
AcDbEntity
  8
0
100
AcDbLine
 10
179.606131313548
 20
17.02644081753409
 30
0.0
 11
180.975583013357
 21
16.3879088748014
 31
0.0
  0
LINE
  5
165
330
1E
100
AcDbEntity
  8
0
100
AcDbLine
 10
178.3245927936729
 20
17.6239816295951
 30
0.0
 11
179.606131313548
 21
17.02644081753409
 31
0.0
  0
LINE
  5
166
330
1E
100
AcDbEntity
  8
0
100
AcDbLine
 10
177.042147952356
 20
18.22194503063199
 30
0.0
 11
178.3245927936729
 21
17.6239816295951
 31
0.0
  0
LINE
  5
167
330
1E
100
AcDbEntity
  8
0
100
AcDbLine
 10
178.739688014396
 20
17.43043587858809
 30
0.0
 11
179.606131313548
 21
17.02644081753409
 31
0.0
  0
LINE
  5
168
330
1E
100
AcDbEntity
  8
0
100
AcDbLine
 10
176.519200479961
 20
18.4657788697827
 30
0.0
 11
178.270213507116
 21
17.64933696815489
 31
0.0
  0
LINE
  5
169
330
1E
100
AcDbEntity
  8
0
100
AcDbLine
 10
175.6740225279649
 20
16.6531359845292
 30
0.0
 11
176.1969700003609
 21
16.4093021453784
 31
0.0
  0
LINE
  5
16A
330
1E
100
AcDbEntity
  8
0
100
AcDbLine
 10
175.6740225279649
 20
16.6531359845292
 30
0.0
 11
176.519200479961
 21
18.4657788697827
 31
0.0
  0
LINE
  5
16B
330
1E
100
AcDbEntity
  8
0
100
AcDbLine
 10
181.0729793616929
 20
14.1357734545101
 30
0.0
 11
181.736406657696
 21
13.82643832407969
 31
0.0
  0
LINE
  5
16C
330
1E
100
AcDbEntity
  8
0
100
AcDbLine
 10
202.4068797996849
 20
4.188451548497109
 30
0.0
 11
203.6884183195589
 21
3.590910736436169
 31
0.0
  0
LINE
  5
16D
330
1E
100
AcDbEntity
  8
0
100
AcDbLine
 10
212.4249370725059
 20
1.72407140767662
 30
0.0
 11
215.234533544649
 21
0.4140455820833251
 31
0.0
  0
LINE
  5
16E
330
1E
100
AcDbEntity
  8
0
100
AcDbLine
 10
212.4249370725059
 20
1.72407140767662
 30
0.0
 11
215.234533544649
 21
0.4140455820833251
 31
0.0
  0
LINE
  5
16F
330
1E
100
AcDbEntity
  8
0
100
AcDbLine
 10
217.651029694426
 20
0.390671277514887
 30
0.0
 11
221.4543304784059
 21
8.547564261155981
 31
0.0
  0
LINE
  5
170
330
1E
100
AcDbEntity
  8
0
100
AcDbLine
 10
217.651029694426
 20
0.390671277514887
 30
0.0
 11
221.4543304784059
 21
8.547564261155981
 31
0.0
  0
LINE
  5
171
330
1E
100
AcDbEntity
  8
0
100
AcDbLine
 10
216.322119275801
 20
-0.0930611891140694
 30
0.0
 11
217.651029694426
 21
0.390671277514887
 31
0.0
  0
LINE
  5
172
330
1E
100
AcDbEntity
  8
0
100
AcDbLine
 10
216.563443963274
 20
0.8977780487122808
 30
0.0
 11
217.651029694426
 21
0.390671277514887
 31
0.0
  0
LINE
  5
173
330
1E
100
AcDbEntity
  8
0
100
AcDbLine
 10
215.234533544649
 20
0.4140455820833251
 30
0.0
 11
216.322119275801
 21
-0.0930611891140694
 31
0.0
  0
LINE
  5
174
330
1E
100
AcDbEntity
  8
0
100
AcDbLine
 10
213.7538474911309
 20
2.207803874305569
 30
0.0
 11
216.563443963274
 21
0.8977780487122808
 31
0.0
  0
LINE
  5
175
330
1E
100
AcDbEntity
  8
0
100
AcDbLine
 10
207.3200483401649
 20
1.897596709612849
 30
0.0
 11
208.16522629216
 21
3.71023959486642
 31
0.0
  0
LINE
  5
176
330
1E
100
AcDbEntity
  8
0
100
AcDbLine
 10
205.5074054549109
 20
2.74277466160851
 30
0.0
 11
207.3200483401649
 21
1.897596709612849
 31
0.0
  0
LINE
  5
177
330
1E
100
AcDbEntity
  8
0
100
AcDbLine
 10
205.5074054549109
 20
2.74277466160851
 30
0.0
 11
206.352583406907
 21
4.555417546862089
 31
0.0
  0
LINE
  5
178
330
1E
100
AcDbEntity
  8
0
100
AcDbLine
 10
207.893329859372
 20
3.837016287665779
 30
0.0
 11
212.4249370725059
 21
1.72407140767662
 31
0.0
  0
LINE
  5
179
330
1E
100
AcDbEntity
  8
0
100
AcDbLine
 10
208.16522629216
 20
3.71023959486642
 30
0.0
 11
212.4249370725059
 21
1.72407140767662
 31
0.0
  0
LINE
  5
17A
330
1E
100
AcDbEntity
  8
0
100
AcDbLine
 10
209.1316081337339
 20
4.36300765189452
 30
0.0
 11
213.7538474911309
 21
2.207803874305569
 31
0.0
  0
LINE
  5
17B
330
1E
100
AcDbEntity
  8
0
100
AcDbLine
 10
207.893329859372
 20
3.837016287665779
 30
0.0
 11
208.16522629216
 21
3.71023959486642
 31
0.0
  0
LINE
  5
17C
330
1E
100
AcDbEntity
  8
0
100
AcDbLine
 10
204.1578928268399
 20
3.372009646869289
 30
0.0
 11
205.003070778835
 21
5.18465253212286
 31
0.0
  0
LINE
  5
17D
330
1E
100
AcDbEntity
  8
0
100
AcDbLine
 10
203.6884183195589
 20
3.590910736436169
 30
0.0
 11
204.533596271555
 21
5.40355362168974
 31
0.0
  0
LINE
  5
17E
330
1E
100
AcDbEntity
  8
0
100
AcDbLine
 10
203.6884183195589
 20
3.590910736436169
 30
0.0
 11
204.1578928268399
 21
3.372009646869289
 31
0.0
  0
LINE
  5
17F
330
1E
100
AcDbEntity
  8
0
100
AcDbLine
 10
192.847001222857
 20
8.64592006732224
 30
0.0
 11
194.416749961487
 21
7.913995960894
 31
0.0
  0
LINE
  5
180
330
1E
100
AcDbEntity
  8
0
100
AcDbLine
 10
201.911608338035
 20
6.626103529251468
 30
0.0
 11
207.893329859372
 21
3.837016287665779
 31
0.0
  0
LINE
  5
181
330
1E
100
AcDbEntity
  8
0
100
AcDbLine
 10
194.416749961487
 20
7.913995960894
 30
0.0
 11
195.261927913483
 21
9.726638846147571
 31
0.0
  0
LINE
  5
182
330
1E
100
AcDbEntity
  8
0
100
AcDbLine
 10
193.51042851886
 20
8.33658493689183
 30
0.0
 11
194.355606470856
 21
10.1492278221454
 31
0.0
  0
LINE
  5
183
330
1E
100
AcDbEntity
  8
0
100
AcDbLine
 10
193.51042851886
 20
8.33658493689183
 30
0.0
 11
194.416749961487
 21
7.913995960894
 31
0.0
  0
LINE
  5
184
330
1E
100
AcDbEntity
  8
0
100
AcDbLine
 10
191.9125838155089
 20
9.081609301575999
 30
0.0
 11
192.757761767505
 21
10.8942521868296
 31
0.0
  0
LINE
  5
185
330
1E
100
AcDbEntity
  8
0
100
AcDbLine
 10
191.940679780231
 20
9.068509043320069
 30
0.0
 11
193.51042851886
 21
8.33658493689183
 31
0.0
  0
LINE
  5
186
330
1E
100
AcDbEntity
  8
0
100
AcDbLine
 10
191.940679780231
 20
9.068509043320069
 30
0.0
 11
192.785857732226
 21
10.8811519285736
 31
0.0
  0
LINE
  5
187
330
1E
100
AcDbEntity
  8
0
100
AcDbLine
 10
220.3667447472539
 20
9.054671032353381
 30
0.0
 11
221.4543304784059
 21
8.547564261155981
 31
0.0
  0
LINE
  5
188
330
1E
100
AcDbEntity
  8
0
100
AcDbLine
 10
203.0592544681349
 20
7.194353791079989
 30
0.0
 11
209.1316081337339
 21
4.36300765189452
 31
0.0
  0
LINE
  5
189
330
1E
100
AcDbEntity
  8
0
100
AcDbLine
 10
202.7825832443999
 20
6.219995523317549
 30
0.0
 11
204.533596271555
 21
5.40355362168974
 31
0.0
  0
LINE
  5
18A
330
1E
100
AcDbEntity
  8
0
100
AcDbLine
 10
201.9374052924039
 20
4.40735263806397
 30
0.0
 11
203.6884183195589
 21
3.590910736436169
 31
0.0
  0
LINE
  5
18B
330
1E
100
AcDbEntity
  8
0
100
AcDbLine
 10
201.9374052924039
 20
4.40735263806397
 30
0.0
 11
202.7825832443999
 21
6.219995523317549
 31
0.0
  0
LINE
  5
18C
330
1E
100
AcDbEntity
  8
0
100
AcDbLine
 10
201.9374052924039
 20
4.40735263806397
 30
0.0
 11
202.4068797996849
 21
4.188451548497109
 31
0.0
  0
LINE
  5
18D
330
1E
100
AcDbEntity
  8
0
100
AcDbLine
 10
191.0262014446199
 20
9.494901320101869
 30
0.0
 11
191.8713793966159
 21
11.30754420535539
 31
0.0
  0
LINE
  5
18E
330
1E
100
AcDbEntity
  8
0
100
AcDbLine
 10
191.8713793966159
 20
11.30754420535539
 30
0.0
 11
192.757761767505
 21
10.8942521868296
 31
0.0
  0
LINE
  5
18F
330
1E
100
AcDbEntity
  8
0
100
AcDbLine
 10
195.261927913483
 20
9.726638846147571
 30
0.0
 11
201.911608338035
 21
6.626103529251468
 31
0.0
  0
LINE
  5
190
330
1E
100
AcDbEntity
  8
0
100
AcDbLine
 10
219.883012280625
 20
10.38358145097799
 30
0.0
 11
220.9705980117779
 21
9.87647467978061
 31
0.0
  0
LINE
  5
191
330
1E
100
AcDbEntity
  8
0
100
AcDbLine
 10
220.9705980117779
 20
9.87647467978061
 30
0.0
 11
221.4543304784059
 21
8.547564261155981
 31
0.0
  0
LINE
  5
192
330
1E
100
AcDbEntity
  8
0
100
AcDbLine
 10
217.557148275111
 20
10.3646968579467
 30
0.0
 11
220.3667447472539
 21
9.054671032353381
 31
0.0
  0
LINE
  5
193
330
1E
100
AcDbEntity
  8
0
100
AcDbLine
 10
217.073415808482
 20
11.6936072765713
 30
0.0
 11
219.883012280625
 21
10.38358145097799
 31
0.0
  0
LINE
  5
194
330
1E
100
AcDbEntity
  8
0
100
AcDbLine
 10
212.934908917715
 20
12.5199006355356
 30
0.0
 11
217.557148275111
 21
10.3646968579467
 31
0.0
  0
LINE
  5
195
330
1E
100
AcDbEntity
  8
0
100
AcDbLine
 10
194.992993628756
 20
10.95539567746069
 30
0.0
 11
203.0592544681349
 21
7.194353791079989
 31
0.0
  0
LINE
  5
196
330
1E
100
AcDbEntity
  8
0
100
AcDbLine
 10
193.845347498657
 20
10.38714541563219
 30
0.0
 11
201.911608338035
 21
6.626103529251468
 31
0.0
  0
LINE
  5
197
330
1E
100
AcDbEntity
  8
0
100
AcDbLine
 10
190.556726937339
 20
9.71380240966876
 30
0.0
 11
191.4019048893349
 21
11.5264452949223
 31
0.0
  0
LINE
  5
198
330
1E
100
AcDbEntity
  8
0
100
AcDbLine
 10
190.556726937339
 20
9.71380240966876
 30
0.0
 11
191.0262014446199
 21
9.494901320101869
 31
0.0
  0
LINE
  5
199
330
1E
100
AcDbEntity
  8
0
100
AcDbLine
 10
188.805713910185
 20
10.5302443112966
 30
0.0
 11
190.556726937339
 21
9.71380240966876
 31
0.0
  0
LINE
  5
19A
330
1E
100
AcDbEntity
  8
0
100
AcDbLine
 10
188.805713910185
 20
10.5302443112966
 30
0.0
 11
189.65089186218
 21
12.3428871965502
 31
0.0
  0
LINE
  5
19B
330
1E
100
AcDbEntity
  8
0
100
AcDbLine
 10
188.805713910185
 20
10.5302443112966
 30
0.0
 11
189.275188417465
 21
10.31134322172969
 31
0.0
  0
LINE
  5
19C
330
1E
100
AcDbEntity
  8
0
100
AcDbLine
 10
212.541808595348
 20
13.8065521565605
 30
0.0
 11
217.073415808482
 21
11.6936072765713
 31
0.0
  0
LINE
  5
19D
330
1E
100
AcDbEntity
  8
0
100
AcDbLine
 10
206.862555252115
 20
15.3512467747211
 30
0.0
 11
212.934908917715
 21
12.5199006355356
 31
0.0
  0
LINE
  5
19E
330
1E
100
AcDbEntity
  8
0
100
AcDbLine
 10
185.6578827697
 20
15.3080621302384
 30
0.0
 11
194.992993628756
 21
10.95539567746069
 31
0.0
  0
LINE
  5
19F
330
1E
100
AcDbEntity
  8
0
100
AcDbLine
 10
184.6008687838639
 20
14.69755297081009
 30
0.0
 11
193.845347498657
 21
10.38714541563219
 31
0.0
  0
LINE
  5
1A0
330
1E
100
AcDbEntity
  8
0
100
AcDbLine
 10
184.6008687838639
 20
14.69755297081009
 30
0.0
 11
191.4019048893349
 21
11.5264452949223
 31
0.0
  0
LINE
  5
1A1
330
1E
100
AcDbEntity
  8
0
100
AcDbLine
 10
182.6427281003219
 20
13.4038493480818
 30
0.0
 11
183.487906052318
 21
15.2164922333354
 31
0.0
  0
LINE
  5
1A2
330
1E
100
AcDbEntity
  8
0
100
AcDbLine
 10
181.736406657696
 20
13.82643832407969
 30
0.0
 11
182.581584609691
 21
15.63908120933319
 31
0.0
  0
LINE
  5
1A3
330
1E
100
AcDbEntity
  8
0
100
AcDbLine
 10
181.736406657696
 20
13.82643832407969
 30
0.0
 11
182.6427281003219
 21
13.4038493480818
 31
0.0
  0
LINE
  5
1A4
330
1E
100
AcDbEntity
  8
0
100
AcDbLine
 10
206.5600870740119
 20
16.5956393981461
 30
0.0
 11
212.541808595348
 21
13.8065521565605
 31
0.0
  0
LINE
  5
1A5
330
1E
100
AcDbEntity
  8
0
100
AcDbLine
 10
181.0118358710619
 20
16.3710053157615
 30
0.0
 11
182.581584609691
 21
15.63908120933319
 31
0.0
  0
LINE
  5
1A6
330
1E
100
AcDbEntity
  8
0
100
AcDbLine
 10
180.166657919066
 20
14.5583624305079
 30
0.0
 11
181.736406657696
 21
13.82643832407969
 31
0.0
  0
LINE
  5
1A7
330
1E
100
AcDbEntity
  8
0
100
AcDbLine
 10
180.166657919066
 20
14.5583624305079
 30
0.0
 11
181.0118358710619
 21
16.3710053157615
 31
0.0
  0
LINE
  5
1A8
330
1E
100
AcDbEntity
  8
0
100
AcDbLine
 10
180.166657919066
 20
14.5583624305079
 30
0.0
 11
181.0729793616929
 21
14.1357734545101
 31
0.0
  0
LINE
  5
1A9
330
1E
100
AcDbEntity
  8
0
100
AcDbLine
 10
198.7962944127369
 20
19.1122886611018
 30
0.0
 11
206.862555252115
 21
15.3512467747211
 31
0.0
  0
LINE
  5
1AA
330
1E
100
AcDbEntity
  8
0
100
AcDbLine
 10
173.99690790513
 20
19.64184398998469
 30
0.0
 11
184.6008687838639
 21
14.69755297081009
 31
0.0
  0
LINE
  5
1AB
330
1E
100
AcDbEntity
  8
0
100
AcDbLine
 10
170.8696125606
 20
18.8932801462937
 30
0.0
 11
171.714790512596
 21
20.7059230315473
 31
0.0
  0
LINE
  5
1AC
330
1E
100
AcDbEntity
  8
0
100
AcDbLine
 10
169.9632911179739
 20
19.3158691222915
 30
0.0
 11
170.808469069969
 21
21.1285120075451
 31
0.0
  0
LINE
  5
1AD
330
1E
100
AcDbEntity
  8
0
100
AcDbLine
 10
169.9632911179739
 20
19.3158691222915
 30
0.0
 11
170.8696125606
 21
18.8932801462937
 31
0.0
  0
LINE
  5
1AE
330
1E
100
AcDbEntity
  8
0
100
AcDbLine
 10
166.535583421959
 20
20.91410062951529
 30
0.0
 11
167.380761373955
 21
22.72674351476889
 31
0.0
  0
LINE
  5
1AF
330
1E
100
AcDbEntity
  8
0
100
AcDbLine
 10
166.584524779861
 20
20.8912808248114
 30
0.0
 11
167.866063299735
 21
20.2937400127505
 31
0.0
  0
LINE
  5
1B0
330
1E
100
AcDbEntity
  8
0
100
AcDbLine
 10
166.584524779861
 20
20.8912808248114
 30
0.0
 11
167.4297027318569
 21
22.70392371006499
 31
0.0
  0
LINE
  5
1B1
330
1E
100
AcDbEntity
  8
0
100
AcDbLine
 10
167.866063299735
 20
20.2937400127505
 30
0.0
 11
168.711241251731
 21
22.1063828980041
 31
0.0
  0
LINE
  5
1B2
330
1E
100
AcDbEntity
  8
0
100
AcDbLine
 10
167.866063299735
 20
20.2937400127505
 30
0.0
 11
169.14760181961
 21
19.6961992006896
 31
0.0
  0
LINE
  5
1B3
330
1E
100
AcDbEntity
  8
0
100
AcDbLine
 10
171.714790512596
 20
20.7059230315473
 30
0.0
 11
173.99690790513
 21
19.64184398998469
 31
0.0
  0
LINE
  5
1B4
330
1E
100
AcDbEntity
  8
0
100
AcDbLine
 10
198.4938262346329
 20
20.3566812845269
 30
0.0
 11
206.5600870740119
 21
16.5956393981461
 31
0.0
  0
LINE
  5
1B5
330
1E
100
AcDbEntity
  8
0
100
AcDbLine
 10
174.9632897467039
 20
20.2946120470128
 30
0.0
 11
185.6578827697
 21
15.3080621302384
 31
0.0
  0
LINE
  5
1B6
330
1E
100
AcDbEntity
  8
0
100
AcDbLine
 10
170.808469069969
 20
21.1285120075451
 30
0.0
 11
171.714790512596
 21
20.7059230315473
 31
0.0
  0
LINE
  5
1B7
330
1E
100
AcDbEntity
  8
0
100
AcDbLine
 10
168.393542379344
 20
20.0477932287198
 30
0.0
 11
169.9632911179739
 21
19.3158691222915
 31
0.0
  0
LINE
  5
1B8
330
1E
100
AcDbEntity
  8
0
100
AcDbLine
 10
164.762818680181
 20
21.7406846665671
 30
0.0
 11
165.607996632177
 21
23.55332755182069
 31
0.0
  0
LINE
  5
1B9
330
1E
100
AcDbEntity
  8
0
100
AcDbLine
 10
167.380761373955
 20
22.72674351476889
 30
0.0
 11
170.808469069969
 21
21.1285120075451
 31
0.0
  0
LINE
  5
1BA
330
1E
100
AcDbEntity
  8
0
100
AcDbLine
 10
189.4611835536809
 20
23.4649551138795
 30
0.0
 11
198.7962944127369
 21
19.1122886611018
 31
0.0
  0
LINE
  5
1BB
330
1E
100
AcDbEntity
  8
0
100
AcDbLine
 10
164.2933441729
 20
21.959585756134
 30
0.0
 11
165.1385221248959
 21
23.7722286413875
 31
0.0
  0
LINE
  5
1BC
330
1E
100
AcDbEntity
  8
0
100
AcDbLine
 10
164.2933441729
 20
21.959585756134
 30
0.0
 11
164.762818680181
 21
21.7406846665671
 31
0.0
  0
LINE
  5
1BD
330
1E
100
AcDbEntity
  8
0
100
AcDbLine
 10
162.5432374671879
 20
22.7756050687858
 30
0.0
 11
164.2933441729
 21
21.959585756134
 31
0.0
  0
LINE
  5
1BE
330
1E
100
AcDbEntity
  8
0
100
AcDbLine
 10
162.5432374671879
 20
22.7756050687858
 30
0.0
 11
163.3884154191839
 21
24.58824795403939
 31
0.0
  0
LINE
  5
1BF
330
1E
100
AcDbEntity
  8
0
100
AcDbLine
 10
162.5432374671879
 20
22.7756050687858
 30
0.0
 11
163.011805653026
 21
22.55712656819489
 31
0.0
  0
LINE
  5
1C0
330
1E
100
AcDbEntity
  8
0
100
AcDbLine
 10
189.2493475198399
 20
24.6670888397048
 30
0.0
 11
198.4938262346329
 21
20.3566812845269
 31
0.0
  0
LINE
  5
1C1
330
1E
100
AcDbEntity
  8
0
100
AcDbLine
 10
162.124097006719
 20
25.1777595755563
 30
0.0
 11
173.99690790513
 21
19.64184398998469
 31
0.0
  0
LINE
  5
1C2
330
1E
100
AcDbEntity
  8
0
100
AcDbLine
 10
162.124097006719
 20
25.1777595755563
 30
0.0
 11
165.1385221248959
 21
23.7722286413875
 31
0.0
  0
LINE
  5
1C3
330
1E
100
AcDbEntity
  8
0
100
AcDbLine
 10
158.257243365006
 20
24.7740283362795
 30
0.0
 11
159.1024213170019
 21
26.5866712215331
 31
0.0
  0
LINE
  5
1C4
330
1E
100
AcDbEntity
  8
0
100
AcDbLine
 10
152.940761782557
 20
27.25293526948279
 30
0.0
 11
153.7859397345529
 21
29.0655781547364
 31
0.0
  0
LINE
  5
1C5
330
1E
100
AcDbEntity
  8
0
100
AcDbLine
 10
151.631127297962
 20
27.8635763397997
 30
0.0
 11
152.476305249957
 21
29.6762192250533
 31
0.0
  0
LINE
  5
1C6
330
1E
100
AcDbEntity
  8
0
100
AcDbLine
 10
162.999846704031
 20
25.87278653018419
 30
0.0
 11
174.9632897467039
 21
20.2946120470128
 31
0.0
  0
LINE
  5
1C7
330
1E
100
AcDbEntity
  8
0
100
AcDbLine
 10
157.5326725783719
 20
27.3185953279613
 30
0.0
 11
159.1024213170019
 21
26.5866712215331
 31
0.0
  0
LINE
  5
1C8
330
1E
100
AcDbEntity
  8
0
100
AcDbLine
 10
178.7665905306849
 20
28.45150503065389
 30
0.0
 11
189.4611835536809
 21
23.4649551138795
 31
0.0
  0
LINE
  5
1C9
330
1E
100
AcDbEntity
  8
0
100
AcDbLine
 10
156.6263511357449
 20
27.74118430395919
 30
0.0
 11
157.5326725783719
 21
27.3185953279613
 31
0.0
  0
LINE
  5
1CA
330
1E
100
AcDbEntity
  8
0
100
AcDbLine
 10
156.6263511357449
 20
27.74118430395919
 30
0.0
 11
158.1960998743749
 21
27.0092601975309
 31
0.0
  0
LINE
  5
1CB
330
1E
100
AcDbEntity
  8
0
100
AcDbLine
 10
156.6263511357449
 20
27.74118430395919
 30
0.0
 11
157.465604791618
 21
27.34986691218519
 31
0.0
  0
LINE
  5
1CC
330
1E
100
AcDbEntity
  8
0
100
AcDbLine
 10
155.78117318375
 20
25.9285414187056
 30
0.0
 11
156.687494626376
 21
25.5059524427078
 31
0.0
  0
LINE
  5
1CD
330
1E
100
AcDbEntity
  8
0
100
AcDbLine
 10
155.78117318375
 20
25.9285414187056
 30
0.0
 11
156.6263511357449
 21
27.74118430395919
 31
0.0
  0
LINE
  5
1CE
330
1E
100
AcDbEntity
  8
0
100
AcDbLine
 10
156.687494626376
 20
25.5059524427078
 30
0.0
 11
157.5326725783719
 21
27.3185953279613
 31
0.0
  0
LINE
  5
1CF
330
1E
100
AcDbEntity
  8
0
100
AcDbLine
 10
156.687494626376
 20
25.5059524427078
 30
0.0
 11
158.257243365006
 21
24.7740283362795
 31
0.0
  0
LINE
  5
1D0
330
1E
100
AcDbEntity
  8
0
100
AcDbLine
 10
151.459832545305
 20
27.9434456562633
 30
0.0
 11
152.305010497301
 21
29.7560885415168
 31
0.0
  0
LINE
  5
1D1
330
1E
100
AcDbEntity
  8
0
100
AcDbLine
 10
145.7527264210839
 20
30.6044884381216
 30
0.0
 11
147.3224751597139
 21
29.87256433169339
 31
0.0
  0
LINE
  5
1D2
330
1E
100
AcDbEntity
  8
0
100
AcDbLine
 10
147.358728017419
 20
29.8556607726535
 30
0.0
 11
148.640266537293
 21
29.2581199605925
 31
0.0
  0
LINE
  5
1D3
330
1E
100
AcDbEntity
  8
0
100
AcDbLine
 10
147.358728017419
 20
29.8556607726535
 30
0.0
 11
148.2039059694149
 21
31.66830365790699
 31
0.0
  0
LINE
  5
1D4
330
1E
100
AcDbEntity
  8
0
100
AcDbLine
 10
148.640266537293
 20
29.2581199605925
 30
0.0
 11
149.4854444892889
 21
31.0707628458461
 31
0.0
  0
LINE
  5
1D5
330
1E
100
AcDbEntity
  8
0
100
AcDbLine
 10
147.3224751597139
 20
29.87256433169339
 30
0.0
 11
148.167653111709
 21
31.68520721694689
 31
0.0
  0
LINE
  5
1D6
330
1E
100
AcDbEntity
  8
0
100
AcDbLine
 10
146.416153717087
 20
30.2951533076912
 30
0.0
 11
147.261331669083
 21
32.10779619294479
 31
0.0
  0
LINE
  5
1D7
330
1E
100
AcDbEntity
  8
0
100
AcDbLine
 10
146.416153717087
 20
30.2951533076912
 30
0.0
 11
147.3224751597139
 21
29.87256433169339
 31
0.0
  0
LINE
  5
1D8
330
1E
100
AcDbEntity
  8
0
100
AcDbLine
 10
144.8464049784569
 20
31.0270774141195
 30
0.0
 11
146.416153717087
 21
30.2951533076912
 31
0.0
  0
LINE
  5
1D9
330
1E
100
AcDbEntity
  8
0
100
AcDbLine
 10
144.8464049784569
 20
31.0270774141195
 30
0.0
 11
145.6915829304529
 21
32.839720299373
 31
0.0
  0
LINE
  5
1DA
330
1E
100
AcDbEntity
  8
0
100
AcDbLine
 10
149.7074932427319
 20
30.9672285467266
 30
0.0
 11
162.124097006719
 21
25.1777595755563
 31
0.0
  0
LINE
  5
1DB
330
1E
100
AcDbEntity
  8
0
100
AcDbLine
 10
178.645386641106
 20
29.6113798588794
 30
0.0
 11
189.2493475198399
 21
24.6670888397048
 31
0.0
  0
LINE
  5
1DC
330
1E
100
AcDbEntity
  8
0
100
AcDbLine
 10
152.476305249957
 20
29.6762192250532
 30
0.0
 11
153.7859397345529
 21
29.0655781547364
 31
0.0
  0
LINE
  5
1DD
330
1E
100
AcDbEntity
  8
0
100
AcDbLine
 10
150.4019786515179
 20
31.7467732965541
 30
0.0
 11
162.999846704031
 21
25.87278653018419
 31
0.0
  0
LINE
  5
1DE
330
1E
100
AcDbEntity
  8
0
100
AcDbLine
 10
148.9837623640489
 20
29.0979587386894
 30
0.0
 11
149.8900838066749
 21
28.6753697626915
 31
0.0
  0
LINE
  5
1DF
330
1E
100
AcDbEntity
  8
0
100
AcDbLine
 10
148.9837623640489
 20
29.0979587386894
 30
0.0
 11
149.8289403160439
 21
30.9106016239429
 31
0.0
  0
LINE
  5
1E0
330
1E
100
AcDbEntity
  8
0
100
AcDbLine
 10
149.8900838066749
 20
28.6753697626915
 30
0.0
 11
150.7352617586709
 21
30.4880126479451
 31
0.0
  0
LINE
  5
1E1
330
1E
100
AcDbEntity
  8
0
100
AcDbLine
 10
149.8900838066749
 20
28.6753697626915
 30
0.0
 11
151.459832545305
 21
27.9434456562633
 31
0.0
  0
LINE
  5
1E2
330
1E
100
AcDbEntity
  8
0
100
AcDbLine
 10
144.6624217256039
 20
31.112862976247
 30
0.0
 11
145.5075996776
 21
32.9255058615006
 31
0.0
  0
LINE
  5
1E3
330
1E
100
AcDbEntity
  8
0
100
AcDbLine
 10
140.3084535152249
 20
33.1429804169406
 30
0.0
 11
141.1536314672209
 21
34.95562330219419
 31
0.0
  0
LINE
  5
1E4
330
1E
100
AcDbEntity
  8
0
100
AcDbLine
 10
139.026914995351
 20
33.7405212290015
 30
0.0
 11
139.872092947346
 21
35.5531641142551
 31
0.0
  0
LINE
  5
1E5
330
1E
100
AcDbEntity
  8
0
100
AcDbLine
 10
139.026914995351
 20
33.7405212290015
 30
0.0
 11
140.3084535152249
 21
33.1429804169406
 31
0.0
  0
LINE
  5
1E6
330
1E
100
AcDbEntity
  8
0
100
AcDbLine
 10
141.1536314672209
 20
34.95562330219419
 30
0.0
 11
144.6012782349729
 21
33.3480948374984
 31
0.0
  0
LINE
  5
1E7
330
1E
100
AcDbEntity
  8
0
100
AcDbLine
 10
145.5075996776
 20
32.9255058615006
 30
0.0
 11
148.2039059694149
 21
31.66830365790699
 31
0.0
  0
LINE
  5
1E8
330
1E
100
AcDbEntity
  8
0
100
AcDbLine
 10
145.6915829304529
 20
32.839720299373
 30
0.0
 11
147.261331669083
 21
32.10779619294479
 31
0.0
  0
LINE
  5
1E9
330
1E
100
AcDbEntity
  8
0
100
AcDbLine
 10
166.803147488011
 20
34.0296795138253
 30
0.0
 11
178.7665905306849
 21
28.45150503065389
 31
0.0
  0
LINE
  5
1EA
330
1E
100
AcDbEntity
  8
0
100
AcDbLine
 10
143.9378509389699
 20
33.6574299679288
 30
0.0
 11
145.5075996776
 21
32.9255058615006
 31
0.0
  0
LINE
  5
1EB
330
1E
100
AcDbEntity
  8
0
100
AcDbLine
 10
142.1863515443479
 20
32.2673760586731
 30
0.0
 11
143.092672986975
 21
31.8447870826753
 31
0.0
  0
LINE
  5
1EC
330
1E
100
AcDbEntity
  8
0
100
AcDbLine
 10
142.1863515443479
 20
32.2673760586731
 30
0.0
 11
143.031529496343
 21
34.0800189439267
 31
0.0
  0
LINE
  5
1ED
330
1E
100
AcDbEntity
  8
0
100
AcDbLine
 10
142.1863515443479
 20
32.2673760586731
 30
0.0
 11
143.756100282977
 21
31.5354519522448
 31
0.0
  0
LINE
  5
1EE
330
1E
100
AcDbEntity
  8
0
100
AcDbLine
 10
143.092672986975
 20
31.8447870826753
 30
0.0
 11
143.9378509389699
 21
33.6574299679288
 31
0.0
  0
LINE
  5
1EF
330
1E
100
AcDbEntity
  8
0
100
AcDbLine
 10
143.092672986975
 20
31.8447870826753
 30
0.0
 11
144.6624217256039
 21
31.112862976247
 31
0.0
  0
LINE
  5
1F0
330
1E
100
AcDbEntity
  8
0
100
AcDbLine
 10
137.865010905903
 20
34.2822802962308
 30
0.0
 11
138.710188857899
 21
36.09492318148429
 31
0.0
  0
LINE
  5
1F1
330
1E
100
AcDbEntity
  8
0
100
AcDbLine
 10
137.865010905903
 20
34.2822802962308
 30
0.0
 11
139.026914995351
 21
33.7405212290015
 31
0.0
  0
LINE
  5
1F2
330
1E
100
AcDbEntity
  8
0
100
AcDbLine
 10
134.6430381773649
 20
35.7845841059031
 30
0.0
 11
135.488216129361
 21
37.5972269911566
 31
0.0
  0
LINE
  5
1F3
330
1E
100
AcDbEntity
  8
0
100
AcDbLine
 10
134.6430381773649
 20
35.7845841059031
 30
0.0
 11
135.549359619992
 21
35.3619951299052
 31
0.0
  0
LINE
  5
1F4
330
1E
100
AcDbEntity
  8
0
100
AcDbLine
 10
166.772575742696
 20
35.14729544445099
 30
0.0
 11
178.645386641106
 21
29.6113798588794
 31
0.0
  0
LINE
  5
1F5
330
1E
100
AcDbEntity
  8
0
100
AcDbLine
 10
138.590554427472
 20
36.1507049263161
 30
0.0
 11
139.872092947346
 21
35.5531641142551
 31
0.0
  0
LINE
  5
1F6
330
1E
100
AcDbEntity
  8
0
100
AcDbLine
 10
135.549359619992
 20
35.3619951299052
 30
0.0
 11
136.2952621672739
 21
35.014204402659
 31
0.0
  0
LINE
  5
1F7
330
1E
100
AcDbEntity
  8
0
100
AcDbLine
 10
135.388940724647
 20
35.43679337865679
 30
0.0
 11
136.2952621672739
 21
35.014204402659
 31
0.0
  0
LINE
  5
1F8
330
1E
100
AcDbEntity
  8
0
100
AcDbLine
 10
135.388940724647
 20
35.43679337865679
 30
0.0
 11
136.234118676643
 21
37.2494362639104
 31
0.0
  0
LINE
  5
1F9
330
1E
100
AcDbEntity
  8
0
100
AcDbLine
 10
135.388940724647
 20
35.43679337865679
 30
0.0
 11
136.2952621672739
 21
35.014204402659
 31
0.0
  0
LINE
  5
1FA
330
1E
100
AcDbEntity
  8
0
100
AcDbLine
 10
136.2952621672739
 20
35.014204402659
 30
0.0
 11
137.140440119269
 21
36.8268472879126
 31
0.0
  0
LINE
  5
1FB
330
1E
100
AcDbEntity
  8
0
100
AcDbLine
 10
136.2952621672739
 20
35.014204402659
 30
0.0
 11
137.865010905903
 21
34.2822802962308
 31
0.0
  0
LINE
  5
1FC
330
1E
100
AcDbEntity
  8
0
100
AcDbLine
 10
134.30316763638
 20
35.9430549719022
 30
0.0
 11
135.148345588376
 21
37.75569785715579
 31
0.0
  0
LINE
  5
1FD
330
1E
100
AcDbEntity
  8
0
100
AcDbLine
 10
131.0676000862019
 20
37.4516976162145
 30
0.0
 11
131.9127780381979
 21
39.26434050146809
 31
0.0
  0
LINE
  5
1FE
330
1E
100
AcDbEntity
  8
0
100
AcDbLine
 10
136.2939358918559
 20
37.2215453914946
 30
0.0
 11
149.7074932427319
 21
30.9672285467266
 31
0.0
  0
LINE
  5
1FF
330
1E
100
AcDbEntity
  8
0
100
AcDbLine
 10
137.140440119269
 20
36.8268472879126
 30
0.0
 11
138.710188857899
 21
36.09492318148429
 31
0.0
  0
LINE
  5
200
330
1E
100
AcDbEntity
  8
0
100
AcDbLine
 10
137.140440119269
 20
36.8268472879126
 30
0.0
 11
138.378475209898
 21
36.2495907466995
 31
0.0
  0
LINE
  5
201
330
1E
100
AcDbEntity
  8
0
100
AcDbLine
 10
136.234118676643
 20
37.2494362639104
 30
0.0
 11
136.2939358918559
 21
37.2215453914946
 31
0.0
  0
LINE
  5
202
330
1E
100
AcDbEntity
  8
0
100
AcDbLine
 10
136.9884213006419
 20
38.00109014132199
 30
0.0
 11
150.4019786515179
 21
31.7467732965541
 31
0.0
  0
LINE
  5
203
330
1E
100
AcDbEntity
  8
0
100
AcDbLine
 10
134.6788710810949
 20
37.9745989467227
 30
0.0
 11
135.488216129361
 21
37.5972269911566
 31
0.0
  0
LINE
  5
204
330
1E
100
AcDbEntity
  8
0
100
AcDbLine
 10
132.083586423387
 20
36.97797537412089
 30
0.0
 11
132.552154609225
 21
36.7594968735301
 31
0.0
  0
LINE
  5
205
330
1E
100
AcDbEntity
  8
0
100
AcDbLine
 10
132.083586423387
 20
36.97797537412089
 30
0.0
 11
132.9287643753829
 21
38.7906182593745
 31
0.0
  0
LINE
  5
206
330
1E
100
AcDbEntity
  8
0
100
AcDbLine
 10
132.552154609225
 20
36.7594968735301
 30
0.0
 11
133.397332561221
 21
38.5721397587836
 31
0.0
  0
LINE
  5
207
330
1E
100
AcDbEntity
  8
0
100
AcDbLine
 10
132.552154609225
 20
36.7594968735301
 30
0.0
 11
134.30316763638
 21
35.9430549719022
 31
0.0
  0
LINE
  5
208
330
1E
100
AcDbEntity
  8
0
100
AcDbLine
 10
130.784827796103
 20
37.58354537672579
 30
0.0
 11
131.630005748098
 21
39.39618826197939
 31
0.0
  0
LINE
  5
209
330
1E
100
AcDbEntity
  8
0
100
AcDbLine
 10
128.1320249335339
 20
38.82046330947149
 30
0.0
 11
128.97720288553
 21
40.6331061947251
 31
0.0
  0
LINE
  5
20A
330
1E
100
AcDbEntity
  8
0
100
AcDbLine
 10
128.591529904946
 20
38.6062106986406
 30
0.0
 11
129.497851347573
 21
38.18362172264279
 31
0.0
  0
LINE
  5
20B
330
1E
100
AcDbEntity
  8
0
100
AcDbLine
 10
158.434418470529
 20
39.0351140236311
 30
0.0
 11
160.1247743745199
 21
42.6603997941382
 31
0.0
  0
LINE
  5
20C
330
1E
100
AcDbEntity
  8
0
100
AcDbLine
 10
157.981257749216
 20
39.24640851163
 30
0.0
 11
158.434418470529
 21
39.0351140236311
 31
0.0
  0
LINE
  5
20D
330
1E
100
AcDbEntity
  8
0
100
AcDbLine
 10
154.2052794354989
 20
39.9036662801952
 30
0.0
 11
166.803147488011
 21
34.0296795138253
 31
0.0
  0
LINE
  5
20E
330
1E
100
AcDbEntity
  8
0
100
AcDbLine
 10
132.9287643753829
 20
38.7906182593745
 30
0.0
 11
133.397332561221
 21
38.5721397587836
 31
0.0
  0
LINE
  5
20F
330
1E
100
AcDbEntity
  8
0
100
AcDbLine
 10
128.564340261667
 20
38.61888836792049
 30
0.0
 11
129.0338147689479
 21
38.39998727835359
 31
0.0
  0
LINE
  5
210
330
1E
100
AcDbEntity
  8
0
100
AcDbLine
 10
128.564340261667
 20
38.61888836792049
 30
0.0
 11
129.4095182136629
 21
40.4315312531741
 31
0.0
  0
LINE
  5
211
330
1E
100
AcDbEntity
  8
0
100
AcDbLine
 10
128.564340261667
 20
38.61888836792049
 30
0.0
 11
130.315353288822
 21
37.8024464662927
 31
0.0
  0
LINE
  5
212
330
1E
100
AcDbEntity
  8
0
100
AcDbLine
 10
129.0338147689479
 20
38.39998727835359
 30
0.0
 11
129.878992720944
 21
40.2126301636072
 31
0.0
  0
LINE
  5
213
330
1E
100
AcDbEntity
  8
0
100
AcDbLine
 10
129.0338147689479
 20
38.39998727835359
 30
0.0
 11
130.784827796103
 21
37.58354537672579
 31
0.0
  0
LINE
  5
214
330
1E
100
AcDbEntity
  8
0
100
AcDbLine
 10
127.2655816343829
 20
39.22445837052539
 30
0.0
 11
128.110759586379
 21
41.037101255779
 31
0.0
  0
LINE
  5
215
330
1E
100
AcDbEntity
  8
0
100
AcDbLine
 10
124.899176347684
 20
40.3278381868558
 30
0.0
 11
125.74435429968
 21
42.14048107210929
 31
0.0
  0
LINE
  5
216
330
1E
100
AcDbEntity
  8
0
100
AcDbLine
 10
124.899176347684
 20
40.3278381868558
 30
0.0
 11
125.04600042139
 21
40.2593787727441
 31
0.0
  0
LINE
  5
217
330
1E
100
AcDbEntity
  8
0
100
AcDbLine
 10
123.77624408027
 20
40.8514259281171
 30
0.0
 11
125.367744533523
 21
40.1093596862649
 31
0.0
  0
LINE
  5
218
330
1E
100
AcDbEntity
  8
0
100
AcDbLine
 10
123.77624408027
 20
40.8514259281171
 30
0.0
 11
123.9384756184999
 21
40.77578250141349
 31
0.0
  0
LINE
  5
219
330
1E
100
AcDbEntity
  8
0
100
AcDbLine
 10
123.9384756184999
 20
40.77578250141349
 30
0.0
 11
125.751118503754
 21
39.93060454941779
 31
0.0
  0
LINE
  5
21A
330
1E
100
AcDbEntity
  8
0
100
AcDbLine
 10
123.77624408027
 20
40.8514259281171
 30
0.0
 11
124.899176347684
 21
40.3278381868558
 31
0.0
  0
LINE
  5
21B
330
1E
100
AcDbEntity
  8
0
100
AcDbLine
 10
124.270189266501
 20
40.6211149361982
 30
0.0
 11
125.115367218497
 21
42.4337578214518
 31
0.0
  0
LINE
  5
21C
330
1E
100
AcDbEntity
  8
0
100
AcDbLine
 10
154.355971978709
 20
40.9367644156213
 30
0.0
 11
166.772575742696
 21
35.14729544445099
 31
0.0
  0
LINE
  5
21D
330
1E
100
AcDbEntity
  8
0
100
AcDbLine
 10
129.878992720944
 20
40.2126301636072
 30
0.0
 11
131.630005748098
 21
39.39618826197939
 31
0.0
  0
LINE
  5
21E
330
1E
100
AcDbEntity
  8
0
100
AcDbLine
 10
125.04600042139
 20
40.2593787727441
 30
0.0
 11
125.5154749286709
 21
40.0404776831772
 31
0.0
  0
LINE
  5
21F
330
1E
100
AcDbEntity
  8
0
100
AcDbLine
 10
125.04600042139
 20
40.2593787727441
 30
0.0
 11
125.8911783733859
 21
42.0720216579977
 31
0.0
  0
LINE
  5
220
330
1E
100
AcDbEntity
  8
0
100
AcDbLine
 10
125.04600042139
 20
40.2593787727441
 30
0.0
 11
126.797013448545
 21
39.44293687111629
 31
0.0
  0
LINE
  5
221
330
1E
100
AcDbEntity
  8
0
100
AcDbLine
 10
125.5154749286709
 20
40.0404776831772
 30
0.0
 11
126.360652880666
 21
41.8531205684308
 31
0.0
  0
LINE
  5
222
330
1E
100
AcDbEntity
  8
0
100
AcDbLine
 10
125.5154749286709
 20
40.0404776831772
 30
0.0
 11
127.2655816343829
 21
39.22445837052539
 31
0.0
  0
LINE
  5
223
330
1E
100
AcDbEntity
  8
0
100
AcDbLine
 10
123.747241794106
 20
40.86494877534899
 30
0.0
 11
124.592419746101
 21
42.6775916606026
 31
0.0
  0
LINE
  5
224
330
1E
100
AcDbEntity
  8
0
100
AcDbLine
 10
121.082656752783
 20
42.1073603647826
 30
0.0
 11
121.927834704779
 21
43.9200032500362
 31
0.0
  0
LINE
  5
225
330
1E
100
AcDbEntity
  8
0
100
AcDbLine
 10
121.2992675775709
 20
42.0063615995191
 30
0.0
 11
122.144445529567
 21
43.8190044847727
 31
0.0
  0
LINE
  5
226
330
1E
100
AcDbEntity
  8
0
100
AcDbLine
 10
125.74435429968
 20
42.14048107210929
 30
0.0
 11
125.8911783733859
 21
42.0720216579977
 31
0.0
  0
LINE
  5
227
330
1E
100
AcDbEntity
  8
0
100
AcDbLine
 10
159.671613653207
 20
42.87169428213711
 30
0.0
 11
160.1247743745199
 21
42.6603997941382
 31
0.0
  0
LINE
  5
228
330
1E
100
AcDbEntity
  8
0
100
AcDbLine
 10
125.8911783733859
 20
42.0720216579977
 30
0.0
 11
127.642191400541
 21
41.25557975636989
 31
0.0
  0
LINE
  5
229
330
1E
100
AcDbEntity
  8
0
100
AcDbLine
 10
126.360652880666
 20
41.8531205684308
 30
0.0
 11
128.110759586379
 21
41.037101255779
 31
0.0
  0
LINE
  5
22A
330
1E
100
AcDbEntity
  8
0
100
AcDbLine
 10
121.5276605811129
 20
41.8998691775677
 30
0.0
 11
121.9962287669509
 21
41.68139067697679
 31
0.0
  0
LINE
  5
22B
330
1E
100
AcDbEntity
  8
0
100
AcDbLine
 10
121.5276605811129
 20
41.8998691775677
 30
0.0
 11
122.372838533108
 21
43.71251206282129
 31
0.0
  0
LINE
  5
22C
330
1E
100
AcDbEntity
  8
0
100
AcDbLine
 10
121.5276605811129
 20
41.8998691775677
 30
0.0
 11
121.9962287669509
 21
41.68139067697679
 31
0.0
  0
LINE
  5
22D
330
1E
100
AcDbEntity
  8
0
100
AcDbLine
 10
121.5276605811129
 20
41.8998691775677
 30
0.0
 11
121.794119085245
 21
41.77562801862429
 31
0.0
  0
LINE
  5
22E
330
1E
100
AcDbEntity
  8
0
100
AcDbLine
 10
121.9962287669509
 20
41.68139067697679
 30
0.0
 11
122.8414067189469
 21
43.4940335622304
 31
0.0
  0
LINE
  5
22F
330
1E
100
AcDbEntity
  8
0
100
AcDbLine
 10
121.9962287669509
 20
41.68139067697679
 30
0.0
 11
123.747241794106
 21
40.86494877534899
 31
0.0
  0
LINE
  5
230
330
1E
100
AcDbEntity
  8
0
100
AcDbLine
 10
121.9962287669509
 20
41.68139067697679
 30
0.0
 11
122.869922637643
 21
41.27401490411489
 31
0.0
  0
LINE
  5
231
330
1E
100
AcDbEntity
  8
0
100
AcDbLine
 10
120.228901953829
 20
42.50543918017259
 30
0.0
 11
121.0740799058239
 21
44.3180820654262
 31
0.0
  0
LINE
  5
232
330
1E
100
AcDbEntity
  8
0
100
AcDbLine
 10
117.4727784468009
 20
43.790532256182
 30
0.0
 11
118.317956398796
 21
45.60317514143561
 31
0.0
  0
LINE
  5
233
330
1E
100
AcDbEntity
  8
0
100
AcDbLine
 10
158.493395777792
 20
43.42105995093429
 30
0.0
 11
159.671613653207
 21
42.87169428213711
 31
0.0
  0
LINE
  5
234
330
1E
100
AcDbEntity
  8
0
100
AcDbLine
 10
149.0086754672099
 20
43.4300393740085
 30
0.0
 11
152.36206480493
 21
41.8664601628165
 31
0.0
  0
LINE
  5
235
330
1E
100
AcDbEntity
  8
0
100
AcDbLine
 10
121.927834704779
 20
43.9200032500362
 30
0.0
 11
122.144445529567
 21
43.8190044847727
 31
0.0
  0
LINE
  5
236
330
1E
100
AcDbEntity
  8
0
100
AcDbLine
 10
156.590120748276
 20
44.30849680052979
 30
0.0
 11
158.493395777792
 21
43.42105995093429
 31
0.0
  0
LINE
  5
237
330
1E
100
AcDbEntity
  8
0
100
AcDbLine
 10
123.031071084189
 20
44.5089603716886
 30
0.0
 11
136.9884213006419
 21
38.00109014132199
 31
0.0
  0
LINE
  5
238
330
1E
100
AcDbEntity
  8
0
100
AcDbLine
 10
122.6084821081909
 20
43.60263892906179
 30
0.0
 11
136.2939358918559
 21
37.2215453914946
 31
0.0
  0
LINE
  5
239
330
1E
100
AcDbEntity
  8
0
100
AcDbLine
 10
121.0740799058239
 20
44.3180820654262
 30
0.0
 11
121.927834704779
 21
43.9200032500362
 31
0.0
  0
LINE
  5
23A
330
1E
100
AcDbEntity
  8
0
100
AcDbLine
 10
122.8414067189469
 20
43.4940335622304
 30
0.0
 11
124.592419746101
 21
42.6775916606026
 31
0.0
  0
LINE
  5
23B
330
1E
100
AcDbEntity
  8
0
100
AcDbLine
 10
118.008414419393
 20
43.54078217136729
 30
0.0
 11
118.4778889266739
 21
43.32188108180039
 31
0.0
  0
LINE
  5
23C
330
1E
100
AcDbEntity
  8
0
100
AcDbLine
 10
118.008414419393
 20
43.54078217136729
 30
0.0
 11
118.853592371389
 21
45.3534250566208
 31
0.0
  0
LINE
  5
23D
330
1E
100
AcDbEntity
  8
0
100
AcDbLine
 10
118.4778889266739
 20
43.32188108180039
 30
0.0
 11
119.323066878669
 21
45.134523967054
 31
0.0
  0
LINE
  5
23E
330
1E
100
AcDbEntity
  8
0
100
AcDbLine
 10
118.4778889266739
 20
43.32188108180039
 30
0.0
 11
120.228901953829
 21
42.50543918017259
 31
0.0
  0
LINE
  5
23F
330
1E
100
AcDbEntity
  8
0
100
AcDbLine
 10
116.710562113551
 20
44.1459295849962
 30
0.0
 11
117.555740065547
 21
45.95857247024969
 31
0.0
  0
LINE
  5
240
330
1E
100
AcDbEntity
  8
0
100
AcDbLine
 10
116.710562113551
 20
44.1459295849962
 30
0.0
 11
117.4727784468009
 21
43.790532256182
 31
0.0
  0
LINE
  5
241
330
1E
100
AcDbEntity
  8
0
100
AcDbLine
 10
118.317956398796
 20
45.60317514143561
 30
0.0
 11
118.853592371389
 21
45.3534250566208
 31
0.0
  0
LINE
  5
242
330
1E
100
AcDbEntity
  8
0
100
AcDbLine
 10
154.052420708921
 20
45.4917459333237
 30
0.0
 11
156.590120748276
 21
44.30849680052979
 31
0.0
  0
LINE
  5
243
330
1E
100
AcDbEntity
  8
0
100
AcDbLine
 10
140.791722084622
 20
46.1579831249631
 30
0.0
 11
154.2052794354989
 21
39.9036662801952
 31
0.0
  0
LINE
  5
244
330
1E
100
AcDbEntity
  8
0
100
AcDbLine
 10
114.4900745791159
 20
45.1812725761909
 30
0.0
 11
114.959549086396
 21
44.962371486624
 31
0.0
  0
LINE
  5
245
330
1E
100
AcDbEntity
  8
0
100
AcDbLine
 10
114.4900745791159
 20
45.1812725761909
 30
0.0
 11
115.3352525311109
 21
46.99391546144439
 31
0.0
  0
LINE
  5
246
330
1E
100
AcDbEntity
  8
0
100
AcDbLine
 10
114.4900745791159
 20
45.1812725761909
 30
0.0
 11
116.2410876062709
 21
44.364830674563
 31
0.0
  0
LINE
  5
247
330
1E
100
AcDbEntity
  8
0
100
AcDbLine
 10
114.959549086396
 20
44.962371486624
 30
0.0
 11
115.8047270383919
 21
46.7750143718776
 31
0.0
  0
LINE
  5
248
330
1E
100
AcDbEntity
  8
0
100
AcDbLine
 10
114.959549086396
 20
44.962371486624
 30
0.0
 11
116.710562113551
 21
44.1459295849962
 31
0.0
  0
LINE
  5
249
330
1E
100
AcDbEntity
  8
0
100
AcDbLine
 10
113.191315951832
 20
45.78684257879579
 30
0.0
 11
114.0364939038269
 21
47.5994854640493
 31
0.0
  0
LINE
  5
24A
330
1E
100
AcDbEntity
  8
0
100
AcDbLine
 10
109.3761890458399
 20
49.7724379786302
 30
0.0
 11
111.816912690834
 21
48.634405866268
 31
0.0
  0
LINE
  5
24B
330
1E
100
AcDbEntity
  8
0
100
AcDbLine
 10
114.0364939038269
 20
47.5994854640493
 30
0.0
 11
115.3352525311109
 21
46.99391546144439
 31
0.0
  0
LINE
  5
24C
330
1E
100
AcDbEntity
  8
0
100
AcDbLine
 10
146.801849167907
 20
48.87245774130629
 30
0.0
 11
150.6990313712019
 21
47.0553251445157
 31
0.0
  0
LINE
  5
24D
330
1E
100
AcDbEntity
  8
0
100
AcDbLine
 10
150.6990313712019
 20
47.0553251445157
 30
0.0
 11
154.052420708921
 21
45.4917459333237
 31
0.0
  0
LINE
  5
24E
330
1E
100
AcDbEntity
  8
0
100
AcDbLine
 10
140.9424146278319
 20
47.1910812603892
 30
0.0
 11
154.355971978709
 21
40.9367644156213
 31
0.0
  0
LINE
  5
24F
330
1E
100
AcDbEntity
  8
0
100
AcDbLine
 10
115.3352525311109
 20
46.99391546144439
 30
0.0
 11
115.8047270383919
 21
46.7750143718776
 31
0.0
  0
LINE
  5
250
330
1E
100
AcDbEntity
  8
0
100
AcDbLine
 10
110.971734738839
 20
46.82176298101439
 30
0.0
 11
111.4403029246769
 21
46.6032844804236
 31
0.0
  0
LINE
  5
251
330
1E
100
AcDbEntity
  8
0
100
AcDbLine
 10
110.971734738839
 20
46.82176298101439
 30
0.0
 11
111.816912690834
 21
48.634405866268
 31
0.0
  0
LINE
  5
252
330
1E
100
AcDbEntity
  8
0
100
AcDbLine
 10
110.971734738839
 20
46.82176298101439
 30
0.0
 11
112.722747765994
 21
46.0053210793866
 31
0.0
  0
LINE
  5
253
330
1E
100
AcDbEntity
  8
0
100
AcDbLine
 10
111.4403029246769
 20
46.6032844804236
 30
0.0
 11
112.285480876672
 21
48.4159273656771
 31
0.0
  0
LINE
  5
254
330
1E
100
AcDbEntity
  8
0
100
AcDbLine
 10
111.4403029246769
 20
46.6032844804236
 30
0.0
 11
113.191315951832
 21
45.78684257879579
 31
0.0
  0
LINE
  5
255
330
1E
100
AcDbEntity
  8
0
100
AcDbLine
 10
108.531011093845
 20
47.9597950933766
 30
0.0
 11
109.3761890458399
 21
49.7724379786302
 31
0.0
  0
LINE
  5
256
330
1E
100
AcDbEntity
  8
0
100
AcDbLine
 10
107.1049699808529
 20
67.38185489001139
 30
0.0
 11
108.917612866107
 21
66.5366769380157
 31
0.0
  0
LINE
  5
257
330
1E
100
AcDbEntity
  8
0
100
AcDbLine
 10
125.6845595547019
 20
58.7187808820559
 30
0.0
 11
132.0233941946699
 21
72.31360252145769
 31
0.0
  0
LINE
  5
258
330
1E
100
AcDbEntity
  8
0
100
AcDbLine
 10
125.6845595547019
 20
58.7187808820559
 30
0.0
 11
132.0233941946699
 21
72.31360252145769
 31
0.0
  0
LINE
  5
259
330
1E
100
AcDbEntity
  8
0
100
AcDbLine
 10
126.5002488530669
 20
58.33845080365779
 30
0.0
 11
132.1194417973529
 21
55.7183991524712
 31
0.0
  0
LINE
  5
25A
330
1E
100
AcDbEntity
  8
0
100
AcDbLine
 10
142.3608740990349
 20
50.9431437236957
 30
0.0
 11
146.801849167907
 21
48.87245774130629
 31
0.0
  0
LINE
  5
25B
330
1E
100
AcDbEntity
  8
0
100
AcDbLine
 10
137.3761061645879
 20
53.2673830916838
 30
0.0
 11
142.3608740990349
 21
50.9431437236957
 31
0.0
  0
LINE
  5
25C
330
1E
100
AcDbEntity
  8
0
100
AcDbLine
 10
132.1194417973529
 20
55.7183991524712
 30
0.0
 11
137.3761061645879
 21
53.2673830916838
 31
0.0
  0
LINE
  5
25D
330
1E
100
AcDbEntity
  8
0
100
AcDbLine
 10
127.2569608441679
 20
53.57217479795649
 30
0.0
 11
140.9424146278319
 21
47.1910812603892
 31
0.0
  0
LINE
  5
25E
330
1E
100
AcDbEntity
  8
0
100
AcDbLine
 10
127.2569608441679
 20
53.57217479795649
 30
0.0
 11
130.4290858933609
 21
52.0931133819641
 31
0.0
  0
LINE
  5
25F
330
1E
100
AcDbEntity
  8
0
100
AcDbLine
 10
126.8343718681699
 20
52.6658533553297
 30
0.0
 11
140.791722084622
 21
46.1579831249631
 31
0.0
  0
LINE
  5
260
330
1E
100
AcDbEntity
  8
0
100
AcDbLine
 10
111.9991057710379
 20
65.09987441962309
 30
0.0
 11
114.808702243181
 21
63.78984859402979
 31
0.0
  0
LINE
  5
261
330
1E
100
AcDbEntity
  8
0
100
AcDbLine
 10
124.2344452465
 20
59.39492324365239
 30
0.0
 11
125.3220309776519
 21
58.88781647245499
 31
0.0
  0
LINE
  5
262
330
1E
100
AcDbEntity
  8
0
100
AcDbLine
 10
122.5124345055089
 20
60.19784229804829
 30
0.0
 11
124.2344452465
 21
59.39492324365239
 31
0.0
  0
LINE
  5
263
330
1E
100
AcDbEntity
  8
0
100
AcDbLine
 10
120.6997916202549
 20
61.0430202500439
 30
0.0
 11
126.5002488530669
 21
58.33845080365779
 31
0.0
  0
LINE
  5
264
330
1E
100
AcDbEntity
  8
0
100
AcDbLine
 10
114.808702243181
 20
63.78984859402979
 30
0.0
 11
120.6997916202549
 21
61.0430202500439
 31
0.0
  0
LINE
  5
265
330
1E
100
AcDbEntity
  8
0
100
AcDbLine
 10
114.808702243181
 20
63.78984859402979
 30
0.0
 11
117.618298715324
 21
62.47982276843661
 31
0.0
  0
LINE
  5
266
330
1E
100
AcDbEntity
  8
0
100
AcDbLine
 10
113.1183463391899
 20
60.1645628235227
 30
0.0
 11
127.2569608441679
 21
53.57217479795649
 31
0.0
  0
LINE
  5
267
330
1E
100
AcDbEntity
  8
0
100
AcDbLine
 10
112.6957573631919
 20
59.2582413808959
 30
0.0
 11
126.8343718681699
 21
52.6658533553297
 31
0.0
  0
LINE
  5
268
330
1E
100
AcDbEntity
  8
0
100
AcDbLine
 10
108.892456579211
 20
51.1013483972548
 30
0.0
 11
123.031071084189
 21
44.5089603716886
 31
0.0
  0
LINE
  5
269
330
1E
100
AcDbEntity
  8
0
100
AcDbLine
 10
112.960072154192
 20
82.30558694803791
 30
0.0
 11
114.500818606657
 21
81.58718568884159
 31
0.0
  0
LINE
  5
26A
330
1E
100
AcDbEntity
  8
0
100
AcDbLine
 10
110.6342081486779
 20
82.28670235500649
 30
0.0
 11
111.72179387983
 21
81.77959558380909
 31
0.0
  0
LINE
  5
26B
330
1E
100
AcDbEntity
  8
0
100
AcDbLine
 10
111.72179387983
 20
81.77959558380909
 30
0.0
 11
113.4438046208209
 21
80.9766765294133
 31
0.0
  0
LINE
  5
26C
330
1E
100
AcDbEntity
  8
0
100
AcDbLine
 10
116.5547861793829
 20
81.73284697467229
 30
0.0
 11
119.1831183630009
 21
80.5073389442785
 31
0.0
  0
LINE
  5
26D
330
1E
100
AcDbEntity
  8
0
100
AcDbLine
 10
114.500818606657
 20
81.58718568884159
 30
0.0
 11
116.5853579246989
 21
80.61523104404649
 31
0.0
  0
LINE
  5
26E
330
1E
100
AcDbEntity
  8
0
100
AcDbLine
 10
116.5853579246989
 20
80.61523104404649
 30
0.0
 11
119.0324258197909
 21
79.4742408088524
 31
0.0
  0
LINE
  5
26F
330
1E
100
AcDbEntity
  8
0
100
AcDbLine
 10
113.4438046208209
 20
80.9766765294133
 30
0.0
 11
115.709608227388
 21
79.9202040894187
 31
0.0
  0
LINE
  5
270
330
1E
100
AcDbEntity
  8
0
100
AcDbLine
 10
115.709608227388
 20
79.9202040894187
 30
0.0
 11
118.337940411005
 21
78.69469605902501
 31
0.0
  0
LINE
  5
271
330
1E
100
AcDbEntity
  8
0
100
AcDbLine
 10
126.554893793594
 20
75.9667523080704
 30
0.0
 11
128.6394331116349
 21
74.9947976632754
 31
0.0
  0
LINE
  5
272
330
1E
100
AcDbEntity
  8
0
100
AcDbLine
 10
131.539661728041
 20
73.6425129400823
 30
0.0
 11
132.0233941946699
 21
72.31360252145769
 31
0.0
  0
LINE
  5
273
330
1E
100
AcDbEntity
  8
0
100
AcDbLine
 10
131.539661728041
 20
73.6425129400823
 30
0.0
 11
132.868572146666
 21
74.12624540671129
 31
0.0
  0
LINE
  5
274
330
1E
100
AcDbEntity
  8
0
100
AcDbLine
 10
131.660865617619
 20
72.4826381118568
 30
0.0
 11
132.0233941946699
 21
72.31360252145769
 31
0.0
  0
LINE
  5
275
330
1E
100
AcDbEntity
  8
0
100
AcDbLine
 10
130.5732798864669
 20
72.9897448830542
 30
0.0
 11
131.660865617619
 21
72.4826381118568
 31
0.0
  0
LINE
  5
276
330
1E
100
AcDbEntity
  8
0
100
AcDbLine
 10
132.868572146666
 20
74.12624540671129
 30
0.0
 11
134.558928050657
 21
77.75153117721841
 31
0.0
  0
LINE
  5
277
330
1E
100
AcDbEntity
  8
0
100
AcDbLine
 10
131.1771331509899
 20
73.81154853048141
 30
0.0
 11
131.539661728041
 21
73.6425129400823
 31
0.0
  0
LINE
  5
278
330
1E
100
AcDbEntity
  8
0
100
AcDbLine
 10
132.5060435696149
 20
74.29528099711041
 30
0.0
 11
132.868572146666
 21
74.12624540671129
 31
0.0
  0
LINE
  5
279
330
1E
100
AcDbEntity
  8
0
100
AcDbLine
 10
131.418457838463
 20
74.8023877683078
 30
0.0
 11
132.5060435696149
 21
74.29528099711041
 31
0.0
  0
LINE
  5
27A
330
1E
100
AcDbEntity
  8
0
100
AcDbLine
 10
129.696447097472
 20
75.60530682270371
 30
0.0
 11
131.418457838463
 21
74.8023877683078
 31
0.0
  0
LINE
  5
27B
330
1E
100
AcDbEntity
  8
0
100
AcDbLine
 10
130.1801795641009
 20
74.27639640407909
 30
0.0
 11
131.1771331509899
 21
73.81154853048141
 31
0.0
  0
LINE
  5
27C
330
1E
100
AcDbEntity
  8
0
100
AcDbLine
 10
128.6394331116349
 20
74.9947976632754
 30
0.0
 11
130.1801795641009
 21
74.27639640407909
 31
0.0
  0
LINE
  5
27D
330
1E
100
AcDbEntity
  8
0
100
AcDbLine
 10
128.851269145476
 20
73.7926639374501
 30
0.0
 11
130.5732798864669
 21
72.9897448830542
 31
0.0
  0
LINE
  5
27E
330
1E
100
AcDbEntity
  8
0
100
AcDbLine
 10
126.5854655389089
 20
74.84913637744471
 30
0.0
 11
128.851269145476
 21
73.7926639374501
 31
0.0
  0
LINE
  5
27F
330
1E
100
AcDbEntity
  8
0
100
AcDbLine
 10
127.430643490905
 20
76.6617792626983
 30
0.0
 11
129.696447097472
 21
75.60530682270371
 31
0.0
  0
LINE
  5
280
330
1E
100
AcDbEntity
  8
0
100
AcDbLine
 10
134.1963994736059
 20
77.9205667676176
 30
0.0
 11
134.558928050657
 21
77.75153117721841
 31
0.0
  0
LINE
  5
281
330
1E
100
AcDbEntity
  8
0
100
AcDbLine
 10
133.108813742454
 20
78.4276735388149
 30
0.0
 11
134.1963994736059
 21
77.9205667676176
 31
0.0
  0
LINE
  5
282
330
1E
100
AcDbEntity
  8
0
100
AcDbLine
 10
131.3868030014629
 20
79.23059259321078
 30
0.0
 11
133.108813742454
 21
78.4276735388149
 31
0.0
  0
LINE
  5
283
330
1E
100
AcDbEntity
  8
0
100
AcDbLine
 10
124.802311307287
 20
77.887287293092
 30
0.0
 11
127.430643490905
 21
76.6617792626983
 31
0.0
  0
LINE
  5
284
330
1E
100
AcDbEntity
  8
0
100
AcDbLine
 10
121.992714835144
 20
79.19731311868528
 30
0.0
 11
124.802311307287
 21
77.887287293092
 31
0.0
  0
LINE
  5
285
330
1E
100
AcDbEntity
  8
0
100
AcDbLine
 10
124.107825898501
 20
77.10774254326451
 30
0.0
 11
126.554893793594
 21
75.9667523080704
 31
0.0
  0
LINE
  5
286
330
1E
100
AcDbEntity
  8
0
100
AcDbLine
 10
121.570125859146
 20
78.2909916760585
 30
0.0
 11
124.107825898501
 21
77.10774254326451
 31
0.0
  0
LINE
  5
287
330
1E
100
AcDbEntity
  8
0
100
AcDbLine
 10
123.9571333552919
 20
76.0746444078384
 30
0.0
 11
126.5854655389089
 21
74.84913637744471
 31
0.0
  0
LINE
  5
288
330
1E
100
AcDbEntity
  8
0
100
AcDbLine
 10
121.147536883148
 20
77.3846702334317
 30
0.0
 11
123.9571333552919
 21
76.0746444078384
 31
0.0
  0
LINE
  5
289
330
1E
100
AcDbEntity
  8
0
100
AcDbLine
 10
130.027320837523
 20
79.86447605720759
 30
0.0
 11
134.9203735360239
 21
80.8930844810966
 31
0.0
  0
LINE
  5
28A
330
1E
100
AcDbEntity
  8
0
100
AcDbLine
 10
129.7554244047349
 20
79.9912527500069
 30
0.0
 11
130.027320837523
 21
79.86447605720759
 31
0.0
  0
LINE
  5
28B
330
1E
100
AcDbEntity
  8
0
100
AcDbLine
 10
134.3765806704479
 20
81.14663786669529
 30
0.0
 11
135.4641664016
 21
80.63953109549791
 31
0.0
  0
LINE
  5
28C
330
1E
100
AcDbEntity
  8
0
100
AcDbLine
 10
135.82669497865
 20
80.4704955050988
 30
0.0
 11
140.897762690624
 21
91.34635281662019
 31
0.0
  0
LINE
  5
28D
330
1E
100
AcDbEntity
  8
0
100
AcDbLine
 10
135.4641664016
 20
80.63953109549791
 30
0.0
 11
135.82669497865
 21
80.4704955050988
 31
0.0
  0
LINE
  5
28E
330
1E
100
AcDbEntity
  8
0
100
AcDbLine
 10
134.557844958973
 20
81.06212007149579
 30
0.0
 11
134.9203735360239
 21
80.8930844810966
 31
0.0
  0
LINE
  5
28F
330
1E
100
AcDbEntity
  8
0
100
AcDbLine
 10
129.211631539159
 20
80.24480613560559
 30
0.0
 11
129.7554244047349
 21
79.9912527500069
 31
0.0
  0
LINE
  5
290
330
1E
100
AcDbEntity
  8
0
100
AcDbLine
 10
129.1209993948959
 20
80.2870650332054
 30
0.0
 11
131.3868030014629
 21
79.23059259321078
 31
0.0
  0
LINE
  5
291
330
1E
100
AcDbEntity
  8
0
100
AcDbLine
 10
133.560891372083
 20
81.5269679450934
 30
0.0
 11
134.557844958973
 21
81.06212007149579
 31
0.0
  0
LINE
  5
292
330
1E
100
AcDbEntity
  8
0
100
AcDbLine
 10
132.6545699294569
 20
81.9495569210912
 30
0.0
 11
134.3765806704479
 21
81.14663786669529
 31
0.0
  0
LINE
  5
293
330
1E
100
AcDbEntity
  8
0
100
AcDbLine
 10
126.492667211279
 20
81.51257306359909
 30
0.0
 11
129.1209993948959
 21
80.2870650332054
 31
0.0
  0
LINE
  5
294
330
1E
100
AcDbEntity
  8
0
100
AcDbLine
 10
119.1831183630009
 20
80.5073389442785
 30
0.0
 11
121.992714835144
 21
79.19731311868528
 31
0.0
  0
LINE
  5
295
330
1E
100
AcDbEntity
  8
0
100
AcDbLine
 10
119.0324258197909
 20
79.4742408088524
 30
0.0
 11
121.570125859146
 21
78.2909916760585
 31
0.0
  0
LINE
  5
296
330
1E
100
AcDbEntity
  8
0
100
AcDbLine
 10
118.337940411005
 20
78.69469605902501
 30
0.0
 11
121.147536883148
 21
77.3846702334317
 31
0.0
  0
LINE
  5
297
330
1E
100
AcDbEntity
  8
0
100
AcDbLine
 10
111.479386100673
 20
84.09934524026009
 30
0.0
 11
112.566971831826
 21
83.59223846906271
 31
0.0
  0
LINE
  5
298
330
1E
100
AcDbEntity
  8
0
100
AcDbLine
 10
111.6005899902519
 20
82.93947041203459
 30
0.0
 11
111.963118567302
 21
82.7704348216355
 31
0.0
  0
LINE
  5
299
330
1E
100
AcDbEntity
  8
0
100
AcDbLine
 10
112.566971831826
 20
83.59223846906271
 30
0.0
 11
114.288982572816
 21
82.78931941466678
 31
0.0
  0
LINE
  5
29A
330
1E
100
AcDbEntity
  8
0
100
AcDbLine
 10
114.288982572816
 20
82.78931941466678
 30
0.0
 11
116.5547861793829
 21
81.73284697467229
 31
0.0
  0
LINE
  5
29B
330
1E
100
AcDbEntity
  8
0
100
AcDbLine
 10
111.963118567302
 20
82.7704348216355
 30
0.0
 11
112.960072154192
 21
82.30558694803791
 31
0.0
  0
LINE
  5
29C
330
1E
100
AcDbEntity
  8
0
100
AcDbLine
 10
115.9793384768079
 20
86.41460518517401
 30
0.0
 11
118.2451420833749
 21
85.3581327451794
 31
0.0
  0
LINE
  5
29D
330
1E
100
AcDbEntity
  8
0
100
AcDbLine
 10
118.2451420833749
 20
85.3581327451794
 30
0.0
 11
119.242095670264
 21
84.8932848715818
 31
0.0
  0
LINE
  5
29E
330
1E
100
AcDbEntity
  8
0
100
AcDbLine
 10
130.38876632289
 20
83.0060293610858
 30
0.0
 11
132.6545699294569
 21
81.9495569210912
 31
0.0
  0
LINE
  5
29F
330
1E
100
AcDbEntity
  8
0
100
AcDbLine
 10
129.935605601576
 20
83.2173238490847
 30
0.0
 11
132.0201449196179
 21
82.2453692042897
 31
0.0
  0
LINE
  5
2A0
330
1E
100
AcDbEntity
  8
0
100
AcDbLine
 10
123.683070739135
 20
82.8225988891924
 30
0.0
 11
126.492667211279
 21
81.51257306359909
 31
0.0
  0
LINE
  5
2A1
330
1E
100
AcDbEntity
  8
0
100
AcDbLine
 10
123.683070739135
 20
82.8225988891924
 30
0.0
 11
125.3144493358639
 21
82.0619387323963
 31
0.0
  0
LINE
  5
2A2
330
1E
100
AcDbEntity
  8
0
100
AcDbLine
 10
127.760434139272
 20
84.2315373914795
 30
0.0
 11
130.38876632289
 21
83.0060293610858
 31
0.0
  0
LINE
  5
2A3
330
1E
100
AcDbEntity
  8
0
100
AcDbLine
 10
124.9508376671289
 20
85.5415632170728
 30
0.0
 11
127.760434139272
 21
84.2315373914795
 31
0.0
  0
LINE
  5
2A4
330
1E
100
AcDbEntity
  8
0
100
AcDbLine
 10
122.1412411949859
 20
86.85158904266609
 30
0.0
 11
124.9508376671289
 21
85.5415632170728
 31
0.0
  0
LINE
  5
2A5
330
1E
100
AcDbEntity
  8
0
100
AcDbLine
 10
122.4131376277739
 20
86.72481234986669
 30
0.0
 11
124.9508376671289
 21
85.5415632170728
 31
0.0
  0
LINE
  5
2A6
330
1E
100
AcDbEntity
  8
0
100
AcDbLine
 10
119.242095670264
 20
84.8932848715818
 30
0.0
 11
120.5109456899419
 21
84.3016603051848
 31
0.0
  0
LINE
  5
2A7
330
1E
100
AcDbEntity
  8
0
100
AcDbLine
 10
120.8734742669919
 20
84.13262471478571
 30
0.0
 11
123.683070739135
 21
82.8225988891924
 31
0.0
  0
LINE
  5
2A8
330
1E
100
AcDbEntity
  8
0
100
AcDbLine
 10
118.2451420833749
 20
85.3581327451794
 30
0.0
 11
120.8734742669919
 21
84.13262471478571
 31
0.0
  0
LINE
  5
2A9
330
1E
100
AcDbEntity
  8
0
100
AcDbLine
 10
112.8072134276139
 20
87.89366660116639
 30
0.0
 11
113.169742004665
 21
87.72463101076729
 31
0.0
  0
LINE
  5
2AA
330
1E
100
AcDbEntity
  8
0
100
AcDbLine
 10
114.074980355608
 20
90.61263092904679
 30
0.0
 11
114.437508932658
 21
90.4435953386476
 31
0.0
  0
LINE
  5
2AB
330
1E
100
AcDbEntity
  8
0
100
AcDbLine
 10
114.074980355608
 20
90.61263092904679
 30
0.0
 11
119.146048067582
 21
101.4884882405679
 31
0.0
  0
LINE
  5
2AC
330
1E
100
AcDbEntity
  8
0
100
AcDbLine
 10
114.437508932658
 20
90.4435953386476
 30
0.0
 11
115.52509466381
 21
89.9364885674502
 31
0.0
  0
LINE
  5
2AD
330
1E
100
AcDbEntity
  8
0
100
AcDbLine
 10
115.52509466381
 20
89.9364885674502
 30
0.0
 11
117.247105404801
 21
89.13356951305441
 31
0.0
  0
LINE
  5
2AE
330
1E
100
AcDbEntity
  8
0
100
AcDbLine
 10
117.247105404801
 20
89.13356951305441
 30
0.0
 11
119.512909011368
 21
88.0770970730598
 31
0.0
  0
LINE
  5
2AF
330
1E
100
AcDbEntity
  8
0
100
AcDbLine
 10
119.508576644632
 20
101.3194526501689
 30
0.0
 11
120.5961623757839
 21
100.8123458789719
 31
0.0
  0
LINE
  5
2B0
330
1E
100
AcDbEntity
  8
0
100
AcDbLine
 10
120.5961623757839
 20
100.8123458789719
 30
0.0
 11
122.3181731167749
 21
100.009426824576
 31
0.0
  0
LINE
  5
2B1
330
1E
100
AcDbEntity
  8
0
100
AcDbLine
 10
122.3181731167749
 20
100.009426824576
 30
0.0
 11
124.583976723342
 21
98.9529543845812
 31
0.0
  0
LINE
  5
2B2
330
1E
100
AcDbEntity
  8
0
100
AcDbLine
 10
124.583976723342
 20
98.9529543845812
 30
0.0
 11
127.21230890696
 21
97.72744635418751
 31
0.0
  0
LINE
  5
2B4
330
1E
100
AcDbEntity
  8
0
100
AcDbLine
 10
140.414030223995
 20
92.6752632352449
 30
0.0
 11
140.897762690624
 21
91.34635281662019
 31
0.0
  0
LINE
  5
2B5
330
1E
100
AcDbEntity
  8
0
100
AcDbLine
 10
140.5352341135739
 20
91.5153884070194
 30
0.0
 11
140.897762690624
 21
91.34635281662019
 31
0.0
  0
LINE
  5
2B6
330
1E
100
AcDbEntity
  8
0
100
AcDbLine
 10
139.447648382422
 20
92.0224951782168
 30
0.0
 11
140.5352341135739
 21
91.5153884070194
 31
0.0
  0
LINE
  5
2B7
330
1E
100
AcDbEntity
  8
0
100
AcDbLine
 10
140.0235665878829
 20
92.8573240586885
 30
0.0
 11
145.5241165360029
 21
105.417861189114
 31
0.0
  0
LINE
  5
2B8
330
1E
100
AcDbEntity
  8
0
100
AcDbLine
 10
140.051501646945
 20
92.84429882564401
 30
0.0
 11
140.414030223995
 21
92.6752632352449
 31
0.0
  0
LINE
  5
2BB
330
1E
100
AcDbEntity
  8
0
100
AcDbLine
 10
137.725637641431
 20
92.82541423261269
 30
0.0
 11
139.447648382422
 21
92.0224951782168
 31
0.0
  0
LINE
  5
2BC
330
1E
100
AcDbEntity
  8
0
100
AcDbLine
 10
135.459834034864
 20
93.8818866726072
 30
0.0
 11
137.725637641431
 21
92.82541423261269
 31
0.0
  0
LINE
  5
2BF
330
1E
100
AcDbEntity
  8
0
100
AcDbLine
 10
132.831501851246
 20
95.107394703001
 30
0.0
 11
135.459834034864
 21
93.8818866726072
 31
0.0
  0
LINE
  5
2C0
330
1E
100
AcDbEntity
  8
0
100
AcDbLine
 10
130.021905379103
 20
96.4174205285942
 30
0.0
 11
132.831501851246
 21
95.107394703001
 31
0.0
  0
LINE
  5
2C2
330
1E
100
AcDbEntity
  8
0
100
AcDbLine
 10
127.21230890696
 20
97.72744635418751
 30
0.0
 11
130.021905379103
 21
96.4174205285942
 31
0.0
  0
LINE
  5
2C3
330
1E
100
AcDbEntity
  8
0
100
AcDbLine
 10
119.512909011368
 20
88.0770970730598
 30
0.0
 11
122.1412411949859
 21
86.85158904266609
 31
0.0
  0
LINE
  5
2C4
330
1E
100
AcDbEntity
  8
0
100
AcDbLine
 10
117.8815304146399
 20
88.83775722985589
 30
0.0
 11
119.966069732682
 21
87.86580258506081
 31
0.0
  0
LINE
  5
2C5
330
1E
100
AcDbEntity
  8
0
100
AcDbLine
 10
145.5241165360029
 20
105.417861189114
 30
0.0
 11
148.225016536003
 21
109.494261189114
 31
0.0
  0
LINE
  5
2C6
330
1E
100
AcDbEntity
  8
0
100
AcDbLine
 10
119.914862424897
 20
101.7683419163549
 30
0.0
 11
126.3978165360029
 21
116.3065611891139
 31
0.0
  0
LINE
  5
2C7
330
1E
100
AcDbEntity
  8
0
100
AcDbLine
 10
148.225016536003
 20
109.494261189114
 30
0.0
 11
151.4023165360029
 21
113.1462611891139
 31
0.0
  0
LINE
  5
2C8
330
1E
100
AcDbEntity
  8
0
100
AcDbLine
 10
151.4023165360029
 20
113.1462611891139
 30
0.0
 11
155.039916536003
 21
116.344061189114
 31
0.0
  0
LINE
  5
2C9
330
1E
100
AcDbEntity
  8
0
100
AcDbLine
 10
126.3978165360029
 20
116.3065611891139
 30
0.0
 11
130.698916536003
 21
122.817161189114
 31
0.0
  0
LINE
  5
2CE
330
1E
100
AcDbEntity
  8
0
100
AcDbLine
 10
155.039916536003
 20
116.344061189114
 30
0.0
 11
159.063016536003
 21
119.038461189114
 31
0.0
  0
LINE
  5
2CF
330
1E
100
AcDbEntity
  8
0
100
AcDbLine
 10
130.698916536003
 20
122.817161189114
 30
0.0
 11
135.850716536003
 21
128.7348611891139
 31
0.0
  0
LINE
  5
2D0
330
1E
100
AcDbEntity
  8
0
100
AcDbLine
 10
172.729416536003
 20
123.6885611891139
 30
0.0
 11
177.5574165360029
 21
124.0057611891139
 31
0.0
  0
LINE
  5
2D1
330
1E
100
AcDbEntity
  8
0
100
AcDbLine
 10
167.9839165360029
 20
122.742461189114
 30
0.0
 11
172.729416536003
 21
123.6885611891139
 31
0.0
  0
LINE
  5
2D2
330
1E
100
AcDbEntity
  8
0
100
AcDbLine
 10
163.4023165360029
 20
121.183461189114
 30
0.0
 11
167.9839165360029
 21
122.742461189114
 31
0.0
  0
LINE
  5
2D3
330
1E
100
AcDbEntity
  8
0
100
AcDbLine
 10
159.063016536003
 20
119.038461189114
 30
0.0
 11
163.4023165360029
 21
121.183461189114
 31
0.0
  0
LINE
  5
2D4
330
1E
100
AcDbEntity
  8
0
100
AcDbLine
 10
177.5574165360029
 20
124.0057611891139
 30
0.0
 11
356.868116536003
 21
124.0057611891139
 31
0.0
  0
LINE
  5
2D5
330
1E
100
AcDbEntity
  8
0
100
AcDbLine
 10
356.868116536003
 20
115.5883611891139
 30
0.0
 11
356.868116536003
 21
111.1791611891139
 31
0.0
  0
LINE
  5
2D6
330
1E
100
AcDbEntity
  8
0
100
AcDbLine
 10
356.868116536003
 20
111.1791611891139
 30
0.0
 11
356.868116536003
 21
115.5883611891139
 31
0.0
  0
LINE
  5
2D7
330
1E
100
AcDbEntity
  8
0
100
AcDbLine
 10
356.868116536003
 20
111.1791611891139
 30
0.0
 11
356.868116536003
 21
108.4735611891139
 31
0.0
  0
LINE
  5
2D8
330
1E
100
AcDbEntity
  8
0
100
AcDbLine
 10
356.868116536003
 20
108.4735611891139
 30
0.0
 11
356.868116536003
 21
111.1791611891139
 31
0.0
  0
LINE
  5
2D9
330
1E
100
AcDbEntity
  8
0
100
AcDbLine
 10
356.868116536003
 20
108.4735611891139
 30
0.0
 11
356.868116536003
 21
107.4714611891139
 31
0.0
  0
LINE
  5
2DA
330
1E
100
AcDbEntity
  8
0
100
AcDbLine
 10
356.868116536003
 20
107.4714611891139
 30
0.0
 11
357.368116536003
 21
105.968461189114
 31
0.0
  0
LINE
  5
2DB
330
1E
100
AcDbEntity
  8
0
100
AcDbLine
 10
356.868116536003
 20
107.4714611891139
 30
0.0
 11
356.868116536003
 21
108.4735611891139
 31
0.0
  0
LINE
  5
2DC
330
1E
100
AcDbEntity
  8
0
100
AcDbLine
 10
141.6513165360029
 20
133.833961189114
 30
0.0
 11
148.066216536003
 21
138.1305611891139
 31
0.0
  0
LINE
  5
2DD
330
1E
100
AcDbEntity
  8
0
100
AcDbLine
 10
169.8587165360029
 20
145.5456611891139
 30
0.0
 11
177.5574165360029
 21
146.051561189114
 31
0.0
  0
LINE
  5
2DE
330
1E
100
AcDbEntity
  8
0
100
AcDbLine
 10
162.291716536003
 20
144.036961189114
 30
0.0
 11
169.8587165360029
 21
145.5456611891139
 31
0.0
  0
LINE
  5
2DF
330
1E
100
AcDbEntity
  8
0
100
AcDbLine
 10
154.985816536003
 20
141.5510611891139
 30
0.0
 11
162.291716536003
 21
144.036961189114
 31
0.0
  0
LINE
  5
2E0
330
1E
100
AcDbEntity
  8
0
100
AcDbLine
 10
148.066216536003
 20
138.1305611891139
 30
0.0
 11
154.985816536003
 21
141.5510611891139
 31
0.0
  0
LINE
  5
2E1
330
1E
100
AcDbEntity
  8
0
100
AcDbLine
 10
135.850716536003
 20
128.7348611891139
 30
0.0
 11
141.6513165360029
 21
133.833961189114
 31
0.0
  0
LINE
  5
2E2
330
1E
100
AcDbEntity
  8
0
100
AcDbLine
 10
356.868116536003
 20
132.2067611891139
 30
0.0
 11
356.868116536003
 21
135.0285611891139
 31
0.0
  0
LINE
  5
2E3
330
1E
100
AcDbEntity
  8
0
100
AcDbLine
 10
356.868116536003
 20
135.0285611891139
 30
0.0
 11
356.868116536003
 21
137.8505611891139
 31
0.0
  0
LINE
  5
2E4
330
1E
100
AcDbEntity
  8
0
100
AcDbLine
 10
356.868116536003
 20
127.2244611891139
 30
0.0
 11
356.868116536003
 21
129.5612611891139
 31
0.0
  0
LINE
  5
2E5
330
1E
100
AcDbEntity
  8
0
100
AcDbLine
 10
356.868116536003
 20
125.460761189114
 30
0.0
 11
356.868116536003
 21
127.2244611891139
 31
0.0
  0
LINE
  5
2E6
330
1E
100
AcDbEntity
  8
0
100
AcDbLine
 10
356.868116536003
 20
140.4959611891139
 30
0.0
 11
356.868116536003
 21
142.832861189114
 31
0.0
  0
LINE
  5
2E7
330
1E
100
AcDbEntity
  8
0
100
AcDbLine
 10
356.868116536003
 20
142.832861189114
 30
0.0
 11
356.868116536003
 21
144.596461189114
 31
0.0
  0
LINE
  5
2E8
330
1E
100
AcDbEntity
  8
0
100
AcDbLine
 10
356.868116536003
 20
144.596461189114
 30
0.0
 11
356.868116536003
 21
145.6546611891139
 31
0.0
  0
LINE
  5
2E9
330
1E
100
AcDbEntity
  8
0
100
AcDbLine
 10
356.868116536003
 20
145.6546611891139
 30
0.0
 11
356.868116536003
 21
146.051561189114
 31
0.0
  0
LINE
  5
2EA
330
1E
100
AcDbEntity
  8
0
100
AcDbLine
 10
356.868116536003
 20
137.8505611891139
 30
0.0
 11
356.868116536003
 21
140.4959611891139
 31
0.0
  0
LINE
  5
2EB
330
1E
100
AcDbEntity
  8
0
100
AcDbLine
 10
356.868116536003
 20
129.5612611891139
 30
0.0
 11
356.868116536003
 21
132.2067611891139
 31
0.0
  0
LINE
  5
2EC
330
1E
100
AcDbEntity
  8
0
100
AcDbLine
 10
356.868116536003
 20
124.4025611891139
 30
0.0
 11
356.868116536003
 21
125.460761189114
 31
0.0
  0
LINE
  5
2ED
330
1E
100
AcDbEntity
  8
0
100
AcDbLine
 10
177.5574165360029
 20
146.051561189114
 30
0.0
 11
356.868116536003
 21
146.051561189114
 31
0.0
  0
LINE
  5
2EE
330
1E
100
AcDbEntity
  8
0
100
AcDbLine
 10
356.868116536003
 20
158.878061189114
 30
0.0
 11
356.868116536003
 21
146.051561189114
 31
0.0
  0
LINE
  5
2EF
330
1E
100
AcDbEntity
  8
0
100
AcDbLine
 10
356.868116536003
 20
146.051561189114
 30
0.0
 11
356.868116536003
 21
158.878061189114
 31
0.0
  0
LINE
  5
2F0
330
1E
100
AcDbEntity
  8
0
100
AcDbLine
 10
356.868116536003
 20
158.878061189114
 30
0.0
 11
356.868116536003
 21
161.5837611891139
 31
0.0
  0
LINE
  5
2F1
330
1E
100
AcDbEntity
  8
0
100
AcDbLine
 10
356.868116536003
 20
162.5858611891139
 30
0.0
 11
357.368116536003
 21
164.088861189114
 31
0.0
  0
LINE
  5
2F2
330
1E
100
AcDbEntity
  8
0
100
AcDbLine
 10
356.868116536003
 20
162.5858611891139
 30
0.0
 11
356.868116536003
 21
161.5837611891139
 31
0.0
  0
LINE
  5
2F3
330
1E
100
AcDbEntity
  8
0
100
AcDbLine
 10
356.868116536003
 20
161.5837611891139
 30
0.0
 11
356.868116536003
 21
162.5858611891139
 31
0.0
  0
LINE
  5
2F4
330
1E
100
AcDbEntity
  8
0
100
AcDbLine
 10
356.868116536003
 20
161.5837611891139
 30
0.0
 11
356.868116536003
 21
158.878061189114
 31
0.0
  0
LINE
  5
2F5
330
1E
100
AcDbEntity
  8
0
100
AcDbLine
 10
356.868116536003
 20
124.0057611891139
 30
0.0
 11
356.868116536003
 21
115.5883611891139
 31
0.0
  0
LINE
  5
2F6
330
1E
100
AcDbEntity
  8
0
100
AcDbLine
 10
356.868116536003
 20
124.0057611891139
 30
0.0
 11
356.868116536003
 21
124.4025611891139
 31
0.0
  0
LINE
  5
2F7
330
1E
100
AcDbEntity
  8
0
100
AcDbLine
 10
364.866116536003
 20
103.9642611891139
 30
0.0
 11
364.866116536003
 21
105.0665611891139
 31
0.0
  0
LINE
  5
2F8
330
1E
100
AcDbEntity
  8
0
100
AcDbLine
 10
357.368116536003
 20
164.088861189114
 30
0.0
 11
357.868116536003
 21
164.589961189114
 31
0.0
  0
LINE
  5
2F9
330
1E
100
AcDbEntity
  8
0
100
AcDbLine
 10
357.868116536003
 20
164.589961189114
 30
0.0
 11
359.368116536003
 21
165.090961189114
 31
0.0
  0
LINE
  5
2FA
330
1E
100
AcDbEntity
  8
0
100
AcDbLine
 10
357.368116536003
 20
105.968461189114
 30
0.0
 11
357.868116536003
 21
105.4673611891139
 31
0.0
  0
LINE
  5
2FB
330
1E
100
AcDbEntity
  8
0
100
AcDbLine
 10
364.866116536003
 20
105.0665611891139
 30
0.0
 11
364.866116536003
 21
103.9642611891139
 31
0.0
  0
LINE
  5
2FC
330
1E
100
AcDbEntity
  8
0
100
AcDbLine
 10
364.866116536003
 20
105.0665611891139
 30
0.0
 11
364.866116536003
 21
108.172961189114
 31
0.0
  0
LINE
  5
2FD
330
1E
100
AcDbEntity
  8
0
100
AcDbLine
 10
364.866116536003
 20
113.0830611891139
 30
0.0
 11
364.866116536003
 21
108.172961189114
 31
0.0
  0
LINE
  5
2FE
330
1E
100
AcDbEntity
  8
0
100
AcDbLine
 10
364.866116536003
 20
113.0830611891139
 30
0.0
 11
364.866116536003
 21
119.596661189114
 31
0.0
  0
LINE
  5
2FF
330
1E
100
AcDbEntity
  8
0
100
AcDbLine
 10
364.866116536003
 20
150.460561189114
 30
0.0
 11
364.866116536003
 21
143.045261189114
 31
0.0
  0
LINE
  5
300
330
1E
100
AcDbEntity
  8
0
100
AcDbLine
 10
364.866116536003
 20
150.460561189114
 30
0.0
 11
364.866116536003
 21
156.974161189114
 31
0.0
  0
LINE
  5
301
330
1E
100
AcDbEntity
  8
0
100
AcDbLine
 10
364.866116536003
 20
143.045261189114
 30
0.0
 11
364.866116536003
 21
135.0285611891139
 31
0.0
  0
LINE
  5
302
330
1E
100
AcDbEntity
  8
0
100
AcDbLine
 10
364.866116536003
 20
143.045261189114
 30
0.0
 11
364.866116536003
 21
150.460561189114
 31
0.0
  0
LINE
  5
303
330
1E
100
AcDbEntity
  8
0
100
AcDbLine
 10
364.866116536003
 20
156.974161189114
 30
0.0
 11
364.866116536003
 21
150.460561189114
 31
0.0
  0
LINE
  5
304
330
1E
100
AcDbEntity
  8
0
100
AcDbLine
 10
364.866116536003
 20
156.974161189114
 30
0.0
 11
364.866116536003
 21
161.884361189114
 31
0.0
  0
LINE
  5
305
330
1E
100
AcDbEntity
  8
0
100
AcDbLine
 10
364.866116536003
 20
135.0285611891139
 30
0.0
 11
364.866116536003
 21
127.0120611891139
 31
0.0
  0
LINE
  5
306
330
1E
100
AcDbEntity
  8
0
100
AcDbLine
 10
364.866116536003
 20
135.0285611891139
 30
0.0
 11
364.866116536003
 21
143.045261189114
 31
0.0
  0
LINE
  5
307
330
1E
100
AcDbEntity
  8
0
100
AcDbLine
 10
364.866116536003
 20
164.990761189114
 30
0.0
 11
364.866116536003
 21
161.884361189114
 31
0.0
  0
LINE
  5
308
330
1E
100
AcDbEntity
  8
0
100
AcDbLine
 10
364.866116536003
 20
164.990761189114
 30
0.0
 11
364.866116536003
 21
166.0930611891139
 31
0.0
  0
LINE
  5
309
330
1E
100
AcDbEntity
  8
0
100
AcDbLine
 10
364.866116536003
 20
161.884361189114
 30
0.0
 11
364.866116536003
 21
156.974161189114
 31
0.0
  0
LINE
  5
30A
330
1E
100
AcDbEntity
  8
0
100
AcDbLine
 10
364.866116536003
 20
161.884361189114
 30
0.0
 11
364.866116536003
 21
164.990761189114
 31
0.0
  0
LINE
  5
30B
330
1E
100
AcDbEntity
  8
0
100
AcDbLine
 10
364.866116536003
 20
127.0120611891139
 30
0.0
 11
364.866116536003
 21
119.596661189114
 31
0.0
  0
LINE
  5
30C
330
1E
100
AcDbEntity
  8
0
100
AcDbLine
 10
364.866116536003
 20
127.0120611891139
 30
0.0
 11
364.866116536003
 21
135.0285611891139
 31
0.0
  0
LINE
  5
30D
330
1E
100
AcDbEntity
  8
0
100
AcDbLine
 10
364.866116536003
 20
119.596661189114
 30
0.0
 11
364.866116536003
 21
113.0830611891139
 31
0.0
  0
LINE
  5
30E
330
1E
100
AcDbEntity
  8
0
100
AcDbLine
 10
364.866116536003
 20
119.596661189114
 30
0.0
 11
364.866116536003
 21
127.0120611891139
 31
0.0
  0
LINE
  5
30F
330
1E
100
AcDbEntity
  8
0
100
AcDbLine
 10
364.866116536003
 20
108.172961189114
 30
0.0
 11
364.866116536003
 21
105.0665611891139
 31
0.0
  0
LINE
  5
310
330
1E
100
AcDbEntity
  8
0
100
AcDbLine
 10
364.866116536003
 20
108.172961189114
 30
0.0
 11
364.866116536003
 21
113.0830611891139
 31
0.0
  0
LINE
  5
311
330
1E
100
AcDbEntity
  8
0
100
AcDbLine
 10
364.866116536003
 20
166.0930611891139
 30
0.0
 11
364.866116536003
 21
164.990761189114
 31
0.0
  0
LINE
  5
312
330
1E
100
AcDbEntity
  8
0
100
AcDbLine
 10
359.368116536003
 20
165.090961189114
 30
0.0
 11
364.866116536003
 21
166.0930611891139
 31
0.0
  0
LINE
  5
313
330
1E
100
AcDbEntity
  8
0
100
AcDbLine
 10
357.868116536003
 20
105.4673611891139
 30
0.0
 11
359.368116536003
 21
104.9663611891139
 31
0.0
  0
LINE
  5
314
330
1E
100
AcDbEntity
  8
0
100
AcDbLine
 10
359.368116536003
 20
104.9663611891139
 30
0.0
 11
364.866116536003
 21
103.9642611891139
 31
0.0
  0
LINE
  5
315
330
1E
100
AcDbEntity
  8
0
100
AcDbLine
 10
356.868116536003
 20
115.5883611891139
 30
0.0
 11
356.868116536003
 21
124.0057611891139
 31
0.0
  0
LINE
  5
316
330
1E
100
AcDbEntity
  8
0
100
AcDbLine
 10
119.146048067582
 20
101.4884882405679
 30
0.0
 11
119.9339633896999
 21
101.775294797971
 31
0.0
  0
LINE
  5
317
330
1E
100
AcDbEntity
  8
0
100
AcDbLine
 10
119.146048067582
 20
101.4884882405679
 30
0.0
 11
119.508576644632
 21
101.3194526501689
 31
0.0
  0
LINE
  5
318
330
1E
100
AcDbEntity
  8
0
100
AcDbLine
 10
114.981301798234
 20
90.19004195304889
 30
0.0
 11
117.338820640748
 21
85.78072172117719
 31
0.0
  0
LINE
  5
319
330
1E
100
AcDbEntity
  8
0
100
AcDbLine
 10
114.981301798234
 20
90.19004195304889
 30
0.0
 11
115.3438303752849
 21
90.0210063626498
 31
0.0
  0
LINE
  5
31A
330
1E
100
AcDbEntity
  8
0
100
AcDbLine
 10
119.966069732682
 20
87.86580258506081
 30
0.0
 11
122.4131376277739
 21
86.72481234986669
 31
0.0
  0
LINE
  5
31B
330
1E
100
AcDbEntity
  8
0
100
AcDbLine
 10
113.169742004665
 20
87.72463101076729
 30
0.0
 11
114.257327735817
 21
87.2175242395699
 31
0.0
  0
LINE
  5
31C
330
1E
100
AcDbEntity
  8
0
100
AcDbLine
 10
114.257327735817
 20
87.2175242395699
 30
0.0
 11
115.9793384768079
 21
86.41460518517401
 31
0.0
  0
LINE
  5
31D
330
1E
100
AcDbEntity
  8
0
100
AcDbLine
 10
111.116857523623
 20
84.26838083065929
 30
0.0
 11
111.6005899902519
 21
82.93947041203459
 31
0.0
  0
LINE
  5
31E
330
1E
100
AcDbEntity
  8
0
100
AcDbLine
 10
111.116857523623
 20
84.26838083065929
 30
0.0
 11
112.8072134276139
 21
87.89366660116639
 31
0.0
  0
LINE
  5
31F
330
1E
100
AcDbEntity
  8
0
100
AcDbLine
 10
111.116857523623
 20
84.26838083065929
 30
0.0
 11
111.479386100673
 21
84.09934524026009
 31
0.0
  0
LINE
  5
320
330
1E
100
AcDbEntity
  8
0
100
AcDbLine
 10
110.271679571627
 20
82.4557379454057
 30
0.0
 11
111.6005899902519
 21
82.93947041203459
 31
0.0
  0
LINE
  5
321
330
1E
100
AcDbEntity
  8
0
100
AcDbLine
 10
110.271679571627
 20
82.4557379454057
 30
0.0
 11
110.6342081486779
 21
82.28670235500649
 31
0.0
  0
LINE
  5
322
330
1E
100
AcDbEntity
  8
0
100
AcDbLine
 10
108.917612866107
 20
66.5366769380158
 30
0.0
 11
114.808702243181
 21
63.78984859402979
 31
0.0
  0
LINE
  5
323
330
1E
100
AcDbEntity
  8
0
100
AcDbLine
 10
109.37077358742
 20
66.32538245001679
 30
0.0
 11
114.808702243181
 21
63.78984859402979
 31
0.0
  0
LINE
  5
324
330
1E
100
AcDbEntity
  8
0
100
AcDbLine
 10
109.37077358742
 20
66.32538245001679
 30
0.0
 11
111.9991057710379
 21
65.09987441962309
 31
0.0
  0
LINE
  5
325
330
1E
100
AcDbEntity
  8
0
100
AcDbLine
 10
107.2272569621159
 20
62.9113911675086
 30
0.0
 11
113.1183463391899
 21
60.1645628235227
 31
0.0
  0
LINE
  5
326
330
1E
100
AcDbEntity
  8
0
100
AcDbLine
 10
107.563546160587
 20
50.61761593062589
 30
0.0
 11
108.4698676032139
 21
50.195026954628
 31
0.0
  0
LINE
  5
327
330
1E
100
AcDbEntity
  8
0
100
AcDbLine
 10
106.7183682085909
 20
48.80497304537229
 30
0.0
 11
107.563546160587
 21
50.61761593062589
 31
0.0
  0
LINE
  5
328
330
1E
100
AcDbEntity
  8
0
100
AcDbLine
 10
106.7183682085909
 20
48.80497304537229
 30
0.0
 11
108.531011093845
 21
47.9597950933766
 31
0.0
  0
ENDSEC
  0
SECTION
  2
OBJECTS
  0
DICTIONARY
  5
C
330
0
100
AcDbDictionary
  3
ACAD_GROUP
350
D
  3
ACAD_LAYOUT
350
19
  3
ACAD_MLINESTYLE
350
16
  3
ACAD_PLOTSETTINGS
350
18
  3
ACAD_PLOTSTYLENAME
350
E
  3
ACDBHEADERROUNDTRIPXREC
350
330
  3
ACDBVARIABLEDICTIONARY
350
32D
  0
DICTIONARY
  5
352
330
1E
100
AcDbDictionary
280
     1
  3
ACAD_LAYOUTSELFREF
360
353
  0
DICTIONARY
  5
350
330
1A
100
AcDbDictionary
280
     1
  3
ACAD_LAYOUTSELFREF
360
351
  0
DICTIONARY
  5
D
102
{ACAD_REACTORS
330
C
102
}
330
C
100
AcDbDictionary
  0
DICTIONARY
  5
19
102
{ACAD_REACTORS
330
C
102
}
330
C
100
AcDbDictionary
  0
DICTIONARY
  5
16
102
{ACAD_REACTORS
330
C
102
}
330
C
100
AcDbDictionary
  3
STANDARD
350
17
  0
DICTIONARY
  5
18
102
{ACAD_REACTORS
330
C
102
}
330
C
100
AcDbDictionary
  0
ACDBDICTIONARYWDFLT
  5
E
102
{ACAD_REACTORS
330
C
102
}
330
C
100
AcDbDictionary
281
     1
  3
Normal
350
F
100
AcDbDictionaryWithDefault
340
F
  0
DICTIONARY
  5
330
102
{ACAD_REACTORS
330
C
102
}
330
C
100
AcDbDictionary
  3
CEPSNTYPE
350
33A
  3
FINGERPRINTGUID
350
33B
  3
HYPERLINKBASE
350
333
  3
INSUNITS
350
339
  3
LAYOUTDICT
350
335
  3
LWETCUNION
350
338
  3
PLOTSETDICT
350
336
  3
PLOTSTYLNAMDICT
350
337
  3
PSVPSCALE
350
33D
  3
PUCSBASE
350
340
  3
PUCSORGBACK
350
346
  3
PUCSORGBOTTOM
350
342
  3
PUCSORGFRONT
350
345
  3
PUCSORGLEFT
350
343
  3
PUCSORGRIGHT
350
344
  3
PUCSORGTOP
350
341
  3
PUCSORTHOREF
350
33E
  3
PUCSORTHOVIEW
350
33F
  3
STYLESHEET
350
334
  3
TSTACKALIGN
350
331
  3
TSTACKSIZE
350
332
  3
UCSBASE
350
349
  3
UCSORGBACK
350
34F
  3
UCSORGBOTTOM
350
34B
  3
UCSORGFRONT
350
34E
  3
UCSORGLEFT
350
34C
  3
UCSORGRIGHT
350
34D
  3
UCSORGTOP
350
34A
  3
UCSORTHOREF
350
347
  3
UCSORTHOVIEW
350
348
  3
VERSIONGUID
350
33C
  0
DICTIONARY
  5
32D
102
{ACAD_REACTORS
330
C
102
}
330
C
100
AcDbDictionary
  3
DIMASSOC
350
32E
  0
XRECORD
  5
353
102
{ACAD_REACTORS
330
352
102
}
330
352
100
AcDbXrecord
340
1E
  0
XRECORD
  5
351
102
{ACAD_REACTORS
330
350
102
}
330
350
100
AcDbXrecord
340
1A
  0
MLINESTYLE
  5
17
102
{ACAD_REACTORS
330
16
102
}
330
16
100
AcDbMlineStyle
  2
STANDARD
 70
     0
  3

 62
   256
 51
90.0
 52
90.0
 71
     2
 49
0.5
 62
   256
  6
BYLAYER
 49
-0.5
 62
   256
  6
BYLAYER
  0
ACDBPLACEHOLDER
  5
F
102
{ACAD_REACTORS
330
E
102
}
330
E
100
AcDbPlaceHolder
280
     0
  0
XRECORD
  5
33A
102
{ACAD_REACTORS
330
330
102
}
330
330
100
AcDbXrecord
 90
        0
  0
XRECORD
  5
33B
102
{ACAD_REACTORS
330
330
102
}
330
330
100
AcDbXrecord
  1
{A22991F8-FA30-4081-81CF-280E4022FAFC}
  0
XRECORD
  5
333
102
{ACAD_REACTORS
330
330
102
}
330
330
100
AcDbXrecord
  1

  0
XRECORD
  5
339
102
{ACAD_REACTORS
330
330
102
}
330
330
100
AcDbXrecord
 90
        0
  0
XRECORD
  5
335
102
{ACAD_REACTORS
330
330
102
}
330
330
100
AcDbXrecord
340
19
  0
XRECORD
  5
338
102
{ACAD_REACTORS
330
330
102
}
330
330
100
AcDbXrecord
 90
    10781
  0
XRECORD
  5
336
102
{ACAD_REACTORS
330
330
102
}
330
330
100
AcDbXrecord
340
18
  0
XRECORD
  5
337
102
{ACAD_REACTORS
330
330
102
}
330
330
100
AcDbXrecord
340
E
  0
XRECORD
  5
33D
102
{ACAD_REACTORS
330
330
102
}
330
330
100
AcDbXrecord
 40
0.0
  0
XRECORD
  5
340
102
{ACAD_REACTORS
330
330
102
}
330
330
100
AcDbXrecord
340
0
  0
XRECORD
  5
346
102
{ACAD_REACTORS
330
330
102
}
330
330
100
AcDbXrecord
 10
0.0
 20
0.0
 30
0.0
  0
XRECORD
  5
342
102
{ACAD_REACTORS
330
330
102
}
330
330
100
AcDbXrecord
 10
0.0
 20
0.0
 30
0.0
  0
XRECORD
  5
345
102
{ACAD_REACTORS
330
330
102
}
330
330
100
AcDbXrecord
 10
0.0
 20
0.0
 30
0.0
  0
XRECORD
  5
343
102
{ACAD_REACTORS
330
330
102
}
330
330
100
AcDbXrecord
 10
0.0
 20
0.0
 30
0.0
  0
XRECORD
  5
344
102
{ACAD_REACTORS
330
330
102
}
330
330
100
AcDbXrecord
 10
0.0
 20
0.0
 30
0.0
  0
XRECORD
  5
341
102
{ACAD_REACTORS
330
330
102
}
330
330
100
AcDbXrecord
 10
0.0
 20
0.0
 30
0.0
  0
XRECORD
  5
33E
102
{ACAD_REACTORS
330
330
102
}
330
330
100
AcDbXrecord
340
0
  0
XRECORD
  5
33F
102
{ACAD_REACTORS
330
330
102
}
330
330
100
AcDbXrecord
 70
     0
  0
XRECORD
  5
334
102
{ACAD_REACTORS
330
330
102
}
330
330
100
AcDbXrecord
  1

  0
XRECORD
  5
331
102
{ACAD_REACTORS
330
330
102
}
330
330
100
AcDbXrecord
 90
        1
  0
XRECORD
  5
332
102
{ACAD_REACTORS
330
330
102
}
330
330
100
AcDbXrecord
 90
       70
  0
XRECORD
  5
349
102
{ACAD_REACTORS
330
330
102
}
330
330
100
AcDbXrecord
340
0
  0
XRECORD
  5
34F
102
{ACAD_REACTORS
330
330
102
}
330
330
100
AcDbXrecord
 10
0.0
 20
0.0
 30
0.0
  0
XRECORD
  5
34B
102
{ACAD_REACTORS
330
330
102
}
330
330
100
AcDbXrecord
 10
0.0
 20
0.0
 30
0.0
  0
XRECORD
  5
34E
102
{ACAD_REACTORS
330
330
102
}
330
330
100
AcDbXrecord
 10
0.0
 20
0.0
 30
0.0
  0
XRECORD
  5
34C
102
{ACAD_REACTORS
330
330
102
}
330
330
100
AcDbXrecord
 10
0.0
 20
0.0
 30
0.0
  0
XRECORD
  5
34D
102
{ACAD_REACTORS
330
330
102
}
330
330
100
AcDbXrecord
 10
0.0
 20
0.0
 30
0.0
  0
XRECORD
  5
34A
102
{ACAD_REACTORS
330
330
102
}
330
330
100
AcDbXrecord
 10
0.0
 20
0.0
 30
0.0
  0
XRECORD
  5
347
102
{ACAD_REACTORS
330
330
102
}
330
330
100
AcDbXrecord
340
0
  0
XRECORD
  5
348
102
{ACAD_REACTORS
330
330
102
}
330
330
100
AcDbXrecord
 70
     1
  0
XRECORD
  5
33C
102
{ACAD_REACTORS
330
330
102
}
330
330
100
AcDbXrecord
  1
{3CA1E47E-4EAA-4C80-B0AA-429460923726}
  0
DICTIONARYVAR
  5
32E
102
{ACAD_REACTORS
330
32D
102
}
330
32D
100
DictionaryVariables
280
     0
  1
1
  0
ENDSEC
  0
EOF
