  0
SECTION
  2
HEADER
  9
$ACADVER
  1
AC1014
  9
$ACADMAINTVER
 70
     9
  9
$DWGCODEPAGE
  3
ANSI_1252
  9
$INSBASE
 10
0.0
 20
0.0
 30
0.0
  9
$EXTMIN
 10
-0.0000000000000035
 20
0.0
 30
0.0
  9
$EXTMAX
 10
71.0
 20
220.0
 30
0.0
  9
$LIMMIN
 10
0.0
 20
0.0
  9
$LIMMAX
 10
12.0
 20
9.0
  9
$ORTHOMODE
 70
     0
  9
$REGENMODE
 70
     1
  9
$FILLMODE
 70
     1
  9
$QTEXTMODE
 70
     0
  9
$MIRRTEXT
 70
     1
  9
$DRAGMODE
 70
     2
  9
$LTSCALE
 40
1.0
  9
$OSMODE
 70
    37
  9
$ATTMODE
 70
     1
  9
$TEXTSIZE
 40
0.2
  9
$TRACEWID
 40
0.05
  9
$TEXTSTYLE
  7
STANDARD
  9
$CLAYER
  8
0
  9
$CELTYPE
  6
CONTINUOUS
  9
$CECOLOR
 62
   256
  9
$CELTSCALE
 40
1.0
  9
$DELOBJ
 70
     1
  9
$DISPSILH
 70
     0
  9
$DIMSCALE
 40
1.0
  9
$DIMASZ
 40
0.18
  9
$DIMEXO
 40
0.0625
  9
$DIMDLI
 40
0.38
  9
$DIMRND
 40
0.0
  9
$DIMDLE
 40
0.0
  9
$DIMEXE
 40
0.18
  9
$DIMTP
 40
0.0
  9
$DIMTM
 40
0.0
  9
$DIMTXT
 40
0.18
  9
$DIMCEN
 40
0.09
  9
$DIMTSZ
 40
0.0
  9
$DIMTOL
 70
     0
  9
$DIMLIM
 70
     0
  9
$DIMTIH
 70
     1
  9
$DIMTOH
 70
     1
  9
$DIMSE1
 70
     0
  9
$DIMSE2
 70
     0
  9
$DIMTAD
 70
     0
  9
$DIMZIN
 70
     0
  9
$DIMBLK
  1

  9
$DIMASO
 70
     1
  9
$DIMSHO
 70
     1
  9
$DIMPOST
  1

  9
$DIMAPOST
  1

  9
$DIMALT
 70
     0
  9
$DIMALTD
 70
     2
  9
$DIMALTF
 40
25.4
  9
$DIMLFAC
 40
1.0
  9
$DIMTOFL
 70
     0
  9
$DIMTVP
 40
0.0
  9
$DIMTIX
 70
     0
  9
$DIMSOXD
 70
     0
  9
$DIMSAH
 70
     0
  9
$DIMBLK1
  1

  9
$DIMBLK2
  1

  9
$DIMSTYLE
  2
STANDARD
  9
$DIMCLRD
 70
     0
  9
$DIMCLRE
 70
     0
  9
$DIMCLRT
 70
     0
  9
$DIMTFAC
 40
1.0
  9
$DIMGAP
 40
0.09
  9
$DIMJUST
 70
     0
  9
$DIMSD1
 70
     0
  9
$DIMSD2
 70
     0
  9
$DIMTOLJ
 70
     1
  9
$DIMTZIN
 70
     0
  9
$DIMALTZ
 70
     0
  9
$DIMALTTZ
 70
     0
  9
$DIMFIT
 70
     3
  9
$DIMUPT
 70
     0
  9
$DIMUNIT
 70
     2
  9
$DIMDEC
 70
     4
  9
$DIMTDEC
 70
     4
  9
$DIMALTU
 70
     2
  9
$DIMALTTD
 70
     2
  9
$DIMTXSTY
  7
STANDARD
  9
$DIMAUNIT
 70
     0
  9
$LUNITS
 70
     2
  9
$LUPREC
 70
     4
  9
$SKETCHINC
 40
0.1
  9
$FILLETRAD
 40
0.0
  9
$AUNITS
 70
     0
  9
$AUPREC
 70
     0
  9
$MENU
  1
.
  9
$ELEVATION
 40
0.0
  9
$PELEVATION
 40
0.0
  9
$THICKNESS
 40
0.0
  9
$LIMCHECK
 70
     0
  9
$BLIPMODE
 70
     0
  9
$CHAMFERA
 40
0.0
  9
$CHAMFERB
 40
0.0
  9
$CHAMFERC
 40
0.0
  9
$CHAMFERD
 40
0.0
  9
$SKPOLY
 70
     0
  9
$TDCREATE
 40
2454690.826694687
  9
$TDUPDATE
 40
2454690.826903206
  9
$TDINDWG
 40
0.0002087037
  9
$TDUSRTIMER
 40
0.0002087037
  9
$USRTIMER
 70
     1
  9
$ANGBASE
 50
0.0
  9
$ANGDIR
 70
     0
  9
$PDMODE
 70
     0
  9
$PDSIZE
 40
0.0
  9
$PLINEWID
 40
0.0
  9
$COORDS
 70
     1
  9
$SPLFRAME
 70
     0
  9
$SPLINETYPE
 70
     6
  9
$SPLINESEGS
 70
     8
  9
$ATTDIA
 70
     0
  9
$ATTREQ
 70
     1
  9
$HANDLING
 70
 22529
  9
$HANDSEED
  5
1B1
  9
$SURFTAB1
 70
     6
  9
$SURFTAB2
 70
     6
  9
$SURFTYPE
 70
     6
  9
$SURFU
 70
     6
  9
$SURFV
 70
     6
  9
$UCSNAME
  2

  9
$UCSORG
 10
0.0
 20
0.0
 30
0.0
  9
$UCSXDIR
 10
1.0
 20
0.0
 30
0.0
  9
$UCSYDIR
 10
0.0
 20
1.0
 30
0.0
  9
$PUCSNAME
  2

  9
$PUCSORG
 10
0.0
 20
0.0
 30
0.0
  9
$PUCSXDIR
 10
1.0
 20
0.0
 30
0.0
  9
$PUCSYDIR
 10
0.0
 20
1.0
 30
0.0
  9
$USERI1
 70
     0
  9
$USERI2
 70
     0
  9
$USERI3
 70
     0
  9
$USERI4
 70
     0
  9
$USERI5
 70
     0
  9
$USERR1
 40
0.0
  9
$USERR2
 40
0.0
  9
$USERR3
 40
0.0
  9
$USERR4
 40
0.0
  9
$USERR5
 40
0.0
  9
$WORLDVIEW
 70
     1
  9
$SHADEDGE
 70
     3
  9
$SHADEDIF
 70
    70
  9
$TILEMODE
 70
     1
  9
$MAXACTVP
 70
    64
  9
$PINSBASE
 10
0.0
 20
0.0
 30
0.0
  9
$PLIMCHECK
 70
     0
  9
$PEXTMIN
 10
1.000000000000000E+20
 20
1.000000000000000E+20
 30
1.000000000000000E+20
  9
$PEXTMAX
 10
-1.000000000000000E+20
 20
-1.000000000000000E+20
 30
-1.000000000000000E+20
  9
$PLIMMIN
 10
0.0
 20
0.0
  9
$PLIMMAX
 10
12.0
 20
9.0
  9
$UNITMODE
 70
     0
  9
$VISRETAIN
 70
     1
  9
$PLINEGEN
 70
     0
  9
$PSLTSCALE
 70
     1
  9
$TREEDEPTH
 70
  3020
  9
$PICKSTYLE
 70
     1
  9
$CMLSTYLE
  2
STANDARD
  9
$CMLJUST
 70
     0
  9
$CMLSCALE
 40
1.0
  9
$PROXYGRAPHICS
 70
     1
  9
$MEASUREMENT
 70
     0
  0
ENDSEC
  0
SECTION
  2
CLASSES
  0
CLASS
  1
ACDBDICTIONARYWDFLT
  2
AcDbDictionaryWithDefault
  3
AutoCAD 2000
 90
        0
280
     0
281
     0
  0
CLASS
  1
ACDBPLACEHOLDER
  2
AcDbPlaceHolder
  3
AutoCAD 2000
 90
        0
280
     0
281
     0
  0
CLASS
  1
LAYOUT
  2
AcDbLayout
  3
AutoCAD 2000
 90
        0
280
     0
281
     0
  0
CLASS
  1
DICTIONARYVAR
  2
AcDbDictionaryVar
  3
AutoCAD 2000
 90
        0
280
     0
281
     0
  0
CLASS
  1
LONG_TRANSACTION
  2
AcDbLongTransaction
  3
AutoCAD 2000
 90
        0
280
     0
281
     0
  0
CLASS
  1
LWPOLYLINE
  2
AcDbPolyline
  3
AutoCAD 2000
 90
        0
280
     0
281
     1
  0
CLASS
  1
HATCH
  2
AcDbHatch
  3
AutoCAD 2000
 90
        0
280
     0
281
     1
  0
CLASS
  1
XRECORD
  2
AcDbXrecord
  3
AutoCAD 2000
 90
        0
280
     0
281
     0
  0
ENDSEC
  0
SECTION
  2
TABLES
  0
TABLE
  2
VPORT
  5
8
330
0
100
AcDbSymbolTable
 70
     2
  0
VPORT
  5
18C
330
8
100
AcDbSymbolTableRecord
100
AcDbViewportTableRecord
  2
*ACTIVE
 70
     0
 10
0.0
 20
0.0
 11
1.0
 21
1.0
 12
35.5
 22
110.0
 13
0.0
 23
0.0
 14
1.0
 24
1.0
 15
0.0
 25
0.0
 16
0.0
 26
0.0
 36
1.0
 17
0.0
 27
0.0
 37
0.0
 40
221.6879795396419
 41
2.043533930857874
 42
50.0
 43
0.0
 44
0.0
 50
0.0
 51
0.0
 71
     0
 72
   100
 73
     1
 74
     3
 75
     0
 76
     0
 77
     0
 78
     0
  0
ENDTAB
  0
TABLE
  2
LTYPE
  5
5
330
0
100
AcDbSymbolTable
 70
     1
  0
LTYPE
  5
13
330
5
100
AcDbSymbolTableRecord
100
AcDbLinetypeTableRecord
  2
BYBLOCK
 70
     0
  3

 72
    65
 73
     0
 40
0.0
  0
LTYPE
  5
14
330
5
100
AcDbSymbolTableRecord
100
AcDbLinetypeTableRecord
  2
BYLAYER
 70
     0
  3

 72
    65
 73
     0
 40
0.0
  0
LTYPE
  5
15
330
5
100
AcDbSymbolTableRecord
100
AcDbLinetypeTableRecord
  2
CONTINUOUS
 70
     0
  3
Solid line
 72
    65
 73
     0
 40
0.0
  0
ENDTAB
  0
TABLE
  2
LAYER
  5
2
330
0
100
AcDbSymbolTable
 70
     1
  0
LAYER
  5
10
330
2
100
AcDbSymbolTableRecord
100
AcDbLayerTableRecord
  2
0
 70
     0
 62
     7
  6
CONTINUOUS
  0
ENDTAB
  0
TABLE
  2
STYLE
  5
3
330
0
100
AcDbSymbolTable
 70
     1
  0
STYLE
  5
11
330
3
100
AcDbSymbolTableRecord
100
AcDbTextStyleTableRecord
  2
STANDARD
 70
     0
 40
0.0
 41
1.0
 50
0.0
 71
     0
 42
0.2
  3
txt
  4

  0
ENDTAB
  0
TABLE
  2
VIEW
  5
6
330
0
100
AcDbSymbolTable
 70
     0
  0
ENDTAB
  0
TABLE
  2
UCS
  5
7
330
0
100
AcDbSymbolTable
 70
     0
  0
ENDTAB
  0
TABLE
  2
APPID
  5
9
330
0
100
AcDbSymbolTable
 70
     1
  0
APPID
  5
12
330
9
100
AcDbSymbolTableRecord
100
AcDbRegAppTableRecord
  2
ACAD
 70
     0
  0
ENDTAB
  0
TABLE
  2
DIMSTYLE
  5
A
330
0
100
AcDbSymbolTable
 70
     1
  0
DIMSTYLE
105
186
330
A
100
AcDbSymbolTableRecord
100
AcDbDimStyleTableRecord
  2
STANDARD
 70
     0
  3

  4

  5

  6

  7

 40
1.0
 41
0.18
 42
0.0625
 43
0.38
 44
0.18
 45
0.0
 46
0.0
 47
0.0
 48
0.0
140
0.18
141
0.09
142
0.0
143
25.4
144
1.0
145
0.0
146
1.0
147
0.09
 71
     0
 72
     0
 73
     1
 74
     1
 75
     0
 76
     0
 77
     0
 78
     0
170
     0
171
     2
172
     0
173
     0
174
     0
175
     0
176
     0
177
     0
178
     0
270
     2
271
     4
272
     4
273
     2
274
     2
340
11
275
     0
280
     0
281
     0
282
     0
283
     1
284
     0
285
     0
286
     0
287
     3
288
     0
  0
ENDTAB
  0
TABLE
  2
BLOCK_RECORD
  5
1
330
0
100
AcDbSymbolTable
 70
     0
  0
BLOCK_RECORD
  5
1E
102
{ACAD_XDICTIONARY
360
1AF
102
}
330
1
100
AcDbSymbolTableRecord
100
AcDbBlockTableRecord
  2
*MODEL_SPACE
  0
BLOCK_RECORD
  5
1A
102
{ACAD_XDICTIONARY
360
1AD
102
}
330
1
100
AcDbSymbolTableRecord
100
AcDbBlockTableRecord
  2
*PAPER_SPACE
  0
ENDTAB
  0
ENDSEC
  0
SECTION
  2
BLOCKS
  0
BLOCK
  5
1F
330
1E
100
AcDbEntity
  8
0
100
AcDbBlockBegin
  2
*MODEL_SPACE
 70
     0
 10
0.0
 20
0.0
 30
0.0
  3
*MODEL_SPACE
  1

  0
ENDBLK
  5
20
330
1E
100
AcDbEntity
  8
0
100
AcDbBlockEnd
  0
BLOCK
  5
1B
330
1A
100
AcDbEntity
 67
     1
  8
0
100
AcDbBlockBegin
  2
*PAPER_SPACE
 70
     0
 10
0.0
 20
0.0
 30
0.0
  3
*PAPER_SPACE
  1

  0
ENDBLK
  5
1C
330
1A
100
AcDbEntity
 67
     1
  8
0
100
AcDbBlockEnd
  0
ENDSEC
  0
SECTION
  2
ENTITIES
  0
LINE
  5
22
330
1E
100
AcDbEntity
  8
0
100
AcDbLine
 10
15.0
 20
0.0000000000000044
 30
0.0
 11
15.0
 21
70.0
 31
0.0
  0
LINE
  5
23
330
1E
100
AcDbEntity
  8
0
100
AcDbLine
 10
15.0
 20
0.0
 30
0.0
 11
15.0
 21
70.0
 31
0.0
  0
LINE
  5
24
330
1E
100
AcDbEntity
  8
0
100
AcDbLine
 10
14.82
 20
0.0000000000000044
 30
0.0
 11
15.0
 21
0.0000000000000044
 31
0.0
  0
LINE
  5
25
330
1E
100
AcDbEntity
  8
0
100
AcDbLine
 10
14.34
 20
0.0000000000000045
 30
0.0
 11
14.82
 21
0.0000000000000044
 31
0.0
  0
LINE
  5
26
330
1E
100
AcDbEntity
  8
0
100
AcDbLine
 10
13.54
 20
0.0000000000000045
 30
0.0
 11
14.34
 21
0.0000000000000045
 31
0.0
  0
LINE
  5
27
330
1E
100
AcDbEntity
  8
0
100
AcDbLine
 10
12.48
 20
0.0000000000000046
 30
0.0
 11
13.54
 21
0.0000000000000045
 31
0.0
  0
LINE
  5
28
330
1E
100
AcDbEntity
  8
0
100
AcDbLine
 10
11.27999999999999
 20
0.0000000000000047
 30
0.0
 11
12.48
 21
0.0000000000000046
 31
0.0
  0
LINE
  5
29
330
1E
100
AcDbEntity
  8
0
100
AcDbLine
 10
9.999999999999991
 20
0.0000000000000047
 30
0.0
 11
11.27999999999999
 21
0.0000000000000047
 31
0.0
  0
LINE
  5
2A
330
1E
100
AcDbEntity
  8
0
100
AcDbLine
 10
8.719999999999989
 20
0.0000000000000048
 30
0.0
 11
9.999999999999991
 21
0.0000000000000047
 31
0.0
  0
LINE
  5
2B
330
1E
100
AcDbEntity
  8
0
100
AcDbLine
 10
4.99999999999999
 20
0.0
 30
0.0
 11
5.0
 21
70.0
 31
0.0
  0
LINE
  5
2C
330
1E
100
AcDbEntity
  8
0
100
AcDbLine
 10
5.17999999999999
 20
0.000000000000005
 30
0.0
 11
5.65999999999999
 21
0.000000000000005
 31
0.0
  0
LINE
  5
2D
330
1E
100
AcDbEntity
  8
0
100
AcDbLine
 10
4.99999999999999
 20
0.000000000000005
 30
0.0
 11
5.17999999999999
 21
0.000000000000005
 31
0.0
  0
LINE
  5
2E
330
1E
100
AcDbEntity
  8
0
100
AcDbLine
 10
4.99999999999999
 20
0.000000000000005
 30
0.0
 11
5.0
 21
70.0
 31
0.0
  0
LINE
  5
2F
330
1E
100
AcDbEntity
  8
0
100
AcDbLine
 10
5.65999999999999
 20
0.000000000000005
 30
0.0
 11
6.45999999999999
 21
0.0000000000000049
 31
0.0
  0
LINE
  5
30
330
1E
100
AcDbEntity
  8
0
100
AcDbLine
 10
6.45999999999999
 20
0.0000000000000049
 30
0.0
 11
7.51999999999999
 21
0.0000000000000049
 31
0.0
  0
LINE
  5
31
330
1E
100
AcDbEntity
  8
0
100
AcDbLine
 10
7.51999999999999
 20
0.0000000000000049
 30
0.0
 11
8.719999999999989
 21
0.0000000000000048
 31
0.0
  0
LINE
  5
32
330
1E
100
AcDbEntity
  8
0
100
AcDbLine
 10
59.0
 20
53.0
 30
0.0
 11
59.5
 21
51.6
 31
0.0
  0
LINE
  5
33
330
1E
100
AcDbEntity
  8
0
100
AcDbLine
 10
59.0
 20
53.0
 30
0.0
 11
59.0
 21
53.79999999999999
 31
0.0
  0
LINE
  5
34
330
1E
100
AcDbEntity
  8
0
100
AcDbLine
 10
-0.0000000000000035
 20
71.5
 30
0.0
 11
-0.0000000000000035
 21
72.40000000000001
 31
0.0
  0
LINE
  5
35
330
1E
100
AcDbEntity
  8
0
100
AcDbLine
 10
-0.0000000000000035
 20
71.5
 30
0.0
 11
0.299999999999996
 21
70.8
 31
0.0
  0
LINE
  5
36
330
1E
100
AcDbEntity
  8
0
100
AcDbLine
 10
1.5
 20
70.0
 30
0.0
 11
5.0
 21
70.0
 31
0.0
  0
LINE
  5
37
330
1E
100
AcDbEntity
  8
0
100
AcDbLine
 10
42.5
 20
70.0
 30
0.0
 11
44.0
 21
71.5
 31
0.0
  0
LINE
  5
38
330
1E
100
AcDbEntity
  8
0
100
AcDbLine
 10
42.5
 20
70.0
 30
0.0
 11
42.5
 21
71.0
 31
0.0
  0
LINE
  5
39
330
1E
100
AcDbEntity
  8
0
100
AcDbLine
 10
1.5
 20
70.0
 30
0.0
 11
5.0
 21
70.0
 31
0.0
  0
LINE
  5
3A
330
1E
100
AcDbEntity
  8
0
100
AcDbLine
 10
5.0
 20
70.0
 30
0.0
 11
42.5
 21
70.0
 31
0.0
  0
LINE
  5
3B
330
1E
100
AcDbEntity
  8
0
100
AcDbLine
 10
0.799999999999996
 20
70.3
 30
0.0
 11
1.5
 21
70.0
 31
0.0
  0
LINE
  5
3C
330
1E
100
AcDbEntity
  8
0
100
AcDbLine
 10
44.0
 20
71.5
 30
0.0
 11
44.0
 21
72.40000000000001
 31
0.0
  0
LINE
  5
3D
330
1E
100
AcDbEntity
  8
0
100
AcDbLine
 10
44.0
 20
72.40000000000001
 30
0.0
 11
44.0
 21
75.0
 31
0.0
  0
LINE
  5
3E
330
1E
100
AcDbEntity
  8
0
100
AcDbLine
 10
42.5
 20
71.0
 30
0.0
 11
42.5
 21
73.79999999999999
 31
0.0
  0
LINE
  5
3F
330
1E
100
AcDbEntity
  8
0
100
AcDbLine
 10
42.5
 20
71.0
 30
0.0
 11
42.5
 21
70.0
 31
0.0
  0
LINE
  5
40
330
1E
100
AcDbEntity
  8
0
100
AcDbLine
 10
-0.0000000000000035
 20
72.40000000000001
 30
0.0
 11
-0.0000000000000033
 21
75.0
 31
0.0
  0
LINE
  5
41
330
1E
100
AcDbEntity
  8
0
100
AcDbLine
 10
0.299999999999996
 20
70.8
 30
0.0
 11
0.799999999999996
 21
70.3
 31
0.0
  0
LINE
  5
42
330
1E
100
AcDbEntity
  8
0
100
AcDbLine
 10
-0.0000000000000035
 20
71.5
 30
0.0
 11
0.299999999999996
 21
70.8
 31
0.0
  0
LINE
  5
43
330
1E
100
AcDbEntity
  8
0
100
AcDbLine
 10
-0.0000000000000033
 20
75.0
 30
0.0
 11
-0.0000000000000031
 21
79.2
 31
0.0
  0
LINE
  5
44
330
1E
100
AcDbEntity
  8
0
100
AcDbLine
 10
-0.0000000000000031
 20
79.2
 30
0.0
 11
-0.0000000000000027
 21
84.8
 31
0.0
  0
LINE
  5
45
330
1E
100
AcDbEntity
  8
0
100
AcDbLine
 10
-0.0000000000000027
 20
84.8
 30
0.0
 11
-0.0000000000000023
 21
91.09999999999999
 31
0.0
  0
LINE
  5
46
330
1E
100
AcDbEntity
  8
0
100
AcDbLine
 10
-0.0000000000000023
 20
91.09999999999999
 30
0.0
 11
-0.0000000000000019
 21
98.0
 31
0.0
  0
LINE
  5
47
330
1E
100
AcDbEntity
  8
0
100
AcDbLine
 10
42.5
 20
73.79999999999999
 30
0.0
 11
42.5
 21
78.2
 31
0.0
  0
LINE
  5
48
330
1E
100
AcDbEntity
  8
0
100
AcDbLine
 10
42.5
 20
73.79999999999999
 30
0.0
 11
42.5
 21
71.0
 31
0.0
  0
LINE
  5
49
330
1E
100
AcDbEntity
  8
0
100
AcDbLine
 10
42.5
 20
78.2
 30
0.0
 11
42.5
 21
84.1
 31
0.0
  0
LINE
  5
4A
330
1E
100
AcDbEntity
  8
0
100
AcDbLine
 10
42.5
 20
78.2
 30
0.0
 11
42.5
 21
73.79999999999999
 31
0.0
  0
LINE
  5
4B
330
1E
100
AcDbEntity
  8
0
100
AcDbLine
 10
44.0
 20
75.0
 30
0.0
 11
44.0
 21
79.2
 31
0.0
  0
LINE
  5
4C
330
1E
100
AcDbEntity
  8
0
100
AcDbLine
 10
44.0
 20
79.2
 30
0.0
 11
44.0
 21
84.8
 31
0.0
  0
LINE
  5
4D
330
1E
100
AcDbEntity
  8
0
100
AcDbLine
 10
44.0
 20
84.8
 30
0.0
 11
44.0
 21
91.09999999999999
 31
0.0
  0
LINE
  5
4E
330
1E
100
AcDbEntity
  8
0
100
AcDbLine
 10
42.5
 20
84.1
 30
0.0
 11
42.5
 21
90.8
 31
0.0
  0
LINE
  5
4F
330
1E
100
AcDbEntity
  8
0
100
AcDbLine
 10
42.5
 20
84.1
 30
0.0
 11
42.5
 21
78.2
 31
0.0
  0
LINE
  5
50
330
1E
100
AcDbEntity
  8
0
100
AcDbLine
 10
44.0
 20
91.09999999999999
 30
0.0
 11
44.0
 21
98.0
 31
0.0
  0
LINE
  5
51
330
1E
100
AcDbEntity
  8
0
100
AcDbLine
 10
42.5
 20
98.0
 30
0.0
 11
42.5
 21
90.8
 31
0.0
  0
LINE
  5
52
330
1E
100
AcDbEntity
  8
0
100
AcDbLine
 10
42.5
 20
90.8
 30
0.0
 11
42.5
 21
98.0
 31
0.0
  0
LINE
  5
53
330
1E
100
AcDbEntity
  8
0
100
AcDbLine
 10
42.5
 20
90.8
 30
0.0
 11
42.5
 21
84.1
 31
0.0
  0
LINE
  5
54
330
1E
100
AcDbEntity
  8
0
100
AcDbLine
 10
-0.0000000000000019
 20
98.0
 30
0.0
 11
-0.0000000000000015
 21
104.9
 31
0.0
  0
LINE
  5
55
330
1E
100
AcDbEntity
  8
0
100
AcDbLine
 10
44.0
 20
73.6666666666667
 30
0.0
 11
45.0
 21
73.5
 31
0.0
  0
LINE
  5
56
330
1E
100
AcDbEntity
  8
0
100
AcDbLine
 10
59.0
 20
74.29999999999999
 30
0.0
 11
59.0
 21
76.7
 31
0.0
  0
LINE
  5
57
330
1E
100
AcDbEntity
  8
0
100
AcDbLine
 10
59.0
 20
76.7
 30
0.0
 11
59.0
 21
80.7
 31
0.0
  0
LINE
  5
58
330
1E
100
AcDbEntity
  8
0
100
AcDbLine
 10
59.0
 20
80.7
 30
0.0
 11
59.0
 21
85.7
 31
0.0
  0
LINE
  5
59
330
1E
100
AcDbEntity
  8
0
100
AcDbLine
 10
59.0
 20
85.7
 30
0.0
 11
59.0
 21
91.6
 31
0.0
  0
LINE
  5
5A
330
1E
100
AcDbEntity
  8
0
100
AcDbLine
 10
59.0
 20
98.0
 30
0.0
 11
59.0
 21
104.4
 31
0.0
  0
LINE
  5
5B
330
1E
100
AcDbEntity
  8
0
100
AcDbLine
 10
59.0
 20
91.6
 30
0.0
 11
59.0
 21
98.0
 31
0.0
  0
LINE
  5
5C
330
1E
100
AcDbEntity
  8
0
100
AcDbLine
 10
45.0
 20
73.5
 30
0.0
 11
59.0
 21
73.5
 31
0.0
  0
LINE
  5
5D
330
1E
100
AcDbEntity
  8
0
100
AcDbLine
 10
41.29999999999999
 20
111.2
 30
0.0
 11
42.5
 21
104.9
 31
0.0
  0
LINE
  5
5E
330
1E
100
AcDbEntity
  8
0
100
AcDbLine
 10
42.5
 20
104.9
 30
0.0
 11
44.0
 21
98.0
 31
0.0
  0
LINE
  5
5F
330
1E
100
AcDbEntity
  8
0
100
AcDbLine
 10
41.0
 20
105.2
 30
0.0
 11
42.5
 21
98.0
 31
0.0
  0
LINE
  5
60
330
1E
100
AcDbEntity
  8
0
100
AcDbLine
 10
39.8
 20
111.8999999999999
 30
0.0
 11
41.0
 21
105.2
 31
0.0
  0
LINE
  5
61
330
1E
100
AcDbEntity
  8
0
100
AcDbLine
 10
-0.0000000000000011
 20
111.2
 30
0.0
 11
-0.0000000000000008
 21
116.7999999999999
 31
0.0
  0
LINE
  5
62
330
1E
100
AcDbEntity
  8
0
100
AcDbLine
 10
-0.0000000000000015
 20
104.9
 30
0.0
 11
-0.0000000000000011
 21
111.2
 31
0.0
  0
LINE
  5
63
330
1E
100
AcDbEntity
  8
0
100
AcDbLine
 10
38.63
 20
117.7999999999999
 30
0.0
 11
39.8
 21
111.8999999999999
 31
0.0
  0
LINE
  5
64
330
1E
100
AcDbEntity
  8
0
100
AcDbLine
 10
-0.0000000000000005
 20
121.0
 30
0.0
 11
-0.0000000000000003
 21
123.5999999999999
 31
0.0
  0
LINE
  5
65
330
1E
100
AcDbEntity
  8
0
100
AcDbLine
 10
-0.0000000000000008
 20
116.7999999999999
 30
0.0
 11
-0.0000000000000005
 21
121.0
 31
0.0
  0
LINE
  5
66
330
1E
100
AcDbEntity
  8
0
100
AcDbLine
 10
39.29999999999999
 20
121.0
 30
0.0
 11
40.13
 21
116.7999999999999
 31
0.0
  0
LINE
  5
67
330
1E
100
AcDbEntity
  8
0
100
AcDbLine
 10
40.13
 20
116.7999999999999
 30
0.0
 11
41.29999999999999
 21
111.2
 31
0.0
  0
LINE
  5
68
330
1E
100
AcDbEntity
  8
0
100
AcDbLine
 10
39.27956989247309
 20
121.093189964158
 30
0.0
 11
42.0
 21
122.0
 31
0.0
  0
LINE
  5
69
330
1E
100
AcDbEntity
  8
0
100
AcDbLine
 10
38.72999999999999
 20
123.5999999999999
 30
0.0
 11
39.29999999999999
 21
121.0
 31
0.0
  0
LINE
  5
6A
330
1E
100
AcDbEntity
  8
0
100
AcDbLine
 10
37.79999999999999
 20
122.1999999999999
 30
0.0
 11
38.63
 21
117.7999999999999
 31
0.0
  0
LINE
  5
6B
330
1E
100
AcDbEntity
  8
0
100
AcDbLine
 10
-0.0000000000000003
 20
123.5999999999999
 30
0.0
 11
-0.0000000000000003
 21
124.5
 31
0.0
  0
LINE
  5
6C
330
1E
100
AcDbEntity
  8
0
100
AcDbLine
 10
42.0
 20
122.0
 30
0.0
 11
45.0
 21
122.5
 31
0.0
  0
LINE
  5
6D
330
1E
100
AcDbEntity
  8
0
100
AcDbLine
 10
45.0
 20
122.5
 30
0.0
 11
59.0
 21
122.5
 31
0.0
  0
LINE
  5
6E
330
1E
100
AcDbEntity
  8
0
100
AcDbLine
 10
59.0
 20
121.7
 30
0.0
 11
59.0
 21
122.5
 31
0.0
  0
LINE
  5
6F
330
1E
100
AcDbEntity
  8
0
100
AcDbLine
 10
59.0
 20
119.3
 30
0.0
 11
59.0
 21
124.3
 31
0.0
  0
LINE
  5
70
330
1E
100
AcDbEntity
  8
0
100
AcDbLine
 10
59.0
 20
115.3
 30
0.0
 11
59.0
 21
119.3
 31
0.0
  0
LINE
  5
71
330
1E
100
AcDbEntity
  8
0
100
AcDbLine
 10
59.0
 20
110.2999999999999
 30
0.0
 11
59.0
 21
115.3
 31
0.0
  0
LINE
  5
72
330
1E
100
AcDbEntity
  8
0
100
AcDbLine
 10
59.0
 20
104.4
 30
0.0
 11
59.0
 21
110.2999999999999
 31
0.0
  0
LINE
  5
73
330
1E
100
AcDbEntity
  8
0
100
AcDbLine
 10
59.0
 20
113.7999999999999
 30
0.0
 11
59.0
 21
103.7
 31
0.0
  0
LINE
  5
74
330
1E
100
AcDbEntity
  8
0
100
AcDbLine
 10
59.0
 20
103.7
 30
0.0
 11
59.0
 21
113.7999999999999
 31
0.0
  0
LINE
  5
75
330
1E
100
AcDbEntity
  8
0
100
AcDbLine
 10
59.0
 20
103.7
 30
0.0
 11
59.0
 21
94.19999999999999
 31
0.0
  0
LINE
  5
76
330
1E
100
AcDbEntity
  8
0
100
AcDbLine
 10
59.0
 20
85.20000000000001
 30
0.0
 11
59.0
 21
94.19999999999999
 31
0.0
  0
LINE
  5
77
330
1E
100
AcDbEntity
  8
0
100
AcDbLine
 10
59.0
 20
64.0
 30
0.0
 11
59.0
 21
70.0
 31
0.0
  0
LINE
  5
78
330
1E
100
AcDbEntity
  8
0
100
AcDbLine
 10
59.0
 20
64.0
 30
0.0
 11
59.0
 21
59.4
 31
0.0
  0
LINE
  5
79
330
1E
100
AcDbEntity
  8
0
100
AcDbLine
 10
59.0
 20
94.19999999999999
 30
0.0
 11
59.0
 21
85.20000000000001
 31
0.0
  0
LINE
  5
7A
330
1E
100
AcDbEntity
  8
0
100
AcDbLine
 10
59.0
 20
94.19999999999999
 30
0.0
 11
59.0
 21
103.7
 31
0.0
  0
LINE
  5
7B
330
1E
100
AcDbEntity
  8
0
100
AcDbLine
 10
59.0
 20
59.4
 30
0.0
 11
59.0
 21
64.0
 31
0.0
  0
LINE
  5
7C
330
1E
100
AcDbEntity
  8
0
100
AcDbLine
 10
59.0
 20
59.4
 30
0.0
 11
59.0
 21
56.0
 31
0.0
  0
LINE
  5
7D
330
1E
100
AcDbEntity
  8
0
100
AcDbLine
 10
59.0
 20
56.0
 30
0.0
 11
59.0
 21
59.4
 31
0.0
  0
LINE
  5
7E
330
1E
100
AcDbEntity
  8
0
100
AcDbLine
 10
59.0
 20
56.0
 30
0.0
 11
59.0
 21
53.79999999999999
 31
0.0
  0
LINE
  5
7F
330
1E
100
AcDbEntity
  8
0
100
AcDbLine
 10
59.0
 20
53.79999999999999
 30
0.0
 11
59.0
 21
56.0
 31
0.0
  0
LINE
  5
80
330
1E
100
AcDbEntity
  8
0
100
AcDbLine
 10
59.0
 20
53.79999999999999
 30
0.0
 11
59.0
 21
53.0
 31
0.0
  0
LINE
  5
81
330
1E
100
AcDbEntity
  8
0
100
AcDbLine
 10
59.0
 20
70.0
 30
0.0
 11
59.0
 21
73.5
 31
0.0
  0
LINE
  5
82
330
1E
100
AcDbEntity
  8
0
100
AcDbLine
 10
59.0
 20
70.0
 30
0.0
 11
59.0
 21
64.0
 31
0.0
  0
LINE
  5
83
330
1E
100
AcDbEntity
  8
0
100
AcDbLine
 10
-0.0000000000000003
 20
124.5
 30
0.0
 11
0.3
 21
125.2
 31
0.0
  0
LINE
  5
84
330
1E
100
AcDbEntity
  8
0
100
AcDbLine
 10
38.5
 20
124.5
 30
0.0
 11
38.72999999999999
 21
123.5999999999999
 31
0.0
  0
LINE
  5
85
330
1E
100
AcDbEntity
  8
0
100
AcDbLine
 10
37.22999999999999
 20
125.0
 30
0.0
 11
37.79999999999999
 21
122.1999999999999
 31
0.0
  0
LINE
  5
86
330
1E
100
AcDbEntity
  8
0
100
AcDbLine
 10
1.5
 20
126.0
 30
0.0
 11
37.0
 21
126.0
 31
0.0
  0
LINE
  5
87
330
1E
100
AcDbEntity
  8
0
100
AcDbLine
 10
37.0
 20
126.0
 30
0.0
 11
38.5
 21
124.5
 31
0.0
  0
LINE
  5
88
330
1E
100
AcDbEntity
  8
0
100
AcDbLine
 10
37.0
 20
126.0
 30
0.0
 11
37.22999999999999
 21
125.0
 31
0.0
  0
LINE
  5
89
330
1E
100
AcDbEntity
  8
0
100
AcDbLine
 10
1.5
 20
126.0
 30
0.0
 11
37.0
 21
126.0
 31
0.0
  0
LINE
  5
8A
330
1E
100
AcDbEntity
  8
0
100
AcDbLine
 10
0.8
 20
125.7
 30
0.0
 11
1.5
 21
126.0
 31
0.0
  0
LINE
  5
8B
330
1E
100
AcDbEntity
  8
0
100
AcDbLine
 10
0.3
 20
125.2
 30
0.0
 11
0.8
 21
125.7
 31
0.0
  0
LINE
  5
8C
330
1E
100
AcDbEntity
  8
0
100
AcDbLine
 10
-0.0000000000000003
 20
124.5
 30
0.0
 11
0.3
 21
125.2
 31
0.0
  0
LINE
  5
8D
330
1E
100
AcDbEntity
  8
0
100
AcDbLine
 10
59.0
 20
124.3
 30
0.0
 11
59.0
 21
135.0
 31
0.0
  0
LINE
  5
8E
330
1E
100
AcDbEntity
  8
0
100
AcDbLine
 10
59.0
 20
73.5
 30
0.0
 11
59.0
 21
70.0
 31
0.0
  0
LINE
  5
8F
330
1E
100
AcDbEntity
  8
0
100
AcDbLine
 10
59.0
 20
73.5
 30
0.0
 11
59.0
 21
74.29999999999999
 31
0.0
  0
LINE
  5
90
330
1E
100
AcDbEntity
  8
0
100
AcDbLine
 10
6.0
 20
155.0
 30
0.0
 11
6.0
 21
155.6
 31
0.0
  0
LINE
  5
91
330
1E
100
AcDbEntity
  8
0
100
AcDbLine
 10
6.0
 20
155.0
 30
0.0
 11
7.0
 21
154.0
 31
0.0
  0
LINE
  5
92
330
1E
100
AcDbEntity
  8
0
100
AcDbLine
 10
6.0
 20
155.6
 30
0.0
 11
6.0
 21
155.0
 31
0.0
  0
LINE
  5
93
330
1E
100
AcDbEntity
  8
0
100
AcDbLine
 10
6.0
 20
155.6
 30
0.0
 11
6.0
 21
157.3
 31
0.0
  0
LINE
  5
94
330
1E
100
AcDbEntity
  8
0
100
AcDbLine
 10
6.0
 20
157.3
 30
0.0
 11
6.0
 21
155.6
 31
0.0
  0
LINE
  5
95
330
1E
100
AcDbEntity
  8
0
100
AcDbLine
 10
6.0
 20
157.3
 30
0.0
 11
6.0
 21
160.0
 31
0.0
  0
LINE
  5
96
330
1E
100
AcDbEntity
  8
0
100
AcDbLine
 10
6.0
 20
160.0
 30
0.0
 11
6.0
 21
157.3
 31
0.0
  0
LINE
  5
97
330
1E
100
AcDbEntity
  8
0
100
AcDbLine
 10
6.0
 20
160.0
 30
0.0
 11
6.0
 21
163.4999999999999
 31
0.0
  0
LINE
  5
98
330
1E
100
AcDbEntity
  8
0
100
AcDbLine
 10
8.0
 20
154.0
 30
0.0
 11
8.0
 21
154.6
 31
0.0
  0
LINE
  5
99
330
1E
100
AcDbEntity
  8
0
100
AcDbLine
 10
7.0
 20
154.6
 30
0.0
 11
7.0
 21
156.4
 31
0.0
  0
LINE
  5
9A
330
1E
100
AcDbEntity
  8
0
100
AcDbLine
 10
7.0
 20
154.6
 30
0.0
 11
7.0
 21
154.0
 31
0.0
  0
LINE
  5
9B
330
1E
100
AcDbEntity
  8
0
100
AcDbLine
 10
7.0
 20
156.4
 30
0.0
 11
7.0
 21
159.3
 31
0.0
  0
LINE
  5
9C
330
1E
100
AcDbEntity
  8
0
100
AcDbLine
 10
7.0
 20
156.4
 30
0.0
 11
7.0
 21
154.6
 31
0.0
  0
LINE
  5
9D
330
1E
100
AcDbEntity
  8
0
100
AcDbLine
 10
7.0
 20
159.3
 30
0.0
 11
7.0
 21
163.0
 31
0.0
  0
LINE
  5
9E
330
1E
100
AcDbEntity
  8
0
100
AcDbLine
 10
7.0
 20
163.0
 30
0.0
 11
7.0
 21
167.4
 31
0.0
  0
LINE
  5
9F
330
1E
100
AcDbEntity
  8
0
100
AcDbLine
 10
7.0
 20
163.0
 30
0.0
 11
7.0
 21
159.3
 31
0.0
  0
LINE
  5
A0
330
1E
100
AcDbEntity
  8
0
100
AcDbLine
 10
8.0
 20
154.6
 30
0.0
 11
8.0
 21
156.4
 31
0.0
  0
LINE
  5
A1
330
1E
100
AcDbEntity
  8
0
100
AcDbLine
 10
8.0
 20
154.6
 30
0.0
 11
8.0
 21
154.0
 31
0.0
  0
LINE
  5
A2
330
1E
100
AcDbEntity
  8
0
100
AcDbLine
 10
8.0
 20
157.0
 30
0.0
 11
40.0
 21
157.0
 31
0.0
  0
LINE
  5
A3
330
1E
100
AcDbEntity
  8
0
100
AcDbLine
 10
8.0
 20
156.4
 30
0.0
 11
8.0
 21
159.3
 31
0.0
  0
LINE
  5
A4
330
1E
100
AcDbEntity
  8
0
100
AcDbLine
 10
8.0
 20
156.4
 30
0.0
 11
8.0
 21
154.6
 31
0.0
  0
LINE
  5
A5
330
1E
100
AcDbEntity
  8
0
100
AcDbLine
 10
59.0
 20
157.0
 30
0.0
 11
59.0
 21
157.5
 31
0.0
  0
LINE
  5
A6
330
1E
100
AcDbEntity
  8
0
100
AcDbLine
 10
42.0
 20
157.0
 30
0.0
 11
59.0
 21
157.0
 31
0.0
  0
LINE
  5
A7
330
1E
100
AcDbEntity
  8
0
100
AcDbLine
 10
42.0
 20
157.0
 30
0.0
 11
42.0
 21
157.5
 31
0.0
  0
LINE
  5
A8
330
1E
100
AcDbEntity
  8
0
100
AcDbLine
 10
40.0
 20
157.5
 30
0.0
 11
40.0
 21
159.0
 31
0.0
  0
LINE
  5
A9
330
1E
100
AcDbEntity
  8
0
100
AcDbLine
 10
40.0
 20
157.5
 30
0.0
 11
40.0
 21
157.0
 31
0.0
  0
LINE
  5
AA
330
1E
100
AcDbEntity
  8
0
100
AcDbLine
 10
41.0
 20
158.4999999999999
 30
0.0
 11
41.0
 21
159.9
 31
0.0
  0
LINE
  5
AB
330
1E
100
AcDbEntity
  8
0
100
AcDbLine
 10
41.0
 20
158.4999999999999
 30
0.0
 11
41.0
 21
158.0
 31
0.0
  0
LINE
  5
AC
330
1E
100
AcDbEntity
  8
0
100
AcDbLine
 10
41.0
 20
159.9
 30
0.0
 11
41.0
 21
162.0999999999999
 31
0.0
  0
LINE
  5
AD
330
1E
100
AcDbEntity
  8
0
100
AcDbLine
 10
41.0
 20
159.9
 30
0.0
 11
41.0
 21
158.4999999999999
 31
0.0
  0
LINE
  5
AE
330
1E
100
AcDbEntity
  8
0
100
AcDbLine
 10
40.0
 20
159.0
 30
0.0
 11
40.0
 21
161.4
 31
0.0
  0
LINE
  5
AF
330
1E
100
AcDbEntity
  8
0
100
AcDbLine
 10
40.0
 20
159.0
 30
0.0
 11
40.0
 21
157.5
 31
0.0
  0
LINE
  5
B0
330
1E
100
AcDbEntity
  8
0
100
AcDbLine
 10
41.0
 20
162.0999999999999
 30
0.0
 11
41.0
 21
165.0
 31
0.0
  0
LINE
  5
B1
330
1E
100
AcDbEntity
  8
0
100
AcDbLine
 10
41.0
 20
162.0999999999999
 30
0.0
 11
41.0
 21
159.9
 31
0.0
  0
LINE
  5
B2
330
1E
100
AcDbEntity
  8
0
100
AcDbLine
 10
40.0
 20
161.4
 30
0.0
 11
40.0
 21
164.5
 31
0.0
  0
LINE
  5
B3
330
1E
100
AcDbEntity
  8
0
100
AcDbLine
 10
40.0
 20
161.4
 30
0.0
 11
40.0
 21
159.0
 31
0.0
  0
LINE
  5
B4
330
1E
100
AcDbEntity
  8
0
100
AcDbLine
 10
8.0
 20
159.3
 30
0.0
 11
8.0
 21
163.0
 31
0.0
  0
LINE
  5
B5
330
1E
100
AcDbEntity
  8
0
100
AcDbLine
 10
8.0
 20
159.3
 30
0.0
 11
8.0
 21
156.4
 31
0.0
  0
LINE
  5
B6
330
1E
100
AcDbEntity
  8
0
100
AcDbLine
 10
41.0
 20
165.0
 30
0.0
 11
41.0
 21
168.4
 31
0.0
  0
LINE
  5
B7
330
1E
100
AcDbEntity
  8
0
100
AcDbLine
 10
41.0
 20
165.0
 30
0.0
 11
41.0
 21
162.0999999999999
 31
0.0
  0
LINE
  5
B8
330
1E
100
AcDbEntity
  8
0
100
AcDbLine
 10
40.0
 20
164.5
 30
0.0
 11
40.0
 21
168.1
 31
0.0
  0
LINE
  5
B9
330
1E
100
AcDbEntity
  8
0
100
AcDbLine
 10
40.0
 20
164.5
 30
0.0
 11
40.0
 21
161.4
 31
0.0
  0
LINE
  5
BA
330
1E
100
AcDbEntity
  8
0
100
AcDbLine
 10
8.0
 20
163.0
 30
0.0
 11
8.0
 21
167.4
 31
0.0
  0
LINE
  5
BB
330
1E
100
AcDbEntity
  8
0
100
AcDbLine
 10
8.0
 20
163.0
 30
0.0
 11
8.0
 21
159.3
 31
0.0
  0
LINE
  5
BC
330
1E
100
AcDbEntity
  8
0
100
AcDbLine
 10
42.0
 20
157.5
 30
0.0
 11
42.0
 21
159.0
 31
0.0
  0
LINE
  5
BD
330
1E
100
AcDbEntity
  8
0
100
AcDbLine
 10
42.0
 20
157.5
 30
0.0
 11
42.0
 21
157.0
 31
0.0
  0
LINE
  5
BE
330
1E
100
AcDbEntity
  8
0
100
AcDbLine
 10
42.0
 20
159.0
 30
0.0
 11
42.0
 21
161.4
 31
0.0
  0
LINE
  5
BF
330
1E
100
AcDbEntity
  8
0
100
AcDbLine
 10
42.0
 20
159.0
 30
0.0
 11
42.0
 21
157.5
 31
0.0
  0
LINE
  5
C0
330
1E
100
AcDbEntity
  8
0
100
AcDbLine
 10
59.0
 20
157.5
 30
0.0
 11
59.0
 21
159.0
 31
0.0
  0
LINE
  5
C1
330
1E
100
AcDbEntity
  8
0
100
AcDbLine
 10
59.0
 20
159.0
 30
0.0
 11
59.0
 21
161.4
 31
0.0
  0
LINE
  5
C2
330
1E
100
AcDbEntity
  8
0
100
AcDbLine
 10
59.0
 20
161.4
 30
0.0
 11
59.0
 21
164.5
 31
0.0
  0
LINE
  5
C3
330
1E
100
AcDbEntity
  8
0
100
AcDbLine
 10
59.0
 20
164.5
 30
0.0
 11
59.0
 21
168.1
 31
0.0
  0
LINE
  5
C4
330
1E
100
AcDbEntity
  8
0
100
AcDbLine
 10
42.0
 20
161.4
 30
0.0
 11
42.0
 21
164.5
 31
0.0
  0
LINE
  5
C5
330
1E
100
AcDbEntity
  8
0
100
AcDbLine
 10
42.0
 20
161.4
 30
0.0
 11
42.0
 21
159.0
 31
0.0
  0
LINE
  5
C6
330
1E
100
AcDbEntity
  8
0
100
AcDbLine
 10
42.0
 20
164.5
 30
0.0
 11
42.0
 21
168.1
 31
0.0
  0
LINE
  5
C7
330
1E
100
AcDbEntity
  8
0
100
AcDbLine
 10
42.0
 20
164.5
 30
0.0
 11
42.0
 21
161.4
 31
0.0
  0
LINE
  5
C8
330
1E
100
AcDbEntity
  8
0
100
AcDbLine
 10
41.0
 20
158.0
 30
0.0
 11
42.0
 21
157.0
 31
0.0
  0
LINE
  5
C9
330
1E
100
AcDbEntity
  8
0
100
AcDbLine
 10
41.0
 20
158.0
 30
0.0
 11
41.0
 21
158.4999999999999
 31
0.0
  0
LINE
  5
CA
330
1E
100
AcDbEntity
  8
0
100
AcDbLine
 10
40.0
 20
157.0
 30
0.0
 11
41.0
 21
158.0
 31
0.0
  0
LINE
  5
CB
330
1E
100
AcDbEntity
  8
0
100
AcDbLine
 10
40.0
 20
157.0
 30
0.0
 11
40.0
 21
157.5
 31
0.0
  0
LINE
  5
CC
330
1E
100
AcDbEntity
  8
0
100
AcDbLine
 10
8.0
 20
157.0
 30
0.0
 11
40.0
 21
157.0
 31
0.0
  0
LINE
  5
CD
330
1E
100
AcDbEntity
  8
0
100
AcDbLine
 10
7.0
 20
154.0
 30
0.0
 11
8.0
 21
154.0
 31
0.0
  0
LINE
  5
CE
330
1E
100
AcDbEntity
  8
0
100
AcDbLine
 10
7.0
 20
154.0
 30
0.0
 11
7.0
 21
154.6
 31
0.0
  0
LINE
  5
CF
330
1E
100
AcDbEntity
  8
0
100
AcDbLine
 10
6.0
 20
163.4999999999999
 30
0.0
 11
6.0
 21
167.5999999999999
 31
0.0
  0
LINE
  5
D0
330
1E
100
AcDbEntity
  8
0
100
AcDbLine
 10
6.0
 20
163.4999999999999
 30
0.0
 11
6.0
 21
160.0
 31
0.0
  0
LINE
  5
D1
330
1E
100
AcDbEntity
  8
0
100
AcDbLine
 10
6.0
 20
167.5999999999999
 30
0.0
 11
6.0
 21
172.0
 31
0.0
  0
LINE
  5
D2
330
1E
100
AcDbEntity
  8
0
100
AcDbLine
 10
6.0
 20
172.0
 30
0.0
 11
6.0
 21
176.4
 31
0.0
  0
LINE
  5
D3
330
1E
100
AcDbEntity
  8
0
100
AcDbLine
 10
6.0
 20
172.0
 30
0.0
 11
6.0
 21
167.5999999999999
 31
0.0
  0
LINE
  5
D4
330
1E
100
AcDbEntity
  8
0
100
AcDbLine
 10
6.0
 20
180.4999999999999
 30
0.0
 11
6.0
 21
176.4
 31
0.0
  0
LINE
  5
D5
330
1E
100
AcDbEntity
  8
0
100
AcDbLine
 10
6.0
 20
180.4999999999999
 30
0.0
 11
6.0
 21
184.0
 31
0.0
  0
LINE
  5
D6
330
1E
100
AcDbEntity
  8
0
100
AcDbLine
 10
7.0
 20
167.4
 30
0.0
 11
7.0
 21
172.0
 31
0.0
  0
LINE
  5
D7
330
1E
100
AcDbEntity
  8
0
100
AcDbLine
 10
7.0
 20
167.4
 30
0.0
 11
7.0
 21
163.0
 31
0.0
  0
LINE
  5
D8
330
1E
100
AcDbEntity
  8
0
100
AcDbLine
 10
40.0
 20
168.1
 30
0.0
 11
40.0
 21
172.0
 31
0.0
  0
LINE
  5
D9
330
1E
100
AcDbEntity
  8
0
100
AcDbLine
 10
40.0
 20
168.1
 30
0.0
 11
40.0
 21
164.5
 31
0.0
  0
LINE
  5
DA
330
1E
100
AcDbEntity
  8
0
100
AcDbLine
 10
8.0
 20
176.6
 30
0.0
 11
8.0
 21
181.0
 31
0.0
  0
LINE
  5
DB
330
1E
100
AcDbEntity
  8
0
100
AcDbLine
 10
8.0
 20
176.6
 30
0.0
 11
8.0
 21
172.0
 31
0.0
  0
LINE
  5
DC
330
1E
100
AcDbEntity
  8
0
100
AcDbLine
 10
40.0
 20
175.9
 30
0.0
 11
40.0
 21
179.4999999999999
 31
0.0
  0
LINE
  5
DD
330
1E
100
AcDbEntity
  8
0
100
AcDbLine
 10
40.0
 20
175.9
 30
0.0
 11
40.0
 21
172.0
 31
0.0
  0
LINE
  5
DE
330
1E
100
AcDbEntity
  8
0
100
AcDbLine
 10
8.0
 20
172.0
 30
0.0
 11
8.0
 21
176.6
 31
0.0
  0
LINE
  5
DF
330
1E
100
AcDbEntity
  8
0
100
AcDbLine
 10
7.0
 20
184.6999999999999
 30
0.0
 11
7.0
 21
187.5999999999999
 31
0.0
  0
LINE
  5
E0
330
1E
100
AcDbEntity
  8
0
100
AcDbLine
 10
7.0
 20
184.6999999999999
 30
0.0
 11
7.0
 21
181.0
 31
0.0
  0
LINE
  5
E1
330
1E
100
AcDbEntity
  8
0
100
AcDbLine
 10
40.0
 20
179.4999999999999
 30
0.0
 11
40.0
 21
182.6
 31
0.0
  0
LINE
  5
E2
330
1E
100
AcDbEntity
  8
0
100
AcDbLine
 10
40.0
 20
179.4999999999999
 30
0.0
 11
40.0
 21
175.9
 31
0.0
  0
LINE
  5
E3
330
1E
100
AcDbEntity
  8
0
100
AcDbLine
 10
40.0
 20
186.5
 30
0.0
 11
40.0
 21
187.0
 31
0.0
  0
LINE
  5
E4
330
1E
100
AcDbEntity
  8
0
100
AcDbLine
 10
40.0
 20
186.5
 30
0.0
 11
40.0
 21
185.0
 31
0.0
  0
LINE
  5
E5
330
1E
100
AcDbEntity
  8
0
100
AcDbLine
 10
40.0
 20
185.0
 30
0.0
 11
40.0
 21
186.5
 31
0.0
  0
LINE
  5
E6
330
1E
100
AcDbEntity
  8
0
100
AcDbLine
 10
40.0
 20
185.0
 30
0.0
 11
40.0
 21
182.6
 31
0.0
  0
LINE
  5
E7
330
1E
100
AcDbEntity
  8
0
100
AcDbLine
 10
40.0
 20
182.6
 30
0.0
 11
40.0
 21
185.0
 31
0.0
  0
LINE
  5
E8
330
1E
100
AcDbEntity
  8
0
100
AcDbLine
 10
40.0
 20
182.6
 30
0.0
 11
40.0
 21
179.4999999999999
 31
0.0
  0
LINE
  5
E9
330
1E
100
AcDbEntity
  8
0
100
AcDbLine
 10
8.0
 20
184.6999999999999
 30
0.0
 11
8.0
 21
187.5999999999999
 31
0.0
  0
LINE
  5
EA
330
1E
100
AcDbEntity
  8
0
100
AcDbLine
 10
8.0
 20
184.6999999999999
 30
0.0
 11
8.0
 21
181.0
 31
0.0
  0
LINE
  5
EB
330
1E
100
AcDbEntity
  8
0
100
AcDbLine
 10
8.0
 20
181.0
 30
0.0
 11
8.0
 21
184.6999999999999
 31
0.0
  0
LINE
  5
EC
330
1E
100
AcDbEntity
  8
0
100
AcDbLine
 10
8.0
 20
181.0
 30
0.0
 11
8.0
 21
176.6
 31
0.0
  0
LINE
  5
ED
330
1E
100
AcDbEntity
  8
0
100
AcDbLine
 10
7.0
 20
181.0
 30
0.0
 11
7.0
 21
184.6999999999999
 31
0.0
  0
LINE
  5
EE
330
1E
100
AcDbEntity
  8
0
100
AcDbLine
 10
7.0
 20
181.0
 30
0.0
 11
7.0
 21
176.6
 31
0.0
  0
LINE
  5
EF
330
1E
100
AcDbEntity
  8
0
100
AcDbLine
 10
7.0
 20
176.6
 30
0.0
 11
7.0
 21
181.0
 31
0.0
  0
LINE
  5
F0
330
1E
100
AcDbEntity
  8
0
100
AcDbLine
 10
41.0
 20
185.5
 30
0.0
 11
41.0
 21
186.0
 31
0.0
  0
LINE
  5
F1
330
1E
100
AcDbEntity
  8
0
100
AcDbLine
 10
41.0
 20
185.5
 30
0.0
 11
41.0
 21
184.1
 31
0.0
  0
LINE
  5
F2
330
1E
100
AcDbEntity
  8
0
100
AcDbLine
 10
41.0
 20
184.1
 30
0.0
 11
41.0
 21
185.5
 31
0.0
  0
LINE
  5
F3
330
1E
100
AcDbEntity
  8
0
100
AcDbLine
 10
41.0
 20
184.1
 30
0.0
 11
41.0
 21
181.9
 31
0.0
  0
LINE
  5
F4
330
1E
100
AcDbEntity
  8
0
100
AcDbLine
 10
41.0
 20
181.9
 30
0.0
 11
41.0
 21
184.1
 31
0.0
  0
LINE
  5
F5
330
1E
100
AcDbEntity
  8
0
100
AcDbLine
 10
41.0
 20
181.9
 30
0.0
 11
41.0
 21
179.0
 31
0.0
  0
LINE
  5
F6
330
1E
100
AcDbEntity
  8
0
100
AcDbLine
 10
41.0
 20
179.0
 30
0.0
 11
41.0
 21
181.9
 31
0.0
  0
LINE
  5
F7
330
1E
100
AcDbEntity
  8
0
100
AcDbLine
 10
41.0
 20
179.0
 30
0.0
 11
41.0
 21
175.6
 31
0.0
  0
LINE
  5
F8
330
1E
100
AcDbEntity
  8
0
100
AcDbLine
 10
41.0
 20
175.6
 30
0.0
 11
41.0
 21
179.0
 31
0.0
  0
LINE
  5
F9
330
1E
100
AcDbEntity
  8
0
100
AcDbLine
 10
41.0
 20
175.6
 30
0.0
 11
41.0
 21
172.0
 31
0.0
  0
LINE
  5
FA
330
1E
100
AcDbEntity
  8
0
100
AcDbLine
 10
41.0
 20
172.0
 30
0.0
 11
41.0
 21
168.4
 31
0.0
  0
LINE
  5
FB
330
1E
100
AcDbEntity
  8
0
100
AcDbLine
 10
41.0
 20
172.0
 30
0.0
 11
41.0
 21
175.6
 31
0.0
  0
LINE
  5
FC
330
1E
100
AcDbEntity
  8
0
100
AcDbLine
 10
41.0
 20
168.4
 30
0.0
 11
41.0
 21
172.0
 31
0.0
  0
LINE
  5
FD
330
1E
100
AcDbEntity
  8
0
100
AcDbLine
 10
41.0
 20
168.4
 30
0.0
 11
41.0
 21
165.0
 31
0.0
  0
LINE
  5
FE
330
1E
100
AcDbEntity
  8
0
100
AcDbLine
 10
40.0
 20
172.0
 30
0.0
 11
40.0
 21
168.1
 31
0.0
  0
LINE
  5
FF
330
1E
100
AcDbEntity
  8
0
100
AcDbLine
 10
40.0
 20
172.0
 30
0.0
 11
40.0
 21
175.9
 31
0.0
  0
LINE
  5
100
330
1E
100
AcDbEntity
  8
0
100
AcDbLine
 10
8.0
 20
168.1
 30
0.0
 11
8.0
 21
172.0
 31
0.0
  0
LINE
  5
101
330
1E
100
AcDbEntity
  8
0
100
AcDbLine
 10
7.0
 20
172.0
 30
0.0
 11
7.0
 21
167.4
 31
0.0
  0
LINE
  5
102
330
1E
100
AcDbEntity
  8
0
100
AcDbLine
 10
7.0
 20
172.0
 30
0.0
 11
7.0
 21
176.6
 31
0.0
  0
LINE
  5
103
330
1E
100
AcDbEntity
  8
0
100
AcDbLine
 10
8.0
 20
167.4
 30
0.0
 11
8.0
 21
168.1
 31
0.0
  0
LINE
  5
104
330
1E
100
AcDbEntity
  8
0
100
AcDbLine
 10
8.0
 20
167.4
 30
0.0
 11
8.0
 21
172.0
 31
0.0
  0
LINE
  5
105
330
1E
100
AcDbEntity
  8
0
100
AcDbLine
 10
8.0
 20
167.4
 30
0.0
 11
8.0
 21
163.0
 31
0.0
  0
LINE
  5
106
330
1E
100
AcDbEntity
  8
0
100
AcDbLine
 10
59.0
 20
168.1
 30
0.0
 11
59.0
 21
172.0
 31
0.0
  0
LINE
  5
107
330
1E
100
AcDbEntity
  8
0
100
AcDbLine
 10
42.0
 20
186.5
 30
0.0
 11
42.0
 21
187.0
 31
0.0
  0
LINE
  5
108
330
1E
100
AcDbEntity
  8
0
100
AcDbLine
 10
42.0
 20
186.5
 30
0.0
 11
42.0
 21
185.0
 31
0.0
  0
LINE
  5
109
330
1E
100
AcDbEntity
  8
0
100
AcDbLine
 10
42.0
 20
185.0
 30
0.0
 11
42.0
 21
186.5
 31
0.0
  0
LINE
  5
10A
330
1E
100
AcDbEntity
  8
0
100
AcDbLine
 10
42.0
 20
185.0
 30
0.0
 11
42.0
 21
182.6
 31
0.0
  0
LINE
  5
10B
330
1E
100
AcDbEntity
  8
0
100
AcDbLine
 10
42.0
 20
182.6
 30
0.0
 11
42.0
 21
185.0
 31
0.0
  0
LINE
  5
10C
330
1E
100
AcDbEntity
  8
0
100
AcDbLine
 10
42.0
 20
182.6
 30
0.0
 11
42.0
 21
179.4999999999999
 31
0.0
  0
LINE
  5
10D
330
1E
100
AcDbEntity
  8
0
100
AcDbLine
 10
42.0
 20
179.4999999999999
 30
0.0
 11
42.0
 21
182.6
 31
0.0
  0
LINE
  5
10E
330
1E
100
AcDbEntity
  8
0
100
AcDbLine
 10
42.0
 20
179.4999999999999
 30
0.0
 11
42.0
 21
175.9
 31
0.0
  0
LINE
  5
10F
330
1E
100
AcDbEntity
  8
0
100
AcDbLine
 10
42.0
 20
175.9
 30
0.0
 11
42.0
 21
179.4999999999999
 31
0.0
  0
LINE
  5
110
330
1E
100
AcDbEntity
  8
0
100
AcDbLine
 10
42.0
 20
175.9
 30
0.0
 11
42.0
 21
172.0
 31
0.0
  0
LINE
  5
111
330
1E
100
AcDbEntity
  8
0
100
AcDbLine
 10
59.0
 20
172.0
 30
0.0
 11
59.0
 21
175.9
 31
0.0
  0
LINE
  5
112
330
1E
100
AcDbEntity
  8
0
100
AcDbLine
 10
42.0
 20
172.0
 30
0.0
 11
42.0
 21
168.1
 31
0.0
  0
LINE
  5
113
330
1E
100
AcDbEntity
  8
0
100
AcDbLine
 10
42.0
 20
172.0
 30
0.0
 11
42.0
 21
175.9
 31
0.0
  0
LINE
  5
114
330
1E
100
AcDbEntity
  8
0
100
AcDbLine
 10
42.0
 20
168.1
 30
0.0
 11
42.0
 21
172.0
 31
0.0
  0
LINE
  5
115
330
1E
100
AcDbEntity
  8
0
100
AcDbLine
 10
41.0
 20
186.0
 30
0.0
 11
42.0
 21
187.0
 31
0.0
  0
LINE
  5
116
330
1E
100
AcDbEntity
  8
0
100
AcDbLine
 10
41.0
 20
186.0
 30
0.0
 11
41.0
 21
185.5
 31
0.0
  0
LINE
  5
117
330
1E
100
AcDbEntity
  8
0
100
AcDbLine
 10
8.0
 20
186.5
 30
0.0
 11
8.0
 21
187.0
 31
0.0
  0
LINE
  5
118
330
1E
100
AcDbEntity
  8
0
100
AcDbLine
 10
6.0
 20
184.0
 30
0.0
 11
6.0
 21
186.6999999999999
 31
0.0
  0
LINE
  5
119
330
1E
100
AcDbEntity
  8
0
100
AcDbLine
 10
6.0
 20
189.0
 30
0.0
 11
6.0
 21
188.4
 31
0.0
  0
LINE
  5
11A
330
1E
100
AcDbEntity
  8
0
100
AcDbLine
 10
6.0
 20
189.0
 30
0.0
 11
7.0
 21
190.0
 31
0.0
  0
LINE
  5
11B
330
1E
100
AcDbEntity
  8
0
100
AcDbLine
 10
8.0
 20
187.5999999999999
 30
0.0
 11
8.0
 21
189.4
 31
0.0
  0
LINE
  5
11C
330
1E
100
AcDbEntity
  8
0
100
AcDbLine
 10
8.0
 20
190.0
 30
0.0
 11
8.0
 21
189.4
 31
0.0
  0
LINE
  5
11D
330
1E
100
AcDbEntity
  8
0
100
AcDbLine
 10
8.0
 20
189.4
 30
0.0
 11
8.0
 21
190.0
 31
0.0
  0
LINE
  5
11E
330
1E
100
AcDbEntity
  8
0
100
AcDbLine
 10
8.0
 20
189.4
 30
0.0
 11
8.0
 21
187.5999999999999
 31
0.0
  0
LINE
  5
11F
330
1E
100
AcDbEntity
  8
0
100
AcDbLine
 10
7.0
 20
189.4
 30
0.0
 11
7.0
 21
190.0
 31
0.0
  0
LINE
  5
120
330
1E
100
AcDbEntity
  8
0
100
AcDbLine
 10
7.0
 20
189.4
 30
0.0
 11
7.0
 21
187.5999999999999
 31
0.0
  0
LINE
  5
121
330
1E
100
AcDbEntity
  8
0
100
AcDbLine
 10
7.0
 20
187.5999999999999
 30
0.0
 11
7.0
 21
189.4
 31
0.0
  0
LINE
  5
122
330
1E
100
AcDbEntity
  8
0
100
AcDbLine
 10
7.0
 20
187.5999999999999
 30
0.0
 11
7.0
 21
184.6999999999999
 31
0.0
  0
LINE
  5
123
330
1E
100
AcDbEntity
  8
0
100
AcDbLine
 10
8.000000000000008
 20
187.0
 30
0.0
 11
40.0
 21
187.0
 31
0.0
  0
LINE
  5
124
330
1E
100
AcDbEntity
  8
0
100
AcDbLine
 10
42.0
 20
187.0
 30
0.0
 11
59.0
 21
187.0
 31
0.0
  0
LINE
  5
125
330
1E
100
AcDbEntity
  8
0
100
AcDbLine
 10
42.0
 20
187.0
 30
0.0
 11
42.0
 21
186.5
 31
0.0
  0
LINE
  5
126
330
1E
100
AcDbEntity
  8
0
100
AcDbLine
 10
40.0
 20
187.0
 30
0.0
 11
41.0
 21
186.0
 31
0.0
  0
LINE
  5
127
330
1E
100
AcDbEntity
  8
0
100
AcDbLine
 10
40.0
 20
187.0
 30
0.0
 11
40.0
 21
186.5
 31
0.0
  0
LINE
  5
128
330
1E
100
AcDbEntity
  8
0
100
AcDbLine
 10
8.0
 20
187.0
 30
0.0
 11
8.0
 21
186.5
 31
0.0
  0
LINE
  5
129
330
1E
100
AcDbEntity
  8
0
100
AcDbLine
 10
8.0
 20
187.0
 30
0.0
 11
40.0
 21
187.0
 31
0.0
  0
LINE
  5
12A
330
1E
100
AcDbEntity
  8
0
100
AcDbLine
 10
7.0
 20
190.0
 30
0.0
 11
8.0
 21
190.0
 31
0.0
  0
LINE
  5
12B
330
1E
100
AcDbEntity
  8
0
100
AcDbLine
 10
7.0
 20
190.0
 30
0.0
 11
7.0
 21
189.4
 31
0.0
  0
LINE
  5
12C
330
1E
100
AcDbEntity
  8
0
100
AcDbLine
 10
6.0
 20
188.4
 30
0.0
 11
6.0
 21
186.6999999999999
 31
0.0
  0
LINE
  5
12D
330
1E
100
AcDbEntity
  8
0
100
AcDbLine
 10
6.0
 20
188.4
 30
0.0
 11
6.0
 21
189.0
 31
0.0
  0
LINE
  5
12E
330
1E
100
AcDbEntity
  8
0
100
AcDbLine
 10
6.0
 20
186.6999999999999
 30
0.0
 11
6.0
 21
184.0
 31
0.0
  0
LINE
  5
12F
330
1E
100
AcDbEntity
  8
0
100
AcDbLine
 10
6.0
 20
186.6999999999999
 30
0.0
 11
6.0
 21
188.4
 31
0.0
  0
LINE
  5
130
330
1E
100
AcDbEntity
  8
0
100
AcDbLine
 10
6.0
 20
176.4
 30
0.0
 11
6.0
 21
172.0
 31
0.0
  0
LINE
  5
131
330
1E
100
AcDbEntity
  8
0
100
AcDbLine
 10
6.0
 20
176.4
 30
0.0
 11
6.0
 21
180.4999999999999
 31
0.0
  0
LINE
  5
132
330
1E
100
AcDbEntity
  8
0
100
AcDbLine
 10
59.0
 20
166.3
 30
0.0
 11
59.0
 21
175.8
 31
0.0
  0
LINE
  5
133
330
1E
100
AcDbEntity
  8
0
100
AcDbLine
 10
59.0
 20
166.3
 30
0.0
 11
59.0
 21
156.1999999999999
 31
0.0
  0
LINE
  5
134
330
1E
100
AcDbEntity
  8
0
100
AcDbLine
 10
59.0
 20
156.1999999999999
 30
0.0
 11
59.0
 21
145.6999999999999
 31
0.0
  0
LINE
  5
135
330
1E
100
AcDbEntity
  8
0
100
AcDbLine
 10
59.0
 20
156.1999999999999
 30
0.0
 11
59.0
 21
166.3
 31
0.0
  0
LINE
  5
136
330
1E
100
AcDbEntity
  8
0
100
AcDbLine
 10
59.0
 20
145.6999999999999
 30
0.0
 11
59.0
 21
156.1999999999999
 31
0.0
  0
LINE
  5
137
330
1E
100
AcDbEntity
  8
0
100
AcDbLine
 10
59.0
 20
145.6999999999999
 30
0.0
 11
59.0
 21
135.0
 31
0.0
  0
LINE
  5
138
330
1E
100
AcDbEntity
  8
0
100
AcDbLine
 10
59.0
 20
182.6
 30
0.0
 11
59.0
 21
185.0
 31
0.0
  0
LINE
  5
139
330
1E
100
AcDbEntity
  8
0
100
AcDbLine
 10
59.0
 20
179.4999999999999
 30
0.0
 11
59.0
 21
182.6
 31
0.0
  0
LINE
  5
13A
330
1E
100
AcDbEntity
  8
0
100
AcDbLine
 10
59.0
 20
175.9
 30
0.0
 11
59.0
 21
179.4999999999999
 31
0.0
  0
LINE
  5
13B
330
1E
100
AcDbEntity
  8
0
100
AcDbLine
 10
59.0
 20
175.8
 30
0.0
 11
59.0
 21
184.8
 31
0.0
  0
LINE
  5
13C
330
1E
100
AcDbEntity
  8
0
100
AcDbLine
 10
59.0
 20
186.5
 30
0.0
 11
59.0
 21
187.0
 31
0.0
  0
LINE
  5
13D
330
1E
100
AcDbEntity
  8
0
100
AcDbLine
 10
59.0
 20
185.0
 30
0.0
 11
59.0
 21
186.5
 31
0.0
  0
LINE
  5
13E
330
1E
100
AcDbEntity
  8
0
100
AcDbLine
 10
59.0
 20
206.0
 30
0.0
 11
59.0
 21
200.0
 31
0.0
  0
LINE
  5
13F
330
1E
100
AcDbEntity
  8
0
100
AcDbLine
 10
59.0
 20
206.0
 30
0.0
 11
59.0
 21
210.5999999999999
 31
0.0
  0
LINE
  5
140
330
1E
100
AcDbEntity
  8
0
100
AcDbLine
 10
59.0
 20
200.0
 30
0.0
 11
59.0
 21
206.0
 31
0.0
  0
LINE
  5
141
330
1E
100
AcDbEntity
  8
0
100
AcDbLine
 10
59.0
 20
200.0
 30
0.0
 11
59.0
 21
192.9
 31
0.0
  0
LINE
  5
142
330
1E
100
AcDbEntity
  8
0
100
AcDbLine
 10
59.0
 20
192.9
 30
0.0
 11
59.0
 21
200.0
 31
0.0
  0
LINE
  5
143
330
1E
100
AcDbEntity
  8
0
100
AcDbLine
 10
59.0
 20
192.9
 30
0.0
 11
59.0
 21
184.8
 31
0.0
  0
LINE
  5
144
330
1E
100
AcDbEntity
  8
0
100
AcDbLine
 10
59.0
 20
184.8
 30
0.0
 11
59.0
 21
192.9
 31
0.0
  0
LINE
  5
145
330
1E
100
AcDbEntity
  8
0
100
AcDbLine
 10
59.0
 20
184.8
 30
0.0
 11
59.0
 21
175.8
 31
0.0
  0
LINE
  5
146
330
1E
100
AcDbEntity
  8
0
100
AcDbLine
 10
59.0
 20
135.0
 30
0.0
 11
59.0
 21
145.6999999999999
 31
0.0
  0
LINE
  5
147
330
1E
100
AcDbEntity
  8
0
100
AcDbLine
 10
59.0
 20
135.0
 30
0.0
 11
59.0
 21
124.3
 31
0.0
  0
LINE
  5
148
330
1E
100
AcDbEntity
  8
0
100
AcDbLine
 10
59.0
 20
214.0
 30
0.0
 11
59.0
 21
210.5999999999999
 31
0.0
  0
LINE
  5
149
330
1E
100
AcDbEntity
  8
0
100
AcDbLine
 10
59.0
 20
214.0
 30
0.0
 11
59.0
 21
216.1999999999999
 31
0.0
  0
LINE
  5
14A
330
1E
100
AcDbEntity
  8
0
100
AcDbLine
 10
59.0
 20
210.5999999999999
 30
0.0
 11
59.0
 21
214.0
 31
0.0
  0
LINE
  5
14B
330
1E
100
AcDbEntity
  8
0
100
AcDbLine
 10
59.0
 20
210.5999999999999
 30
0.0
 11
59.0
 21
206.0
 31
0.0
  0
LINE
  5
14C
330
1E
100
AcDbEntity
  8
0
100
AcDbLine
 10
59.5
 20
51.6
 30
0.0
 11
60.6
 21
50.5
 31
0.0
  0
LINE
  5
14D
330
1E
100
AcDbEntity
  8
0
100
AcDbLine
 10
59.0
 20
216.1999999999999
 30
0.0
 11
59.0
 21
217.0
 31
0.0
  0
LINE
  5
14E
330
1E
100
AcDbEntity
  8
0
100
AcDbLine
 10
59.0
 20
216.1999999999999
 30
0.0
 11
59.0
 21
214.0
 31
0.0
  0
LINE
  5
14F
330
1E
100
AcDbEntity
  8
0
100
AcDbLine
 10
59.0
 20
217.0
 30
0.0
 11
59.5
 21
218.4
 31
0.0
  0
LINE
  5
150
330
1E
100
AcDbEntity
  8
0
100
AcDbLine
 10
59.0
 20
217.0
 30
0.0
 11
59.0
 21
216.1999999999999
 31
0.0
  0
LINE
  5
151
330
1E
100
AcDbEntity
  8
0
100
AcDbLine
 10
62.0
 20
50.0
 30
0.0
 11
71.0
 21
50.0
 31
0.0
  0
LINE
  5
152
330
1E
100
AcDbEntity
  8
0
100
AcDbLine
 10
60.6
 20
50.5
 30
0.0
 11
62.0
 21
50.0
 31
0.0
  0
LINE
  5
153
330
1E
100
AcDbEntity
  8
0
100
AcDbLine
 10
59.5
 20
218.4
 30
0.0
 11
60.6
 21
219.4999999999999
 31
0.0
  0
LINE
  5
154
330
1E
100
AcDbEntity
  8
0
100
AcDbLine
 10
60.6
 20
219.4999999999999
 30
0.0
 11
62.0
 21
220.0
 31
0.0
  0
LINE
  5
155
330
1E
100
AcDbEntity
  8
0
100
AcDbLine
 10
71.0
 20
50.0
 30
0.0
 11
71.0
 21
50.89999999999999
 31
0.0
  0
LINE
  5
156
330
1E
100
AcDbEntity
  8
0
100
AcDbLine
 10
71.0
 20
50.89999999999999
 30
0.0
 11
71.0
 21
50.0
 31
0.0
  0
LINE
  5
157
330
1E
100
AcDbEntity
  8
0
100
AcDbLine
 10
71.0
 20
50.89999999999999
 30
0.0
 11
71.0
 21
53.1
 31
0.0
  0
LINE
  5
158
330
1E
100
AcDbEntity
  8
0
100
AcDbLine
 10
71.0
 20
53.1
 30
0.0
 11
71.0
 21
50.89999999999999
 31
0.0
  0
LINE
  5
159
330
1E
100
AcDbEntity
  8
0
100
AcDbLine
 10
71.0
 20
53.1
 30
0.0
 11
71.0
 21
56.6
 31
0.0
  0
LINE
  5
15A
330
1E
100
AcDbEntity
  8
0
100
AcDbLine
 10
71.0
 20
75.0
 30
0.0
 11
71.0
 21
67.7
 31
0.0
  0
LINE
  5
15B
330
1E
100
AcDbEntity
  8
0
100
AcDbLine
 10
71.0
 20
75.0
 30
0.0
 11
71.0
 21
83.3
 31
0.0
  0
LINE
  5
15C
330
1E
100
AcDbEntity
  8
0
100
AcDbLine
 10
71.0
 20
67.7
 30
0.0
 11
71.0
 21
61.4
 31
0.0
  0
LINE
  5
15D
330
1E
100
AcDbEntity
  8
0
100
AcDbLine
 10
71.0
 20
67.7
 30
0.0
 11
71.0
 21
75.0
 31
0.0
  0
LINE
  5
15E
330
1E
100
AcDbEntity
  8
0
100
AcDbLine
 10
71.0
 20
123.9
 30
0.0
 11
71.0
 21
113.1
 31
0.0
  0
LINE
  5
15F
330
1E
100
AcDbEntity
  8
0
100
AcDbLine
 10
71.0
 20
123.9
 30
0.0
 11
71.0
 21
135.0
 31
0.0
  0
LINE
  5
160
330
1E
100
AcDbEntity
  8
0
100
AcDbLine
 10
71.0
 20
113.1
 30
0.0
 11
71.0
 21
102.4999999999999
 31
0.0
  0
LINE
  5
161
330
1E
100
AcDbEntity
  8
0
100
AcDbLine
 10
71.0
 20
113.1
 30
0.0
 11
71.0
 21
123.9
 31
0.0
  0
LINE
  5
162
330
1E
100
AcDbEntity
  8
0
100
AcDbLine
 10
71.0
 20
102.4999999999999
 30
0.0
 11
71.0
 21
92.70000000000001
 31
0.0
  0
LINE
  5
163
330
1E
100
AcDbEntity
  8
0
100
AcDbLine
 10
71.0
 20
102.4999999999999
 30
0.0
 11
71.0
 21
113.1
 31
0.0
  0
LINE
  5
164
330
1E
100
AcDbEntity
  8
0
100
AcDbLine
 10
71.0
 20
92.70000000000001
 30
0.0
 11
71.0
 21
83.3
 31
0.0
  0
LINE
  5
165
330
1E
100
AcDbEntity
  8
0
100
AcDbLine
 10
71.0
 20
92.70000000000001
 30
0.0
 11
71.0
 21
102.4999999999999
 31
0.0
  0
LINE
  5
166
330
1E
100
AcDbEntity
  8
0
100
AcDbLine
 10
71.0
 20
83.3
 30
0.0
 11
71.0
 21
92.70000000000001
 31
0.0
  0
LINE
  5
167
330
1E
100
AcDbEntity
  8
0
100
AcDbLine
 10
71.0
 20
83.3
 30
0.0
 11
71.0
 21
75.0
 31
0.0
  0
LINE
  5
168
330
1E
100
AcDbEntity
  8
0
100
AcDbLine
 10
71.0
 20
61.4
 30
0.0
 11
71.0
 21
56.6
 31
0.0
  0
LINE
  5
169
330
1E
100
AcDbEntity
  8
0
100
AcDbLine
 10
71.0
 20
61.4
 30
0.0
 11
71.0
 21
67.7
 31
0.0
  0
LINE
  5
16A
330
1E
100
AcDbEntity
  8
0
100
AcDbLine
 10
71.0
 20
56.6
 30
0.0
 11
71.0
 21
53.1
 31
0.0
  0
LINE
  5
16B
330
1E
100
AcDbEntity
  8
0
100
AcDbLine
 10
71.0
 20
56.6
 30
0.0
 11
71.0
 21
61.4
 31
0.0
  0
LINE
  5
16C
330
1E
100
AcDbEntity
  8
0
100
AcDbLine
 10
71.0
 20
135.0
 30
0.0
 11
71.0
 21
146.1
 31
0.0
  0
LINE
  5
16D
330
1E
100
AcDbEntity
  8
0
100
AcDbLine
 10
71.0
 20
135.0
 30
0.0
 11
71.0
 21
123.9
 31
0.0
  0
LINE
  5
16E
330
1E
100
AcDbEntity
  8
0
100
AcDbLine
 10
71.0
 20
195.0
 30
0.0
 11
71.0
 21
186.6999999999999
 31
0.0
  0
LINE
  5
16F
330
1E
100
AcDbEntity
  8
0
100
AcDbLine
 10
71.0
 20
195.0
 30
0.0
 11
71.0
 21
202.3
 31
0.0
  0
LINE
  5
170
330
1E
100
AcDbEntity
  8
0
100
AcDbLine
 10
71.0
 20
186.6999999999999
 30
0.0
 11
71.0
 21
177.3
 31
0.0
  0
LINE
  5
171
330
1E
100
AcDbEntity
  8
0
100
AcDbLine
 10
71.0
 20
186.6999999999999
 30
0.0
 11
71.0
 21
195.0
 31
0.0
  0
LINE
  5
172
330
1E
100
AcDbEntity
  8
0
100
AcDbLine
 10
71.0
 20
177.3
 30
0.0
 11
71.0
 21
167.5
 31
0.0
  0
LINE
  5
173
330
1E
100
AcDbEntity
  8
0
100
AcDbLine
 10
71.0
 20
177.3
 30
0.0
 11
71.0
 21
186.6999999999999
 31
0.0
  0
LINE
  5
174
330
1E
100
AcDbEntity
  8
0
100
AcDbLine
 10
71.0
 20
167.5
 30
0.0
 11
71.0
 21
156.9
 31
0.0
  0
LINE
  5
175
330
1E
100
AcDbEntity
  8
0
100
AcDbLine
 10
71.0
 20
167.5
 30
0.0
 11
71.0
 21
177.3
 31
0.0
  0
LINE
  5
176
330
1E
100
AcDbEntity
  8
0
100
AcDbLine
 10
71.0
 20
156.9
 30
0.0
 11
71.0
 21
146.1
 31
0.0
  0
LINE
  5
177
330
1E
100
AcDbEntity
  8
0
100
AcDbLine
 10
71.0
 20
156.9
 30
0.0
 11
71.0
 21
167.5
 31
0.0
  0
LINE
  5
178
330
1E
100
AcDbEntity
  8
0
100
AcDbLine
 10
71.0
 20
146.1
 30
0.0
 11
71.0
 21
135.0
 31
0.0
  0
LINE
  5
179
330
1E
100
AcDbEntity
  8
0
100
AcDbLine
 10
71.0
 20
146.1
 30
0.0
 11
71.0
 21
156.9
 31
0.0
  0
LINE
  5
17A
330
1E
100
AcDbEntity
  8
0
100
AcDbLine
 10
71.0
 20
216.9
 30
0.0
 11
71.0
 21
213.3999999999999
 31
0.0
  0
LINE
  5
17B
330
1E
100
AcDbEntity
  8
0
100
AcDbLine
 10
71.0
 20
216.9
 30
0.0
 11
71.0
 21
219.0999999999999
 31
0.0
  0
LINE
  5
17C
330
1E
100
AcDbEntity
  8
0
100
AcDbLine
 10
71.0
 20
219.0999999999999
 30
0.0
 11
71.0
 21
216.9
 31
0.0
  0
LINE
  5
17D
330
1E
100
AcDbEntity
  8
0
100
AcDbLine
 10
71.0
 20
219.0999999999999
 30
0.0
 11
71.0
 21
220.0
 31
0.0
  0
LINE
  5
17E
330
1E
100
AcDbEntity
  8
0
100
AcDbLine
 10
71.0
 20
220.0
 30
0.0
 11
71.0
 21
219.0999999999999
 31
0.0
  0
LINE
  5
17F
330
1E
100
AcDbEntity
  8
0
100
AcDbLine
 10
71.0
 20
213.3999999999999
 30
0.0
 11
71.0
 21
208.5999999999999
 31
0.0
  0
LINE
  5
180
330
1E
100
AcDbEntity
  8
0
100
AcDbLine
 10
71.0
 20
213.3999999999999
 30
0.0
 11
71.0
 21
216.9
 31
0.0
  0
LINE
  5
181
330
1E
100
AcDbEntity
  8
0
100
AcDbLine
 10
71.0
 20
208.5999999999999
 30
0.0
 11
71.0
 21
202.3
 31
0.0
  0
LINE
  5
182
330
1E
100
AcDbEntity
  8
0
100
AcDbLine
 10
71.0
 20
208.5999999999999
 30
0.0
 11
71.0
 21
213.3999999999999
 31
0.0
  0
LINE
  5
183
330
1E
100
AcDbEntity
  8
0
100
AcDbLine
 10
71.0
 20
202.3
 30
0.0
 11
71.0
 21
195.0
 31
0.0
  0
LINE
  5
184
330
1E
100
AcDbEntity
  8
0
100
AcDbLine
 10
71.0
 20
202.3
 30
0.0
 11
71.0
 21
208.5999999999999
 31
0.0
  0
LINE
  5
185
330
1E
100
AcDbEntity
  8
0
100
AcDbLine
 10
62.0
 20
220.0
 30
0.0
 11
71.0
 21
220.0
 31
0.0
  0
ENDSEC
  0
SECTION
  2
OBJECTS
  0
DICTIONARY
  5
C
330
0
100
AcDbDictionary
  3
ACAD_GROUP
350
D
  3
ACAD_LAYOUT
350
19
  3
ACAD_MLINESTYLE
350
16
  3
ACAD_PLOTSETTINGS
350
18
  3
ACAD_PLOTSTYLENAME
350
E
  3
ACDBHEADERROUNDTRIPXREC
350
18D
  3
ACDBVARIABLEDICTIONARY
350
18A
  0
DICTIONARY
  5
1AF
330
1E
100
AcDbDictionary
280
     1
  3
ACAD_LAYOUTSELFREF
360
1B0
  0
DICTIONARY
  5
1AD
330
1A
100
AcDbDictionary
280
     1
  3
ACAD_LAYOUTSELFREF
360
1AE
  0
DICTIONARY
  5
D
102
{ACAD_REACTORS
330
C
102
}
330
C
100
AcDbDictionary
  0
DICTIONARY
  5
19
102
{ACAD_REACTORS
330
C
102
}
330
C
100
AcDbDictionary
  0
DICTIONARY
  5
16
102
{ACAD_REACTORS
330
C
102
}
330
C
100
AcDbDictionary
  3
STANDARD
350
17
  0
DICTIONARY
  5
18
102
{ACAD_REACTORS
330
C
102
}
330
C
100
AcDbDictionary
  0
ACDBDICTIONARYWDFLT
  5
E
102
{ACAD_REACTORS
330
C
102
}
330
C
100
AcDbDictionary
281
     1
  3
Normal
350
F
100
AcDbDictionaryWithDefault
340
F
  0
DICTIONARY
  5
18D
102
{ACAD_REACTORS
330
C
102
}
330
C
100
AcDbDictionary
  3
CEPSNTYPE
350
197
  3
FINGERPRINTGUID
350
198
  3
HYPERLINKBASE
350
190
  3
INSUNITS
350
196
  3
LAYOUTDICT
350
192
  3
LWETCUNION
350
195
  3
PLOTSETDICT
350
193
  3
PLOTSTYLNAMDICT
350
194
  3
PSVPSCALE
350
19A
  3
PUCSBASE
350
19D
  3
PUCSORGBACK
350
1A3
  3
PUCSORGBOTTOM
350
19F
  3
PUCSORGFRONT
350
1A2
  3
PUCSORGLEFT
350
1A0
  3
PUCSORGRIGHT
350
1A1
  3
PUCSORGTOP
350
19E
  3
PUCSORTHOREF
350
19B
  3
PUCSORTHOVIEW
350
19C
  3
STYLESHEET
350
191
  3
TSTACKALIGN
350
18E
  3
TSTACKSIZE
350
18F
  3
UCSBASE
350
1A6
  3
UCSORGBACK
350
1AC
  3
UCSORGBOTTOM
350
1A8
  3
UCSORGFRONT
350
1AB
  3
UCSORGLEFT
350
1A9
  3
UCSORGRIGHT
350
1AA
  3
UCSORGTOP
350
1A7
  3
UCSORTHOREF
350
1A4
  3
UCSORTHOVIEW
350
1A5
  3
VERSIONGUID
350
199
  0
DICTIONARY
  5
18A
102
{ACAD_REACTORS
330
C
102
}
330
C
100
AcDbDictionary
  3
DIMASSOC
350
18B
  0
XRECORD
  5
1B0
102
{ACAD_REACTORS
330
1AF
102
}
330
1AF
100
AcDbXrecord
340
1E
  0
XRECORD
  5
1AE
102
{ACAD_REACTORS
330
1AD
102
}
330
1AD
100
AcDbXrecord
340
1A
  0
MLINESTYLE
  5
17
102
{ACAD_REACTORS
330
16
102
}
330
16
100
AcDbMlineStyle
  2
STANDARD
 70
     0
  3

 62
   256
 51
90.0
 52
90.0
 71
     2
 49
0.5
 62
   256
  6
BYLAYER
 49
-0.5
 62
   256
  6
BYLAYER
  0
ACDBPLACEHOLDER
  5
F
102
{ACAD_REACTORS
330
E
102
}
330
E
100
AcDbPlaceHolder
280
     0
  0
XRECORD
  5
197
102
{ACAD_REACTORS
330
18D
102
}
330
18D
100
AcDbXrecord
 90
        0
  0
XRECORD
  5
198
102
{ACAD_REACTORS
330
18D
102
}
330
18D
100
AcDbXrecord
  1
{551A524F-ED52-4999-A5D3-906B56D21E7A}
  0
XRECORD
  5
190
102
{ACAD_REACTORS
330
18D
102
}
330
18D
100
AcDbXrecord
  1

  0
XRECORD
  5
196
102
{ACAD_REACTORS
330
18D
102
}
330
18D
100
AcDbXrecord
 90
        0
  0
XRECORD
  5
192
102
{ACAD_REACTORS
330
18D
102
}
330
18D
100
AcDbXrecord
340
19
  0
XRECORD
  5
195
102
{ACAD_REACTORS
330
18D
102
}
330
18D
100
AcDbXrecord
 90
    10781
  0
XRECORD
  5
193
102
{ACAD_REACTORS
330
18D
102
}
330
18D
100
AcDbXrecord
340
18
  0
XRECORD
  5
194
102
{ACAD_REACTORS
330
18D
102
}
330
18D
100
AcDbXrecord
340
E
  0
XRECORD
  5
19A
102
{ACAD_REACTORS
330
18D
102
}
330
18D
100
AcDbXrecord
 40
0.0
  0
XRECORD
  5
19D
102
{ACAD_REACTORS
330
18D
102
}
330
18D
100
AcDbXrecord
340
0
  0
XRECORD
  5
1A3
102
{ACAD_REACTORS
330
18D
102
}
330
18D
100
AcDbXrecord
 10
0.0
 20
0.0
 30
0.0
  0
XRECORD
  5
19F
102
{ACAD_REACTORS
330
18D
102
}
330
18D
100
AcDbXrecord
 10
0.0
 20
0.0
 30
0.0
  0
XRECORD
  5
1A2
102
{ACAD_REACTORS
330
18D
102
}
330
18D
100
AcDbXrecord
 10
0.0
 20
0.0
 30
0.0
  0
XRECORD
  5
1A0
102
{ACAD_REACTORS
330
18D
102
}
330
18D
100
AcDbXrecord
 10
0.0
 20
0.0
 30
0.0
  0
XRECORD
  5
1A1
102
{ACAD_REACTORS
330
18D
102
}
330
18D
100
AcDbXrecord
 10
0.0
 20
0.0
 30
0.0
  0
XRECORD
  5
19E
102
{ACAD_REACTORS
330
18D
102
}
330
18D
100
AcDbXrecord
 10
0.0
 20
0.0
 30
0.0
  0
XRECORD
  5
19B
102
{ACAD_REACTORS
330
18D
102
}
330
18D
100
AcDbXrecord
340
0
  0
XRECORD
  5
19C
102
{ACAD_REACTORS
330
18D
102
}
330
18D
100
AcDbXrecord
 70
     0
  0
XRECORD
  5
191
102
{ACAD_REACTORS
330
18D
102
}
330
18D
100
AcDbXrecord
  1

  0
XRECORD
  5
18E
102
{ACAD_REACTORS
330
18D
102
}
330
18D
100
AcDbXrecord
 90
        1
  0
XRECORD
  5
18F
102
{ACAD_REACTORS
330
18D
102
}
330
18D
100
AcDbXrecord
 90
       70
  0
XRECORD
  5
1A6
102
{ACAD_REACTORS
330
18D
102
}
330
18D
100
AcDbXrecord
340
0
  0
XRECORD
  5
1AC
102
{ACAD_REACTORS
330
18D
102
}
330
18D
100
AcDbXrecord
 10
0.0
 20
0.0
 30
0.0
  0
XRECORD
  5
1A8
102
{ACAD_REACTORS
330
18D
102
}
330
18D
100
AcDbXrecord
 10
0.0
 20
0.0
 30
0.0
  0
XRECORD
  5
1AB
102
{ACAD_REACTORS
330
18D
102
}
330
18D
100
AcDbXrecord
 10
0.0
 20
0.0
 30
0.0
  0
XRECORD
  5
1A9
102
{ACAD_REACTORS
330
18D
102
}
330
18D
100
AcDbXrecord
 10
0.0
 20
0.0
 30
0.0
  0
XRECORD
  5
1AA
102
{ACAD_REACTORS
330
18D
102
}
330
18D
100
AcDbXrecord
 10
0.0
 20
0.0
 30
0.0
  0
XRECORD
  5
1A7
102
{ACAD_REACTORS
330
18D
102
}
330
18D
100
AcDbXrecord
 10
0.0
 20
0.0
 30
0.0
  0
XRECORD
  5
1A4
102
{ACAD_REACTORS
330
18D
102
}
330
18D
100
AcDbXrecord
340
0
  0
XRECORD
  5
1A5
102
{ACAD_REACTORS
330
18D
102
}
330
18D
100
AcDbXrecord
 70
     1
  0
XRECORD
  5
199
102
{ACAD_REACTORS
330
18D
102
}
330
18D
100
AcDbXrecord
  1
{1F8875E1-1D07-43B8-8FDB-BC160C671A0C}
  0
DICTIONARYVAR
  5
18B
102
{ACAD_REACTORS
330
18A
102
}
330
18A
100
DictionaryVariables
280
     0
  1
1
  0
ENDSEC
  0
EOF
