  0
SECTION
  2
HEADER
  9
$ACADVER
  1
AC1014
  9
$ACADMAINTVER
 70
     9
  9
$DWGCODEPAGE
  3
ANSI_1252
  9
$INSBASE
 10
0.0
 20
0.0
 30
0.0
  9
$EXTMIN
 10
-0.0000000000000052
 20
-0.0000000000000036
 30
0.0
  9
$EXTMAX
 10
270.0
 20
172.0
 30
0.0
  9
$LIMMIN
 10
0.0
 20
0.0
  9
$LIMMAX
 10
12.0
 20
9.0
  9
$ORTHOMODE
 70
     0
  9
$REGENMODE
 70
     1
  9
$FILLMODE
 70
     1
  9
$QTEXTMODE
 70
     0
  9
$MIRRTEXT
 70
     1
  9
$DRAGMODE
 70
     2
  9
$LTSCALE
 40
1.0
  9
$OSMODE
 70
    37
  9
$ATTMODE
 70
     1
  9
$TEXTSIZE
 40
0.2
  9
$TRACEWID
 40
0.05
  9
$TEXTSTYLE
  7
STANDARD
  9
$CLAYER
  8
0
  9
$CELTYPE
  6
CONTINUOUS
  9
$CECOLOR
 62
   256
  9
$CELTSCALE
 40
1.0
  9
$DELOBJ
 70
     1
  9
$DISPSILH
 70
     0
  9
$DIMSCALE
 40
1.0
  9
$DIMASZ
 40
0.18
  9
$DIMEXO
 40
0.0625
  9
$DIMDLI
 40
0.38
  9
$DIMRND
 40
0.0
  9
$DIMDLE
 40
0.0
  9
$DIMEXE
 40
0.18
  9
$DIMTP
 40
0.0
  9
$DIMTM
 40
0.0
  9
$DIMTXT
 40
0.18
  9
$DIMCEN
 40
0.09
  9
$DIMTSZ
 40
0.0
  9
$DIMTOL
 70
     0
  9
$DIMLIM
 70
     0
  9
$DIMTIH
 70
     1
  9
$DIMTOH
 70
     1
  9
$DIMSE1
 70
     0
  9
$DIMSE2
 70
     0
  9
$DIMTAD
 70
     0
  9
$DIMZIN
 70
     0
  9
$DIMBLK
  1

  9
$DIMASO
 70
     1
  9
$DIMSHO
 70
     1
  9
$DIMPOST
  1

  9
$DIMAPOST
  1

  9
$DIMALT
 70
     0
  9
$DIMALTD
 70
     2
  9
$DIMALTF
 40
25.4
  9
$DIMLFAC
 40
1.0
  9
$DIMTOFL
 70
     0
  9
$DIMTVP
 40
0.0
  9
$DIMTIX
 70
     0
  9
$DIMSOXD
 70
     0
  9
$DIMSAH
 70
     0
  9
$DIMBLK1
  1

  9
$DIMBLK2
  1

  9
$DIMSTYLE
  2
STANDARD
  9
$DIMCLRD
 70
     0
  9
$DIMCLRE
 70
     0
  9
$DIMCLRT
 70
     0
  9
$DIMTFAC
 40
1.0
  9
$DIMGAP
 40
0.09
  9
$DIMJUST
 70
     0
  9
$DIMSD1
 70
     0
  9
$DIMSD2
 70
     0
  9
$DIMTOLJ
 70
     1
  9
$DIMTZIN
 70
     0
  9
$DIMALTZ
 70
     0
  9
$DIMALTTZ
 70
     0
  9
$DIMFIT
 70
     3
  9
$DIMUPT
 70
     0
  9
$DIMUNIT
 70
     2
  9
$DIMDEC
 70
     4
  9
$DIMTDEC
 70
     4
  9
$DIMALTU
 70
     2
  9
$DIMALTTD
 70
     2
  9
$DIMTXSTY
  7
STANDARD
  9
$DIMAUNIT
 70
     0
  9
$LUNITS
 70
     2
  9
$LUPREC
 70
     4
  9
$SKETCHINC
 40
0.1
  9
$FILLETRAD
 40
0.0
  9
$AUNITS
 70
     0
  9
$AUPREC
 70
     0
  9
$MENU
  1
.
  9
$ELEVATION
 40
0.0
  9
$PELEVATION
 40
0.0
  9
$THICKNESS
 40
0.0
  9
$LIMCHECK
 70
     0
  9
$BLIPMODE
 70
     0
  9
$CHAMFERA
 40
0.0
  9
$CHAMFERB
 40
0.0
  9
$CHAMFERC
 40
0.0
  9
$CHAMFERD
 40
0.0
  9
$SKPOLY
 70
     0
  9
$TDCREATE
 40
2454690.823603148
  9
$TDUPDATE
 40
2454690.825673460
  9
$TDINDWG
 40
0.0020704977
  9
$TDUSRTIMER
 40
0.0020704977
  9
$USRTIMER
 70
     1
  9
$ANGBASE
 50
0.0
  9
$ANGDIR
 70
     0
  9
$PDMODE
 70
     0
  9
$PDSIZE
 40
0.0
  9
$PLINEWID
 40
0.0
  9
$COORDS
 70
     1
  9
$SPLFRAME
 70
     0
  9
$SPLINETYPE
 70
     6
  9
$SPLINESEGS
 70
     8
  9
$ATTDIA
 70
     0
  9
$ATTREQ
 70
     1
  9
$HANDLING
 70
 22529
  9
$HANDSEED
  5
1F0
  9
$SURFTAB1
 70
     6
  9
$SURFTAB2
 70
     6
  9
$SURFTYPE
 70
     6
  9
$SURFU
 70
     6
  9
$SURFV
 70
     6
  9
$UCSNAME
  2

  9
$UCSORG
 10
0.0
 20
0.0
 30
0.0
  9
$UCSXDIR
 10
1.0
 20
0.0
 30
0.0
  9
$UCSYDIR
 10
0.0
 20
1.0
 30
0.0
  9
$PUCSNAME
  2

  9
$PUCSORG
 10
0.0
 20
0.0
 30
0.0
  9
$PUCSXDIR
 10
1.0
 20
0.0
 30
0.0
  9
$PUCSYDIR
 10
0.0
 20
1.0
 30
0.0
  9
$USERI1
 70
     0
  9
$USERI2
 70
     0
  9
$USERI3
 70
     0
  9
$USERI4
 70
     0
  9
$USERI5
 70
     0
  9
$USERR1
 40
0.0
  9
$USERR2
 40
0.0
  9
$USERR3
 40
0.0
  9
$USERR4
 40
0.0
  9
$USERR5
 40
0.0
  9
$WORLDVIEW
 70
     1
  9
$SHADEDGE
 70
     3
  9
$SHADEDIF
 70
    70
  9
$TILEMODE
 70
     1
  9
$MAXACTVP
 70
    64
  9
$PINSBASE
 10
0.0
 20
0.0
 30
0.0
  9
$PLIMCHECK
 70
     0
  9
$PEXTMIN
 10
1.000000000000000E+20
 20
1.000000000000000E+20
 30
1.000000000000000E+20
  9
$PEXTMAX
 10
-1.000000000000000E+20
 20
-1.000000000000000E+20
 30
-1.000000000000000E+20
  9
$PLIMMIN
 10
0.0
 20
0.0
  9
$PLIMMAX
 10
12.0
 20
9.0
  9
$UNITMODE
 70
     0
  9
$VISRETAIN
 70
     1
  9
$PLINEGEN
 70
     0
  9
$PSLTSCALE
 70
     1
  9
$TREEDEPTH
 70
  3020
  9
$PICKSTYLE
 70
     1
  9
$CMLSTYLE
  2
STANDARD
  9
$CMLJUST
 70
     0
  9
$CMLSCALE
 40
1.0
  9
$PROXYGRAPHICS
 70
     1
  9
$MEASUREMENT
 70
     0
  0
ENDSEC
  0
SECTION
  2
CLASSES
  0
CLASS
  1
ACDBDICTIONARYWDFLT
  2
AcDbDictionaryWithDefault
  3
AutoCAD 2000
 90
        0
280
     0
281
     0
  0
CLASS
  1
ACDBPLACEHOLDER
  2
AcDbPlaceHolder
  3
AutoCAD 2000
 90
        0
280
     0
281
     0
  0
CLASS
  1
LAYOUT
  2
AcDbLayout
  3
AutoCAD 2000
 90
        0
280
     0
281
     0
  0
CLASS
  1
DICTIONARYVAR
  2
AcDbDictionaryVar
  3
AutoCAD 2000
 90
        0
280
     0
281
     0
  0
CLASS
  1
LONG_TRANSACTION
  2
AcDbLongTransaction
  3
AutoCAD 2000
 90
        0
280
     0
281
     0
  0
CLASS
  1
LWPOLYLINE
  2
AcDbPolyline
  3
AutoCAD 2000
 90
        0
280
     0
281
     1
  0
CLASS
  1
HATCH
  2
AcDbHatch
  3
AutoCAD 2000
 90
        0
280
     0
281
     1
  0
CLASS
  1
XRECORD
  2
AcDbXrecord
  3
AutoCAD 2000
 90
        0
280
     0
281
     0
  0
ENDSEC
  0
SECTION
  2
TABLES
  0
TABLE
  2
VPORT
  5
8
330
0
100
AcDbSymbolTable
 70
     2
  0
VPORT
  5
1CB
330
8
100
AcDbSymbolTableRecord
100
AcDbViewportTableRecord
  2
*ACTIVE
 70
     0
 10
0.0
 20
0.0
 11
1.0
 21
1.0
 12
135.0
 22
86.0
 13
0.0
 23
0.0
 14
1.0
 24
1.0
 15
0.0
 25
0.0
 16
0.0
 26
0.0
 36
1.0
 17
0.0
 27
0.0
 37
0.0
 40
173.3196930946291
 41
2.043533930857874
 42
50.0
 43
0.0
 44
0.0
 50
0.0
 51
0.0
 71
     0
 72
   100
 73
     1
 74
     3
 75
     0
 76
     0
 77
     0
 78
     0
  0
ENDTAB
  0
TABLE
  2
LTYPE
  5
5
330
0
100
AcDbSymbolTable
 70
     1
  0
LTYPE
  5
13
330
5
100
AcDbSymbolTableRecord
100
AcDbLinetypeTableRecord
  2
BYBLOCK
 70
     0
  3

 72
    65
 73
     0
 40
0.0
  0
LTYPE
  5
14
330
5
100
AcDbSymbolTableRecord
100
AcDbLinetypeTableRecord
  2
BYLAYER
 70
     0
  3

 72
    65
 73
     0
 40
0.0
  0
LTYPE
  5
15
330
5
100
AcDbSymbolTableRecord
100
AcDbLinetypeTableRecord
  2
CONTINUOUS
 70
     0
  3
Solid line
 72
    65
 73
     0
 40
0.0
  0
ENDTAB
  0
TABLE
  2
LAYER
  5
2
330
0
100
AcDbSymbolTable
 70
     1
  0
LAYER
  5
10
330
2
100
AcDbSymbolTableRecord
100
AcDbLayerTableRecord
  2
0
 70
     0
 62
     7
  6
CONTINUOUS
  0
ENDTAB
  0
TABLE
  2
STYLE
  5
3
330
0
100
AcDbSymbolTable
 70
     1
  0
STYLE
  5
11
330
3
100
AcDbSymbolTableRecord
100
AcDbTextStyleTableRecord
  2
STANDARD
 70
     0
 40
0.0
 41
1.0
 50
0.0
 71
     0
 42
0.2
  3
txt
  4

  0
ENDTAB
  0
TABLE
  2
VIEW
  5
6
330
0
100
AcDbSymbolTable
 70
     0
  0
ENDTAB
  0
TABLE
  2
UCS
  5
7
330
0
100
AcDbSymbolTable
 70
     0
  0
ENDTAB
  0
TABLE
  2
APPID
  5
9
330
0
100
AcDbSymbolTable
 70
     1
  0
APPID
  5
12
330
9
100
AcDbSymbolTableRecord
100
AcDbRegAppTableRecord
  2
ACAD
 70
     0
  0
ENDTAB
  0
TABLE
  2
DIMSTYLE
  5
A
330
0
100
AcDbSymbolTable
 70
     1
  0
DIMSTYLE
105
1C5
330
A
100
AcDbSymbolTableRecord
100
AcDbDimStyleTableRecord
  2
STANDARD
 70
     0
  3

  4

  5

  6

  7

 40
1.0
 41
0.18
 42
0.0625
 43
0.38
 44
0.18
 45
0.0
 46
0.0
 47
0.0
 48
0.0
140
0.18
141
0.09
142
0.0
143
25.4
144
1.0
145
0.0
146
1.0
147
0.09
 71
     0
 72
     0
 73
     1
 74
     1
 75
     0
 76
     0
 77
     0
 78
     0
170
     0
171
     2
172
     0
173
     0
174
     0
175
     0
176
     0
177
     0
178
     0
270
     2
271
     4
272
     4
273
     2
274
     2
340
11
275
     0
280
     0
281
     0
282
     0
283
     1
284
     0
285
     0
286
     0
287
     3
288
     0
  0
ENDTAB
  0
TABLE
  2
BLOCK_RECORD
  5
1
330
0
100
AcDbSymbolTable
 70
     0
  0
BLOCK_RECORD
  5
1E
102
{ACAD_XDICTIONARY
360
1EE
102
}
330
1
100
AcDbSymbolTableRecord
100
AcDbBlockTableRecord
  2
*MODEL_SPACE
  0
BLOCK_RECORD
  5
1A
102
{ACAD_XDICTIONARY
360
1EC
102
}
330
1
100
AcDbSymbolTableRecord
100
AcDbBlockTableRecord
  2
*PAPER_SPACE
  0
ENDTAB
  0
ENDSEC
  0
SECTION
  2
BLOCKS
  0
BLOCK
  5
1F
330
1E
100
AcDbEntity
  8
0
100
AcDbBlockBegin
  2
*MODEL_SPACE
 70
     0
 10
0.0
 20
0.0
 30
0.0
  3
*MODEL_SPACE
  1

  0
ENDBLK
  5
20
330
1E
100
AcDbEntity
  8
0
100
AcDbBlockEnd
  0
BLOCK
  5
1B
330
1A
100
AcDbEntity
 67
     1
  8
0
100
AcDbBlockBegin
  2
*PAPER_SPACE
 70
     0
 10
0.0
 20
0.0
 30
0.0
  3
*PAPER_SPACE
  1

  0
ENDBLK
  5
1C
330
1A
100
AcDbEntity
 67
     1
  8
0
100
AcDbBlockEnd
  0
ENDSEC
  0
SECTION
  2
ENTITIES
  0
LINE
  5
22
330
1E
100
AcDbEntity
  8
0
100
AcDbLine
 10
-0.0000000000000052
 20
127.2637
 30
0.0
 11
-0.0000000000000052
 21
129.3357
 31
0.0
  0
LINE
  5
23
330
1E
100
AcDbEntity
  8
0
100
AcDbLine
 10
-0.0000000000000052
 20
127.2637
 30
0.0
 11
-0.0000000000000052
 21
126.5686
 31
0.0
  0
LINE
  5
24
330
1E
100
AcDbEntity
  8
0
100
AcDbLine
 10
-0.0000000000000052
 20
126.5686
 30
0.0
 11
-0.0000000000000052
 21
127.2637
 31
0.0
  0
LINE
  5
25
330
1E
100
AcDbEntity
  8
0
100
AcDbLine
 10
-0.0000000000000052
 20
126.5686
 30
0.0
 11
0.5999999999999951
 21
126.0061
 31
0.0
  0
LINE
  5
26
330
1E
100
AcDbEntity
  8
0
100
AcDbLine
 10
-0.0000000000000052
 20
126.5686
 30
0.0
 11
-0.0000000000000052
 21
127.2587
 31
0.0
  0
LINE
  5
27
330
1E
100
AcDbEntity
  8
0
100
AcDbLine
 10
-0.0000000000000052
 20
129.2499
 30
0.0
 11
-0.0000000000000052
 21
127.2587
 31
0.0
  0
LINE
  5
28
330
1E
100
AcDbEntity
  8
0
100
AcDbLine
 10
-0.0000000000000052
 20
129.2499
 30
0.0
 11
-0.0000000000000052
 21
132.5506999999999
 31
0.0
  0
LINE
  5
29
330
1E
100
AcDbEntity
  8
0
100
AcDbLine
 10
-0.0000000000000052
 20
129.3357
 30
0.0
 11
-0.0000000000000052
 21
132.5469999999999
 31
0.0
  0
LINE
  5
2A
330
1E
100
AcDbEntity
  8
0
100
AcDbLine
 10
-0.0000000000000052
 20
129.3357
 30
0.0
 11
-0.0000000000000052
 21
127.2637
 31
0.0
  0
LINE
  5
2B
330
1E
100
AcDbEntity
  8
0
100
AcDbLine
 10
-0.0000000000000052
 20
127.2587
 30
0.0
 11
-0.0000000000000052
 21
129.2499
 31
0.0
  0
LINE
  5
2C
330
1E
100
AcDbEntity
  8
0
100
AcDbLine
 10
-0.0000000000000052
 20
127.2587
 30
0.0
 11
-0.0000000000000052
 21
126.5686
 31
0.0
  0
LINE
  5
2D
330
1E
100
AcDbEntity
  8
0
100
AcDbLine
 10
0.5999999999999951
 20
126.0061
 30
0.0
 11
152.5
 21
126.0061
 31
0.0
  0
LINE
  5
2E
330
1E
100
AcDbEntity
  8
0
100
AcDbLine
 10
0.5999999999999951
 20
126.0061
 30
0.0
 11
0.5999999999999951
 21
126.6898999999999
 31
0.0
  0
LINE
  5
2F
330
1E
100
AcDbEntity
  8
0
100
AcDbLine
 10
0.5999999999999951
 20
126.6898999999999
 30
0.0
 11
0.5999999999999951
 21
126.0061
 31
0.0
  0
LINE
  5
30
330
1E
100
AcDbEntity
  8
0
100
AcDbLine
 10
0.5999999999999951
 20
126.6898999999999
 30
0.0
 11
0.5999999999999951
 21
128.8655
 31
0.0
  0
LINE
  5
31
330
1E
100
AcDbEntity
  8
0
100
AcDbLine
 10
-0.0000000000000052
 20
132.5506999999999
 30
0.0
 11
-0.0000000000000052
 21
129.2499
 31
0.0
  0
LINE
  5
32
330
1E
100
AcDbEntity
  8
0
100
AcDbLine
 10
-0.0000000000000052
 20
132.5506999999999
 30
0.0
 11
-0.0000000000000052
 21
136.7326
 31
0.0
  0
LINE
  5
33
330
1E
100
AcDbEntity
  8
0
100
AcDbLine
 10
-0.0000000000000052
 20
132.5469999999999
 30
0.0
 11
-0.0000000000000052
 21
136.752
 31
0.0
  0
LINE
  5
34
330
1E
100
AcDbEntity
  8
0
100
AcDbLine
 10
-0.0000000000000052
 20
132.5469999999999
 30
0.0
 11
-0.0000000000000052
 21
129.3357
 31
0.0
  0
LINE
  5
35
330
1E
100
AcDbEntity
  8
0
100
AcDbLine
 10
0.5999999999999951
 20
132.2221999999999
 30
0.0
 11
0.5999999999999951
 21
128.8655
 31
0.0
  0
LINE
  5
36
330
1E
100
AcDbEntity
  8
0
100
AcDbLine
 10
0.5999999999999951
 20
132.2221999999999
 30
0.0
 11
0.5999999999999951
 21
136.4999999999999
 31
0.0
  0
LINE
  5
37
330
1E
100
AcDbEntity
  8
0
100
AcDbLine
 10
0.5999999999999951
 20
128.8655
 30
0.0
 11
0.5999999999999951
 21
126.6898999999999
 31
0.0
  0
LINE
  5
38
330
1E
100
AcDbEntity
  8
0
100
AcDbLine
 10
0.5999999999999951
 20
128.8655
 30
0.0
 11
0.5999999999999951
 21
132.2221999999999
 31
0.0
  0
LINE
  5
39
330
1E
100
AcDbEntity
  8
0
100
AcDbLine
 10
-0.0000000000000052
 20
136.7326
 30
0.0
 11
-0.0000000000000052
 21
132.5506999999999
 31
0.0
  0
LINE
  5
3A
330
1E
100
AcDbEntity
  8
0
100
AcDbLine
 10
-0.0000000000000052
 20
136.7326
 30
0.0
 11
-0.0000000000000052
 21
141.7117
 31
0.0
  0
LINE
  5
3B
330
1E
100
AcDbEntity
  8
0
100
AcDbLine
 10
-0.0000000000000052
 20
141.7117
 30
0.0
 11
-0.0000000000000052
 21
136.7326
 31
0.0
  0
LINE
  5
3C
330
1E
100
AcDbEntity
  8
0
100
AcDbLine
 10
-0.0000000000000052
 20
141.7117
 30
0.0
 11
-0.0000000000000052
 21
147.0596999999999
 31
0.0
  0
LINE
  5
3D
330
1E
100
AcDbEntity
  8
0
100
AcDbLine
 10
-0.0000000000000052
 20
136.752
 30
0.0
 11
-0.0000000000000052
 21
141.713
 31
0.0
  0
LINE
  5
3E
330
1E
100
AcDbEntity
  8
0
100
AcDbLine
 10
-0.0000000000000052
 20
136.752
 30
0.0
 11
-0.0000000000000052
 21
132.5469999999999
 31
0.0
  0
LINE
  5
3F
330
1E
100
AcDbEntity
  8
0
100
AcDbLine
 10
-0.0000000000000052
 20
141.713
 30
0.0
 11
-0.0000000000000052
 21
136.752
 31
0.0
  0
LINE
  5
40
330
1E
100
AcDbEntity
  8
0
100
AcDbLine
 10
-0.0000000000000052
 20
141.713
 30
0.0
 11
-0.0000000000000052
 21
146.9402999999999
 31
0.0
  0
LINE
  5
41
330
1E
100
AcDbEntity
  8
0
100
AcDbLine
 10
0.5999999999999951
 20
136.4999999999999
 30
0.0
 11
0.5999999999999951
 21
141.5338
 31
0.0
  0
LINE
  5
42
330
1E
100
AcDbEntity
  8
0
100
AcDbLine
 10
0.5999999999999951
 20
136.4999999999999
 30
0.0
 11
0.5999999999999951
 21
132.2221999999999
 31
0.0
  0
LINE
  5
43
330
1E
100
AcDbEntity
  8
0
100
AcDbLine
 10
0.5999999999999951
 20
141.5338
 30
0.0
 11
0.5999999999999951
 21
136.4999999999999
 31
0.0
  0
LINE
  5
44
330
1E
100
AcDbEntity
  8
0
100
AcDbLine
 10
0.5999999999999951
 20
141.5338
 30
0.0
 11
0.5999999999999951
 21
146.9065
 31
0.0
  0
LINE
  5
45
330
1E
100
AcDbEntity
  8
0
100
AcDbLine
 10
-0.0000000000000052
 20
152.287
 30
0.0
 11
-0.0000000000000052
 21
147.0596999999999
 31
0.0
  0
LINE
  5
46
330
1E
100
AcDbEntity
  8
0
100
AcDbLine
 10
-0.0000000000000052
 20
152.287
 30
0.0
 11
-0.0000000000000052
 21
157.2479999999999
 31
0.0
  0
LINE
  5
47
330
1E
100
AcDbEntity
  8
0
100
AcDbLine
 10
-0.0000000000000052
 20
147.0596999999999
 30
0.0
 11
-0.0000000000000052
 21
152.287
 31
0.0
  0
LINE
  5
48
330
1E
100
AcDbEntity
  8
0
100
AcDbLine
 10
-0.0000000000000052
 20
147.0596999999999
 30
0.0
 11
-0.0000000000000052
 21
141.7117
 31
0.0
  0
LINE
  5
49
330
1E
100
AcDbEntity
  8
0
100
AcDbLine
 10
-0.0000000000000052
 20
146.9402999999999
 30
0.0
 11
-0.0000000000000052
 21
141.713
 31
0.0
  0
LINE
  5
4A
330
1E
100
AcDbEntity
  8
0
100
AcDbLine
 10
-0.0000000000000052
 20
146.9402999999999
 30
0.0
 11
-0.0000000000000052
 21
152.2883
 31
0.0
  0
LINE
  5
4B
330
1E
100
AcDbEntity
  8
0
100
AcDbLine
 10
-0.0000000000000052
 20
157.2479999999999
 30
0.0
 11
-0.0000000000000052
 21
161.453
 31
0.0
  0
LINE
  5
4C
330
1E
100
AcDbEntity
  8
0
100
AcDbLine
 10
-0.0000000000000052
 20
157.2479999999999
 30
0.0
 11
-0.0000000000000052
 21
152.287
 31
0.0
  0
LINE
  5
4D
330
1E
100
AcDbEntity
  8
0
100
AcDbLine
 10
-0.0000000000000052
 20
152.2883
 30
0.0
 11
-0.0000000000000052
 21
146.9402999999999
 31
0.0
  0
LINE
  5
4E
330
1E
100
AcDbEntity
  8
0
100
AcDbLine
 10
-0.0000000000000052
 20
152.2883
 30
0.0
 11
-0.0000000000000052
 21
157.2674
 31
0.0
  0
LINE
  5
4F
330
1E
100
AcDbEntity
  8
0
100
AcDbLine
 10
-0.0000000000000052
 20
157.2674
 30
0.0
 11
-0.0000000000000052
 21
152.2883
 31
0.0
  0
LINE
  5
50
330
1E
100
AcDbEntity
  8
0
100
AcDbLine
 10
-0.0000000000000052
 20
157.2674
 30
0.0
 11
-0.0000000000000052
 21
161.4492999999999
 31
0.0
  0
LINE
  5
51
330
1E
100
AcDbEntity
  8
0
100
AcDbLine
 10
0.5999999999999951
 20
146.9065
 30
0.0
 11
0.5999999999999951
 21
141.5338
 31
0.0
  0
LINE
  5
52
330
1E
100
AcDbEntity
  8
0
100
AcDbLine
 10
0.5999999999999951
 20
146.9065
 30
0.0
 11
0.5999999999999951
 21
152.4421
 31
0.0
  0
LINE
  5
53
330
1E
100
AcDbEntity
  8
0
100
AcDbLine
 10
0.5999999999999951
 20
152.4421
 30
0.0
 11
0.5999999999999951
 21
146.9065
 31
0.0
  0
LINE
  5
54
330
1E
100
AcDbEntity
  8
0
100
AcDbLine
 10
0.5999999999999951
 20
152.4421
 30
0.0
 11
0.5999999999999951
 21
157.5778999999999
 31
0.0
  0
LINE
  5
55
330
1E
100
AcDbEntity
  8
0
100
AcDbLine
 10
-0.0000000000000052
 20
161.453
 30
0.0
 11
-0.0000000000000052
 21
164.6643
 31
0.0
  0
LINE
  5
56
330
1E
100
AcDbEntity
  8
0
100
AcDbLine
 10
-0.0000000000000052
 20
161.453
 30
0.0
 11
-0.0000000000000052
 21
157.2479999999999
 31
0.0
  0
LINE
  5
57
330
1E
100
AcDbEntity
  8
0
100
AcDbLine
 10
-0.0000000000000052
 20
164.6643
 30
0.0
 11
-0.0000000000000052
 21
166.7362999999999
 31
0.0
  0
LINE
  5
58
330
1E
100
AcDbEntity
  8
0
100
AcDbLine
 10
-0.0000000000000052
 20
164.6643
 30
0.0
 11
-0.0000000000000052
 21
161.453
 31
0.0
  0
LINE
  5
59
330
1E
100
AcDbEntity
  8
0
100
AcDbLine
 10
-0.0000000000000052
 20
161.4492999999999
 30
0.0
 11
-0.0000000000000052
 21
157.2674
 31
0.0
  0
LINE
  5
5A
330
1E
100
AcDbEntity
  8
0
100
AcDbLine
 10
-0.0000000000000052
 20
161.4492999999999
 30
0.0
 11
-0.0000000000000052
 21
164.7501
 31
0.0
  0
LINE
  5
5B
330
1E
100
AcDbEntity
  8
0
100
AcDbLine
 10
-0.0000000000000052
 20
164.7501
 30
0.0
 11
-0.0000000000000052
 21
161.4492999999999
 31
0.0
  0
LINE
  5
5C
330
1E
100
AcDbEntity
  8
0
100
AcDbLine
 10
-0.0000000000000052
 20
164.7501
 30
0.0
 11
-0.0000000000000052
 21
166.7412999999999
 31
0.0
  0
LINE
  5
5D
330
1E
100
AcDbEntity
  8
0
100
AcDbLine
 10
0.5999999999999951
 20
157.5778999999999
 30
0.0
 11
0.5999999999999951
 21
152.4421
 31
0.0
  0
LINE
  5
5E
330
1E
100
AcDbEntity
  8
0
100
AcDbLine
 10
0.5999999999999951
 20
157.5778999999999
 30
0.0
 11
0.5999999999999951
 21
161.8437999999999
 31
0.0
  0
LINE
  5
5F
330
1E
100
AcDbEntity
  8
0
100
AcDbLine
 10
0.600000000000004
 20
126.0061
 30
0.0
 11
152.5
 21
126.0061
 31
0.0
  0
LINE
  5
60
330
1E
100
AcDbEntity
  8
0
100
AcDbLine
 10
0.5999999999999951
 20
161.8437999999999
 30
0.0
 11
0.5999999999999951
 21
157.5778999999999
 31
0.0
  0
LINE
  5
61
330
1E
100
AcDbEntity
  8
0
100
AcDbLine
 10
0.5999999999999951
 20
161.8437999999999
 30
0.0
 11
0.5999999999999951
 21
165.1864999999999
 31
0.0
  0
LINE
  5
62
330
1E
100
AcDbEntity
  8
0
100
AcDbLine
 10
-0.0000000000000052
 20
166.7362999999999
 30
0.0
 11
-0.0000000000000052
 21
167.4314
 31
0.0
  0
LINE
  5
63
330
1E
100
AcDbEntity
  8
0
100
AcDbLine
 10
-0.0000000000000052
 20
166.7362999999999
 30
0.0
 11
-0.0000000000000052
 21
164.6643
 31
0.0
  0
LINE
  5
64
330
1E
100
AcDbEntity
  8
0
100
AcDbLine
 10
-0.0000000000000052
 20
167.4314
 30
0.0
 11
-0.0000000000000052
 21
166.7412999999999
 31
0.0
  0
LINE
  5
65
330
1E
100
AcDbEntity
  8
0
100
AcDbLine
 10
-0.0000000000000052
 20
167.4314
 30
0.0
 11
0.5999999999999951
 21
167.9939
 31
0.0
  0
LINE
  5
66
330
1E
100
AcDbEntity
  8
0
100
AcDbLine
 10
-0.0000000000000052
 20
167.4314
 30
0.0
 11
-0.0000000000000052
 21
166.7362999999999
 31
0.0
  0
LINE
  5
67
330
1E
100
AcDbEntity
  8
0
100
AcDbLine
 10
-0.0000000000000052
 20
166.7412999999999
 30
0.0
 11
-0.0000000000000052
 21
164.7501
 31
0.0
  0
LINE
  5
68
330
1E
100
AcDbEntity
  8
0
100
AcDbLine
 10
-0.0000000000000052
 20
166.7412999999999
 30
0.0
 11
-0.0000000000000052
 21
167.4314
 31
0.0
  0
LINE
  5
69
330
1E
100
AcDbEntity
  8
0
100
AcDbLine
 10
0.5999999999999951
 20
167.9939
 30
0.0
 11
0.5999999999999951
 21
167.2197999999999
 31
0.0
  0
LINE
  5
6A
330
1E
100
AcDbEntity
  8
0
100
AcDbLine
 10
0.5999999999999951
 20
167.9939
 30
0.0
 11
170.0
 21
167.9939
 31
0.0
  0
LINE
  5
6B
330
1E
100
AcDbEntity
  8
0
100
AcDbLine
 10
0.600000000000004
 20
167.9939
 30
0.0
 11
170.0
 21
167.9939
 31
0.0
  0
LINE
  5
6C
330
1E
100
AcDbEntity
  8
0
100
AcDbLine
 10
0.5999999999999951
 20
167.2197999999999
 30
0.0
 11
0.5999999999999951
 21
165.1864999999999
 31
0.0
  0
LINE
  5
6D
330
1E
100
AcDbEntity
  8
0
100
AcDbLine
 10
0.5999999999999951
 20
167.2197999999999
 30
0.0
 11
0.5999999999999951
 21
167.9939
 31
0.0
  0
LINE
  5
6E
330
1E
100
AcDbEntity
  8
0
100
AcDbLine
 10
0.5999999999999951
 20
165.1864999999999
 30
0.0
 11
0.5999999999999951
 21
161.8437999999999
 31
0.0
  0
LINE
  5
6F
330
1E
100
AcDbEntity
  8
0
100
AcDbLine
 10
0.5999999999999951
 20
165.1864999999999
 30
0.0
 11
0.5999999999999951
 21
167.2197999999999
 31
0.0
  0
LINE
  5
70
330
1E
100
AcDbEntity
  8
0
100
AcDbLine
 10
16.2965117647059
 20
126.0061
 30
0.0
 11
19.204
 21
122.204
 31
0.0
  0
LINE
  5
71
330
1E
100
AcDbEntity
  8
0
100
AcDbLine
 10
19.204
 20
122.204
 30
0.0
 11
25.22199999999999
 21
117.602
 31
0.0
  0
LINE
  5
72
330
1E
100
AcDbEntity
  8
0
100
AcDbLine
 10
15.2992075471698
 20
126.0061
 30
0.0
 11
18.614
 21
121.6139999999999
 31
0.0
  0
LINE
  5
73
330
1E
100
AcDbEntity
  8
0
100
AcDbLine
 10
18.614
 20
121.6139999999999
 30
0.0
 11
24.868
 21
116.8939999999999
 31
0.0
  0
LINE
  5
74
330
1E
100
AcDbEntity
  8
0
100
AcDbLine
 10
25.22199999999999
 20
117.602
 30
0.0
 11
32.066
 21
114.7699999999999
 31
0.0
  0
LINE
  5
75
330
1E
100
AcDbEntity
  8
0
100
AcDbLine
 10
24.868
 20
116.8939999999999
 30
0.0
 11
31.948
 21
114.062
 31
0.0
  0
LINE
  5
76
330
1E
100
AcDbEntity
  8
0
100
AcDbLine
 10
32.066
 20
114.7699999999999
 30
0.0
 11
39.5
 21
113.708
 31
0.0
  0
LINE
  5
77
330
1E
100
AcDbEntity
  8
0
100
AcDbLine
 10
31.948
 20
114.062
 30
0.0
 11
39.5
 21
113.0
 31
0.0
  0
LINE
  5
78
330
1E
100
AcDbEntity
  8
0
100
AcDbLine
 10
26.6620916666666
 20
167.9939
 30
0.0
 11
32.066
 21
170.2299999999999
 31
0.0
  0
LINE
  5
79
330
1E
100
AcDbEntity
  8
0
100
AcDbLine
 10
32.066
 20
170.2299999999999
 30
0.0
 11
39.5
 21
171.2919999999999
 31
0.0
  0
LINE
  5
7A
330
1E
100
AcDbEntity
  8
0
100
AcDbLine
 10
24.868
 20
168.1059999999999
 30
0.0
 11
31.948
 21
170.9379999999999
 31
0.0
  0
LINE
  5
7B
330
1E
100
AcDbEntity
  8
0
100
AcDbLine
 10
24.7194675
 20
167.9939
 30
0.0
 11
24.868
 21
168.1059999999999
 31
0.0
  0
LINE
  5
7C
330
1E
100
AcDbEntity
  8
0
100
AcDbLine
 10
31.948
 20
170.9379999999999
 30
0.0
 11
39.5
 21
172.0
 31
0.0
  0
LINE
  5
7D
330
1E
100
AcDbEntity
  8
0
100
AcDbLine
 10
39.5
 20
171.2919999999999
 30
0.0
 11
46.93399999999999
 21
170.2299999999999
 31
0.0
  0
LINE
  5
7E
330
1E
100
AcDbEntity
  8
0
100
AcDbLine
 10
39.5
 20
172.0
 30
0.0
 11
47.052
 21
170.9379999999999
 31
0.0
  0
LINE
  5
7F
330
1E
100
AcDbEntity
  8
0
100
AcDbLine
 10
46.93399999999999
 20
170.2299999999999
 30
0.0
 11
52.3379083333334
 21
167.9939
 31
0.0
  0
LINE
  5
80
330
1E
100
AcDbEntity
  8
0
100
AcDbLine
 10
47.052
 20
170.9379999999999
 30
0.0
 11
54.13199999999999
 21
168.1059999999999
 31
0.0
  0
LINE
  5
81
330
1E
100
AcDbEntity
  8
0
100
AcDbLine
 10
46.93399999999999
 20
114.7699999999999
 30
0.0
 11
53.778
 21
117.602
 31
0.0
  0
LINE
  5
82
330
1E
100
AcDbEntity
  8
0
100
AcDbLine
 10
39.5
 20
113.708
 30
0.0
 11
46.93399999999999
 21
114.7699999999999
 31
0.0
  0
LINE
  5
83
330
1E
100
AcDbEntity
  8
0
100
AcDbLine
 10
39.5
 20
113.0
 30
0.0
 11
47.052
 21
114.062
 31
0.0
  0
LINE
  5
85
330
1E
100
AcDbEntity
  8
0
100
AcDbLine
 10
150.5
 20
77.23359999999999
 30
0.0
 11
151.2
 21
72.9035
 31
0.0
  0
LINE
  5
86
330
1E
100
AcDbEntity
  8
0
100
AcDbLine
 10
150.5
 20
77.23359999999999
 30
0.0
 11
150.5
 21
78.2336
 31
0.0
  0
LINE
  5
87
330
1E
100
AcDbEntity
  8
0
100
AcDbLine
 10
150.5
 20
78.23350000000001
 30
0.0
 11
150.5
 21
77.2335
 31
0.0
  0
LINE
  5
88
330
1E
100
AcDbEntity
  8
0
100
AcDbLine
 10
150.5
 20
78.23350000000001
 30
0.0
 11
151.2
 21
82.5637
 31
0.0
  0
LINE
  5
89
330
1E
100
AcDbEntity
  8
0
100
AcDbLine
 10
156.1999999999999
 20
65.28249999999999
 30
0.0
 11
160.3
 21
62.5978
 31
0.0
  0
LINE
  5
8A
330
1E
100
AcDbEntity
  8
0
100
AcDbLine
 10
153.0999999999999
 20
68.83320000000001
 30
0.0
 11
156.1999999999999
 21
65.28249999999999
 31
0.0
  0
LINE
  5
8B
330
1E
100
AcDbEntity
  8
0
100
AcDbLine
 10
151.2
 20
72.9035
 30
0.0
 11
153.0999999999999
 21
68.83320000000001
 31
0.0
  0
LINE
  5
8C
330
1E
100
AcDbEntity
  8
0
100
AcDbLine
 10
152.5
 20
85.3486421052632
 30
0.0
 11
152.5
 21
100.7336
 31
0.0
  0
LINE
  5
8D
330
1E
100
AcDbEntity
  8
0
100
AcDbLine
 10
152.5
 20
101.2335999999999
 30
0.0
 11
152.53849765981
 21
100.983551283255
 31
0.0
  0
LINE
  5
8E
330
1E
100
AcDbEntity
  8
0
100
AcDbLine
 10
152.5
 20
101.2335999999999
 30
0.0
 11
152.5741412454229
 21
101.215064688644
 31
0.0
  0
LINE
  5
8F
330
1E
100
AcDbEntity
  8
0
100
AcDbLine
 10
152.5
 20
101.2335999999999
 30
0.0
 11
152.5
 21
136.4999999999999
 31
0.0
  0
LINE
  5
90
330
1E
100
AcDbEntity
  8
0
100
AcDbLine
 10
153.0999999999999
 20
105.1306399999999
 30
0.0
 11
154.8
 21
108.7679499999999
 31
0.0
  0
LINE
  5
91
330
1E
100
AcDbEntity
  8
0
100
AcDbLine
 10
152.5
 20
101.2334999999999
 30
0.0
 11
152.574126420139
 21
101.2149683949649
 31
0.0
  0
LINE
  5
92
330
1E
100
AcDbEntity
  8
0
100
AcDbLine
 10
152.5
 20
101.2334999999999
 30
0.0
 11
153.0999999999999
 21
105.1306399999999
 31
0.0
  0
LINE
  5
93
330
1E
100
AcDbEntity
  8
0
100
AcDbLine
 10
153.0999999999999
 20
104.6306399999999
 30
0.0
 11
154.8
 21
108.26795
 31
0.0
  0
LINE
  5
94
330
1E
100
AcDbEntity
  8
0
100
AcDbLine
 10
152.5
 20
100.7335
 30
0.0
 11
152.5
 21
85.3486421052632
 31
0.0
  0
LINE
  5
95
330
1E
100
AcDbEntity
  8
0
100
AcDbLine
 10
152.5
 20
100.7335
 30
0.0
 11
153.0999999999999
 21
104.6306399999999
 31
0.0
  0
LINE
  5
96
330
1E
100
AcDbEntity
  8
0
100
AcDbLine
 10
153.0999999999999
 20
86.63400000000001
 30
0.0
 11
156.1999999999999
 21
90.1847
 31
0.0
  0
LINE
  5
97
330
1E
100
AcDbEntity
  8
0
100
AcDbLine
 10
151.2
 20
82.5637
 30
0.0
 11
153.0999999999999
 21
86.63400000000001
 31
0.0
  0
LINE
  5
98
330
1E
100
AcDbEntity
  8
0
100
AcDbLine
 10
154.8
 20
108.7679499999999
 30
0.0
 11
157.6
 21
111.9722399999999
 31
0.0
  0
LINE
  5
99
330
1E
100
AcDbEntity
  8
0
100
AcDbLine
 10
154.8
 20
108.26795
 30
0.0
 11
157.6
 21
111.4722399999999
 31
0.0
  0
LINE
  5
9A
330
1E
100
AcDbEntity
  8
0
100
AcDbLine
 10
157.6
 20
111.9722399999999
 30
0.0
 11
161.3
 21
114.39711
 31
0.0
  0
LINE
  5
9B
330
1E
100
AcDbEntity
  8
0
100
AcDbLine
 10
157.6
 20
111.4722399999999
 30
0.0
 11
161.3
 21
113.8971139999999
 31
0.0
  0
LINE
  5
9C
330
1E
100
AcDbEntity
  8
0
100
AcDbLine
 10
156.1999999999999
 20
90.1847
 30
0.0
 11
160.3
 21
92.86939999999999
 31
0.0
  0
LINE
  5
9D
330
1E
100
AcDbEntity
  8
0
100
AcDbLine
 10
156.1999999999999
 20
89.18470000000001
 30
0.0
 11
160.3
 21
91.86939999999999
 31
0.0
  0
LINE
  5
9E
330
1E
100
AcDbEntity
  8
0
100
AcDbLine
 10
153.0999999999999
 20
85.63399999999999
 30
0.0
 11
156.1999999999999
 21
89.18470000000001
 31
0.0
  0
LINE
  5
9F
330
1E
100
AcDbEntity
  8
0
100
AcDbLine
 10
151.2
 20
81.5637
 30
0.0
 11
153.0999999999999
 21
85.63399999999999
 31
0.0
  0
LINE
  5
A1
330
1E
100
AcDbEntity
  8
0
100
AcDbLine
 10
150.5
 20
77.2335
 30
0.0
 11
151.2
 21
81.5637
 31
0.0
  0
LINE
  5
A2
330
1E
100
AcDbEntity
  8
0
100
AcDbLine
 10
54.13199999999999
 20
168.1059999999999
 30
0.0
 11
54.28053249999999
 21
167.9939
 31
0.0
  0
LINE
  5
A3
330
1E
100
AcDbEntity
  8
0
100
AcDbLine
 10
59.79600000000001
 20
122.204
 30
0.0
 11
62.7034882352941
 21
126.0061
 31
0.0
  0
LINE
  5
A4
330
1E
100
AcDbEntity
  8
0
100
AcDbLine
 10
53.778
 20
117.602
 30
0.0
 11
59.79600000000001
 21
122.204
 31
0.0
  0
LINE
  5
A5
330
1E
100
AcDbEntity
  8
0
100
AcDbLine
 10
152.5
 20
136.4999999999999
 30
0.0
 11
153.0999999999999
 21
140.6198
 31
0.0
  0
LINE
  5
A6
330
1E
100
AcDbEntity
  8
0
100
AcDbLine
 10
152.5
 20
136.4999999999999
 30
0.0
 11
152.5
 21
101.2334999999999
 31
0.0
  0
LINE
  5
A7
330
1E
100
AcDbEntity
  8
0
100
AcDbLine
 10
153.0999999999999
 20
140.6198
 30
0.0
 11
154.8
 21
144.9160999999999
 31
0.0
  0
LINE
  5
A8
330
1E
100
AcDbEntity
  8
0
100
AcDbLine
 10
157.6
 20
149.2564
 30
0.0
 11
161.3
 21
152.7939
 31
0.0
  0
LINE
  5
A9
330
1E
100
AcDbEntity
  8
0
100
AcDbLine
 10
154.8
 20
144.9160999999999
 30
0.0
 11
157.6
 21
149.2564
 31
0.0
  0
LINE
  5
AA
330
1E
100
AcDbEntity
  8
0
100
AcDbLine
 10
60.386
 20
121.6139999999999
 30
0.0
 11
63.7007924528302
 21
126.0061
 31
0.0
  0
LINE
  5
AB
330
1E
100
AcDbEntity
  8
0
100
AcDbLine
 10
54.13199999999999
 20
116.8939999999999
 30
0.0
 11
60.386
 21
121.6139999999999
 31
0.0
  0
LINE
  5
AC
330
1E
100
AcDbEntity
  8
0
100
AcDbLine
 10
47.052
 20
114.062
 30
0.0
 11
54.13199999999999
 21
116.8939999999999
 31
0.0
  0
LINE
  5
AD
330
1E
100
AcDbEntity
  8
0
100
AcDbLine
 10
159.3936233380129
 20
63.1912998596189
 30
0.0
 11
159.4999999999999
 21
60.0
 31
0.0
  0
LINE
  5
AE
330
1E
100
AcDbEntity
  8
0
100
AcDbLine
 10
162.5
 20
60.0
 30
0.0
 11
162.8
 21
60.0
 31
0.0
  0
LINE
  5
AF
330
1E
100
AcDbEntity
  8
0
100
AcDbLine
 10
162.5
 20
60.0
 30
0.0
 11
162.5
 21
0.0
 31
0.0
  0
LINE
  5
B0
330
1E
100
AcDbEntity
  8
0
100
AcDbLine
 10
162.86274
 20
0.0262499999999963
 30
0.0
 11
163.5379899999999
 21
0.101219999999996
 31
0.0
  0
LINE
  5
B1
330
1E
100
AcDbEntity
  8
0
100
AcDbLine
 10
164.77595
 20
0.4760399999999961
 30
0.0
 11
166.2765
 21
1.15073
 31
0.0
  0
LINE
  5
B2
330
1E
100
AcDbEntity
  8
0
100
AcDbLine
 10
164.77595
 20
0.4760399999999971
 30
0.0
 11
166.2765
 21
1.15073
 31
0.0
  0
LINE
  5
B3
330
1E
100
AcDbEntity
  8
0
100
AcDbLine
 10
164.7
 20
60.0
 30
0.0
 11
166.3
 21
60.0
 31
0.0
  0
LINE
  5
B4
330
1E
100
AcDbEntity
  8
0
100
AcDbLine
 10
163.4999999999999
 20
60.0
 30
0.0
 11
164.7
 21
60.0
 31
0.0
  0
LINE
  5
B5
330
1E
100
AcDbEntity
  8
0
100
AcDbLine
 10
163.5379899999999
 20
0.101219999999997
 30
0.0
 11
164.77595
 21
0.4760399999999971
 31
0.0
  0
LINE
  5
B6
330
1E
100
AcDbEntity
  8
0
100
AcDbLine
 10
162.8
 20
60.0
 30
0.0
 11
163.4999999999999
 21
60.0
 31
0.0
  0
LINE
  5
B7
330
1E
100
AcDbEntity
  8
0
100
AcDbLine
 10
162.86274
 20
0.0262499999999965
 30
0.0
 11
163.5379899999999
 21
0.101219999999997
 31
0.0
  0
LINE
  5
B8
330
1E
100
AcDbEntity
  8
0
100
AcDbLine
 10
162.5
 20
-0.0000000000000036
 30
0.0
 11
162.86274
 21
0.0262499999999965
 31
0.0
  0
LINE
  5
B9
330
1E
100
AcDbEntity
  8
0
100
AcDbLine
 10
162.5
 20
-0.0000000000000036
 30
0.0
 11
162.5
 21
60.0
 31
0.0
  0
LINE
  5
BA
330
1E
100
AcDbEntity
  8
0
100
AcDbLine
 10
162.5
 20
-0.0000000000000036
 30
0.0
 11
162.86274
 21
0.0262499999999963
 31
0.0
  0
LINE
  5
BB
330
1E
100
AcDbEntity
  8
0
100
AcDbLine
 10
166.2765
 20
1.15073
 30
0.0
 11
168.07717
 21
2.275199999999999
 31
0.0
  0
LINE
  5
BC
330
1E
100
AcDbEntity
  8
0
100
AcDbLine
 10
168.07717
 20
2.275199999999999
 30
0.0
 11
170.0278999999999
 21
4.261769999999999
 31
0.0
  0
LINE
  5
BD
330
1E
100
AcDbEntity
  8
0
100
AcDbLine
 10
170.0278999999999
 20
4.261769999999999
 30
0.0
 11
171.791
 21
5.611139999999999
 31
0.0
  0
LINE
  5
BE
330
1E
100
AcDbEntity
  8
0
100
AcDbLine
 10
170.0278999999999
 20
4.261769999999999
 30
0.0
 11
171.791
 21
5.611139999999999
 31
0.0
  0
LINE
  5
BF
330
1E
100
AcDbEntity
  8
0
100
AcDbLine
 10
170.0
 20
60.0
 30
0.0
 11
171.9
 21
60.0
 31
0.0
  0
LINE
  5
C0
330
1E
100
AcDbEntity
  8
0
100
AcDbLine
 10
170.0
 20
60.0
 30
0.0
 11
172.6999999999999
 21
60.0
 31
0.0
  0
LINE
  5
C1
330
1E
100
AcDbEntity
  8
0
100
AcDbLine
 10
172.6999999999999
 20
60.0
 30
0.0
 11
175.1999999999999
 21
60.0
 31
0.0
  0
LINE
  5
C2
330
1E
100
AcDbEntity
  8
0
100
AcDbLine
 10
171.9
 20
60.0
 30
0.0
 11
173.6999999999999
 21
60.0
 31
0.0
  0
LINE
  5
C3
330
1E
100
AcDbEntity
  8
0
100
AcDbLine
 10
171.791
 20
5.611139999999999
 30
0.0
 11
173.6291999999999
 21
6.810579999999999
 31
0.0
  0
LINE
  5
C4
330
1E
100
AcDbEntity
  8
0
100
AcDbLine
 10
175.4299
 20
8.010019999999999
 30
0.0
 11
176.5177999999999
 21
9.05953
 31
0.0
  0
LINE
  5
C5
330
1E
100
AcDbEntity
  8
0
100
AcDbLine
 10
175.1999999999999
 20
60.0
 30
0.0
 11
177.4
 21
60.0
 31
0.0
  0
LINE
  5
C6
330
1E
100
AcDbEntity
  8
0
100
AcDbLine
 10
173.6999999999999
 20
60.0
 30
0.0
 11
175.3
 21
60.0
 31
0.0
  0
LINE
  5
C7
330
1E
100
AcDbEntity
  8
0
100
AcDbLine
 10
173.6291999999999
 20
6.810579999999999
 30
0.0
 11
175.4299
 21
8.010019999999999
 31
0.0
  0
LINE
  5
C8
330
1E
100
AcDbEntity
  8
0
100
AcDbLine
 10
173.6291999999999
 20
6.810579999999999
 30
0.0
 11
175.4299
 21
8.010019999999999
 31
0.0
  0
LINE
  5
C9
330
1E
100
AcDbEntity
  8
0
100
AcDbLine
 10
175.3
 20
60.0
 30
0.0
 11
176.5
 21
60.0
 31
0.0
  0
LINE
  5
CA
330
1E
100
AcDbEntity
  8
0
100
AcDbLine
 10
175.4299
 20
8.010019999999999
 30
0.0
 11
176.5177999999999
 21
9.05953
 31
0.0
  0
LINE
  5
CB
330
1E
100
AcDbEntity
  8
0
100
AcDbLine
 10
176.5
 20
60.0
 30
0.0
 11
177.2
 21
60.0
 31
0.0
  0
LINE
  5
CC
330
1E
100
AcDbEntity
  8
0
100
AcDbLine
 10
176.5177999999999
 20
9.05953
 30
0.0
 11
177.2306
 21
9.771699999999999
 31
0.0
  0
LINE
  5
CD
330
1E
100
AcDbEntity
  8
0
100
AcDbLine
 10
177.2
 20
60.0
 30
0.0
 11
177.5
 21
60.0
 31
0.0
  0
LINE
  5
CE
330
1E
100
AcDbEntity
  8
0
100
AcDbLine
 10
177.5
 20
10.0
 30
0.0
 11
177.5
 21
60.0
 31
0.0
  0
LINE
  5
CF
330
1E
100
AcDbEntity
  8
0
100
AcDbLine
 10
177.4
 20
60.0
 30
0.0
 11
179.0999999999999
 21
60.0
 31
0.0
  0
LINE
  5
D0
330
1E
100
AcDbEntity
  8
0
100
AcDbLine
 10
179.0999999999999
 20
60.0
 30
0.0
 11
180.0999999999999
 21
60.0
 31
0.0
  0
LINE
  5
D1
330
1E
100
AcDbEntity
  8
0
100
AcDbLine
 10
180.0999999999999
 20
60.0
 30
0.0
 11
180.4999999999999
 21
60.0
 31
0.0
  0
LINE
  5
D2
330
1E
100
AcDbEntity
  8
0
100
AcDbLine
 10
180.4999999999999
 20
60.0
 30
0.0
 11
180.606376661987
 21
63.1912998596189
 31
0.0
  0
LINE
  5
D3
330
1E
100
AcDbEntity
  8
0
100
AcDbLine
 10
177.5
 20
60.0
 30
0.0
 11
177.5
 21
10.0
 31
0.0
  0
LINE
  5
D4
330
1E
100
AcDbEntity
  8
0
100
AcDbLine
 10
177.5
 20
60.0
 30
0.0
 11
179.0999999999999
 21
60.0
 31
0.0
  0
LINE
  5
D5
330
1E
100
AcDbEntity
  8
0
100
AcDbLine
 10
177.2306
 20
9.771699999999999
 30
0.0
 11
177.5
 21
10.0
 31
0.0
  0
LINE
  5
D6
330
1E
100
AcDbEntity
  8
0
100
AcDbLine
 10
168.1
 20
60.0
 30
0.0
 11
170.0
 21
60.0
 31
0.0
  0
LINE
  5
D7
330
1E
100
AcDbEntity
  8
0
100
AcDbLine
 10
168.07717
 20
2.275199999999999
 30
0.0
 11
170.0278999999999
 21
4.261769999999999
 31
0.0
  0
LINE
  5
D8
330
1E
100
AcDbEntity
  8
0
100
AcDbLine
 10
166.3
 20
60.0
 30
0.0
 11
168.1
 21
60.0
 31
0.0
  0
LINE
  5
D9
330
1E
100
AcDbEntity
  8
0
100
AcDbLine
 10
166.2765
 20
1.15073
 30
0.0
 11
168.07717
 21
2.275199999999999
 31
0.0
  0
LINE
  5
DA
330
1E
100
AcDbEntity
  8
0
100
AcDbLine
 10
167.3
 20
60.0
 30
0.0
 11
170.0
 21
60.0
 31
0.0
  0
LINE
  5
DB
330
1E
100
AcDbEntity
  8
0
100
AcDbLine
 10
164.8
 20
60.0
 30
0.0
 11
167.3
 21
60.0
 31
0.0
  0
LINE
  5
DC
330
1E
100
AcDbEntity
  8
0
100
AcDbLine
 10
162.5999999999999
 20
60.0
 30
0.0
 11
164.8
 21
60.0
 31
0.0
  0
LINE
  5
DD
330
1E
100
AcDbEntity
  8
0
100
AcDbLine
 10
160.8999999999999
 20
60.0
 30
0.0
 11
162.5999999999999
 21
60.0
 31
0.0
  0
LINE
  5
DE
330
1E
100
AcDbEntity
  8
0
100
AcDbLine
 10
160.8999999999999
 20
60.0
 30
0.0
 11
162.5
 21
60.0
 31
0.0
  0
LINE
  5
DF
330
1E
100
AcDbEntity
  8
0
100
AcDbLine
 10
160.3
 20
62.5978
 30
0.0
 11
165.0
 21
60.9523
 31
0.0
  0
LINE
  5
E0
330
1E
100
AcDbEntity
  8
0
100
AcDbLine
 10
160.3
 20
92.86939999999999
 30
0.0
 11
165.0
 21
94.5148
 31
0.0
  0
LINE
  5
E1
330
1E
100
AcDbEntity
  8
0
100
AcDbLine
 10
165.0
 20
60.9523
 30
0.0
 11
170.0
 21
60.3461
 31
0.0
  0
LINE
  5
E2
330
1E
100
AcDbEntity
  8
0
100
AcDbLine
 10
170.0
 20
60.3461
 30
0.0
 11
175.0
 21
60.9523
 31
0.0
  0
LINE
  5
E4
330
1E
100
AcDbEntity
  8
0
100
AcDbLine
 10
165.0
 20
93.5148
 30
0.0
 11
170.0
 21
94.121
 31
0.0
  0
LINE
  5
E5
330
1E
100
AcDbEntity
  8
0
100
AcDbLine
 10
160.3
 20
91.86939999999999
 30
0.0
 11
165.0
 21
93.5148
 31
0.0
  0
LINE
  5
E6
330
1E
100
AcDbEntity
  8
0
100
AcDbLine
 10
165.0
 20
94.5148
 30
0.0
 11
170.0
 21
95.12100000000001
 31
0.0
  0
LINE
  5
E7
330
1E
100
AcDbEntity
  8
0
100
AcDbLine
 10
170.0
 20
95.12100000000001
 30
0.0
 11
175.0
 21
94.5148
 31
0.0
  0
LINE
  5
E8
330
1E
100
AcDbEntity
  8
0
100
AcDbLine
 10
170.0
 20
94.121
 30
0.0
 11
175.0
 21
93.5148
 31
0.0
  0
LINE
  5
E9
330
1E
100
AcDbEntity
  8
0
100
AcDbLine
 10
175.0
 20
60.9523
 30
0.0
 11
179.6999999999999
 21
62.5978
 31
0.0
  0
LINE
  5
EA
330
1E
100
AcDbEntity
  8
0
100
AcDbLine
 10
179.6999999999999
 20
62.5978
 30
0.0
 11
183.8
 21
65.28249999999999
 31
0.0
  0
LINE
  5
EB
330
1E
100
AcDbEntity
  8
0
100
AcDbLine
 10
183.8
 20
65.28249999999999
 30
0.0
 11
186.8999999999999
 21
68.83320000000001
 31
0.0
  0
LINE
  5
EC
330
1E
100
AcDbEntity
  8
0
100
AcDbLine
 10
186.8999999999999
 20
68.83320000000001
 30
0.0
 11
188.8
 21
72.9035
 31
0.0
  0
LINE
  5
ED
330
1E
100
AcDbEntity
  8
0
100
AcDbLine
 10
183.8
 20
90.1847
 30
0.0
 11
186.8999999999999
 21
86.63400000000001
 31
0.0
  0
LINE
  5
EE
330
1E
100
AcDbEntity
  8
0
100
AcDbLine
 10
175.0
 20
94.5148
 30
0.0
 11
179.6999999999999
 21
92.86939999999999
 31
0.0
  0
LINE
  5
EF
330
1E
100
AcDbEntity
  8
0
100
AcDbLine
 10
179.6999999999999
 20
92.86939999999999
 30
0.0
 11
183.8
 21
90.1847
 31
0.0
  0
LINE
  5
F0
330
1E
100
AcDbEntity
  8
0
100
AcDbLine
 10
175.0
 20
93.5148
 30
0.0
 11
179.6999999999999
 21
91.86939999999999
 31
0.0
  0
LINE
  5
F1
330
1E
100
AcDbEntity
  8
0
100
AcDbLine
 10
179.6999999999999
 20
91.86939999999999
 30
0.0
 11
183.8
 21
89.18470000000001
 31
0.0
  0
LINE
  5
F2
330
1E
100
AcDbEntity
  8
0
100
AcDbLine
 10
185.1999999999999
 20
108.26795
 30
0.0
 11
186.8999999999999
 21
104.6306399999999
 31
0.0
  0
LINE
  5
F3
330
1E
100
AcDbEntity
  8
0
100
AcDbLine
 10
186.8999999999999
 20
104.6306399999999
 30
0.0
 11
187.5
 21
100.7335
 31
0.0
  0
LINE
  5
F4
330
1E
100
AcDbEntity
  8
0
100
AcDbLine
 10
186.8999999999999
 20
86.63400000000001
 30
0.0
 11
188.8
 21
82.5637
 31
0.0
  0
LINE
  5
F5
330
1E
100
AcDbEntity
  8
0
100
AcDbLine
 10
183.8
 20
89.18470000000001
 30
0.0
 11
186.8999999999999
 21
85.63399999999999
 31
0.0
  0
LINE
  5
F6
330
1E
100
AcDbEntity
  8
0
100
AcDbLine
 10
186.8999999999999
 20
85.63399999999999
 30
0.0
 11
188.8
 21
81.5637
 31
0.0
  0
LINE
  5
F8
330
1E
100
AcDbEntity
  8
0
100
AcDbLine
 10
182.4
 20
111.4722399999999
 30
0.0
 11
185.1999999999999
 21
108.26795
 31
0.0
  0
LINE
  5
F9
330
1E
100
AcDbEntity
  8
0
100
AcDbLine
 10
182.4
 20
111.9722399999999
 30
0.0
 11
185.1999999999999
 21
108.7679499999999
 31
0.0
  0
LINE
  5
FA
330
1E
100
AcDbEntity
  8
0
100
AcDbLine
 10
185.1999999999999
 20
108.7679499999999
 30
0.0
 11
186.8999999999999
 21
105.1306399999999
 31
0.0
  0
LINE
  5
FB
330
1E
100
AcDbEntity
  8
0
100
AcDbLine
 10
188.8
 20
72.9035
 30
0.0
 11
189.4999999999999
 21
77.23359999999999
 31
0.0
  0
LINE
  5
FC
330
1E
100
AcDbEntity
  8
0
100
AcDbLine
 10
187.4615023401899
 20
100.983551283255
 30
0.0
 11
187.5
 21
101.2335999999999
 31
0.0
  0
LINE
  5
FD
330
1E
100
AcDbEntity
  8
0
100
AcDbLine
 10
187.5
 20
100.7336
 30
0.0
 11
187.5
 21
85.3486421052632
 31
0.0
  0
LINE
  5
FE
330
1E
100
AcDbEntity
  8
0
100
AcDbLine
 10
187.5
 20
85.3486421052632
 30
0.0
 11
187.5
 21
100.7335
 31
0.0
  0
LINE
  5
FF
330
1E
100
AcDbEntity
  8
0
100
AcDbLine
 10
188.8
 20
82.5637
 30
0.0
 11
189.4999999999999
 21
78.23350000000001
 31
0.0
  0
LINE
  5
100
330
1E
100
AcDbEntity
  8
0
100
AcDbLine
 10
189.4999999999999
 20
78.2336
 30
0.0
 11
189.4999999999999
 21
77.23359999999999
 31
0.0
  0
LINE
  5
101
330
1E
100
AcDbEntity
  8
0
100
AcDbLine
 10
189.4999999999999
 20
77.2335
 30
0.0
 11
189.4999999999999
 21
78.23350000000001
 31
0.0
  0
LINE
  5
102
330
1E
100
AcDbEntity
  8
0
100
AcDbLine
 10
188.8
 20
81.5637
 30
0.0
 11
189.4999999999999
 21
77.2335
 31
0.0
  0
LINE
  5
103
330
1E
100
AcDbEntity
  8
0
100
AcDbLine
 10
187.4258587545769
 20
101.215064688644
 30
0.0
 11
187.5
 21
101.2335999999999
 31
0.0
  0
LINE
  5
104
330
1E
100
AcDbEntity
  8
0
100
AcDbLine
 10
187.5
 20
101.2334999999999
 30
0.0
 11
187.5
 21
136.4999999999999
 31
0.0
  0
LINE
  5
105
330
1E
100
AcDbEntity
  8
0
100
AcDbLine
 10
187.4258735798609
 20
101.2149683949649
 30
0.0
 11
187.5
 21
101.2334999999999
 31
0.0
  0
LINE
  5
106
330
1E
100
AcDbEntity
  8
0
100
AcDbLine
 10
186.8999999999999
 20
105.1306399999999
 30
0.0
 11
187.5
 21
101.2334999999999
 31
0.0
  0
LINE
  5
107
330
1E
100
AcDbEntity
  8
0
100
AcDbLine
 10
165.5
 20
115.86936
 30
0.0
 11
170.0
 21
116.38897
 31
0.0
  0
LINE
  5
108
330
1E
100
AcDbEntity
  8
0
100
AcDbLine
 10
161.3
 20
114.39711
 30
0.0
 11
165.5
 21
115.86936
 31
0.0
  0
LINE
  5
109
330
1E
100
AcDbEntity
  8
0
100
AcDbLine
 10
165.5
 20
115.36936
 30
0.0
 11
170.0
 21
115.88897
 31
0.0
  0
LINE
  5
10A
330
1E
100
AcDbEntity
  8
0
100
AcDbLine
 10
161.3
 20
113.8971139999999
 30
0.0
 11
165.5
 21
115.36936
 31
0.0
  0
LINE
  5
10B
330
1E
100
AcDbEntity
  8
0
100
AcDbLine
 10
174.5
 20
115.36936
 30
0.0
 11
178.6999999999999
 21
113.8971139999999
 31
0.0
  0
LINE
  5
10C
330
1E
100
AcDbEntity
  8
0
100
AcDbLine
 10
161.3
 20
152.7939
 30
0.0
 11
165.5
 21
155.5626
 31
0.0
  0
LINE
  5
10D
330
1E
100
AcDbEntity
  8
0
100
AcDbLine
 10
165.5
 20
155.5626
 30
0.0
 11
170.0
 21
157.5778999999999
 31
0.0
  0
LINE
  5
10E
330
1E
100
AcDbEntity
  8
0
100
AcDbLine
 10
170.0
 20
115.88897
 30
0.0
 11
174.5
 21
115.36936
 31
0.0
  0
LINE
  5
10F
330
1E
100
AcDbEntity
  8
0
100
AcDbLine
 10
170.0
 20
167.9939
 30
0.0
 11
233.4
 21
167.9939
 31
0.0
  0
LINE
  5
110
330
1E
100
AcDbEntity
  8
0
100
AcDbLine
 10
170.0
 20
157.5778999999999
 30
0.0
 11
174.5
 21
155.5626
 31
0.0
  0
LINE
  5
111
330
1E
100
AcDbEntity
  8
0
100
AcDbLine
 10
174.5
 20
155.5626
 30
0.0
 11
178.6999999999999
 21
152.7939
 31
0.0
  0
LINE
  5
112
330
1E
100
AcDbEntity
  8
0
100
AcDbLine
 10
170.0
 20
116.38897
 30
0.0
 11
174.5
 21
115.86936
 31
0.0
  0
LINE
  5
113
330
1E
100
AcDbEntity
  8
0
100
AcDbLine
 10
174.5
 20
115.86936
 30
0.0
 11
178.6999999999999
 21
114.39711
 31
0.0
  0
LINE
  5
114
330
1E
100
AcDbEntity
  8
0
100
AcDbLine
 10
178.6999999999999
 20
113.8971139999999
 30
0.0
 11
182.4
 21
111.4722399999999
 31
0.0
  0
LINE
  5
115
330
1E
100
AcDbEntity
  8
0
100
AcDbLine
 10
178.6999999999999
 20
152.7939
 30
0.0
 11
182.4
 21
149.2564
 31
0.0
  0
LINE
  5
116
330
1E
100
AcDbEntity
  8
0
100
AcDbLine
 10
182.4
 20
149.2564
 30
0.0
 11
185.1999999999999
 21
144.9160999999999
 31
0.0
  0
LINE
  5
117
330
1E
100
AcDbEntity
  8
0
100
AcDbLine
 10
185.1999999999999
 20
144.9160999999999
 30
0.0
 11
186.8999999999999
 21
140.6198
 31
0.0
  0
LINE
  5
118
330
1E
100
AcDbEntity
  8
0
100
AcDbLine
 10
187.5
 20
136.4999999999999
 30
0.0
 11
187.5
 21
101.2335999999999
 31
0.0
  0
LINE
  5
119
330
1E
100
AcDbEntity
  8
0
100
AcDbLine
 10
187.5
 20
126.0061
 30
0.0
 11
233.4
 21
126.0061
 31
0.0
  0
LINE
  5
11A
330
1E
100
AcDbEntity
  8
0
100
AcDbLine
 10
186.8999999999999
 20
140.6198
 30
0.0
 11
187.5
 21
136.4999999999999
 31
0.0
  0
LINE
  5
11B
330
1E
100
AcDbEntity
  8
0
100
AcDbLine
 10
178.6999999999999
 20
114.39711
 30
0.0
 11
182.4
 21
111.9722399999999
 31
0.0
  0
LINE
  5
11C
330
1E
100
AcDbEntity
  8
0
100
AcDbLine
 10
187.5
 20
113.9937142857139
 30
0.0
 11
189.4999999999999
 21
113.708
 31
0.0
  0
LINE
  5
11D
330
1E
100
AcDbEntity
  8
0
100
AcDbLine
 10
187.5
 20
113.28125
 30
0.0
 11
189.4999999999999
 21
113.0
 31
0.0
  0
LINE
  5
11E
330
1E
100
AcDbEntity
  8
0
100
AcDbLine
 10
176.6620916666669
 20
167.9939
 30
0.0
 11
182.0659999999999
 21
170.2299999999999
 31
0.0
  0
LINE
  5
11F
330
1E
100
AcDbEntity
  8
0
100
AcDbLine
 10
182.0659999999999
 20
170.2299999999999
 30
0.0
 11
189.4999999999999
 21
171.2919999999999
 31
0.0
  0
LINE
  5
120
330
1E
100
AcDbEntity
  8
0
100
AcDbLine
 10
174.868
 20
168.1059999999999
 30
0.0
 11
181.9479999999999
 21
170.9379999999999
 31
0.0
  0
LINE
  5
121
330
1E
100
AcDbEntity
  8
0
100
AcDbLine
 10
174.7194675
 20
167.9939
 30
0.0
 11
174.868
 21
168.1059999999999
 31
0.0
  0
LINE
  5
122
330
1E
100
AcDbEntity
  8
0
100
AcDbLine
 10
181.9479999999999
 20
170.9379999999999
 30
0.0
 11
189.4999999999999
 21
172.0
 31
0.0
  0
LINE
  5
123
330
1E
100
AcDbEntity
  8
0
100
AcDbLine
 10
189.4999999999999
 20
171.2919999999999
 30
0.0
 11
196.934
 21
170.2299999999999
 31
0.0
  0
LINE
  5
124
330
1E
100
AcDbEntity
  8
0
100
AcDbLine
 10
189.4999999999999
 20
172.0
 30
0.0
 11
197.052
 21
170.9379999999999
 31
0.0
  0
LINE
  5
125
330
1E
100
AcDbEntity
  8
0
100
AcDbLine
 10
196.934
 20
170.2299999999999
 30
0.0
 11
202.337908333333
 21
167.9939
 31
0.0
  0
LINE
  5
126
330
1E
100
AcDbEntity
  8
0
100
AcDbLine
 10
197.052
 20
170.9379999999999
 30
0.0
 11
204.132
 21
168.1059999999999
 31
0.0
  0
LINE
  5
127
330
1E
100
AcDbEntity
  8
0
100
AcDbLine
 10
196.934
 20
114.7699999999999
 30
0.0
 11
203.778
 21
117.602
 31
0.0
  0
LINE
  5
128
330
1E
100
AcDbEntity
  8
0
100
AcDbLine
 10
189.4999999999999
 20
113.708
 30
0.0
 11
196.934
 21
114.7699999999999
 31
0.0
  0
LINE
  5
129
330
1E
100
AcDbEntity
  8
0
100
AcDbLine
 10
189.4999999999999
 20
113.0
 30
0.0
 11
197.052
 21
114.062
 31
0.0
  0
LINE
  5
12A
330
1E
100
AcDbEntity
  8
0
100
AcDbLine
 10
257.1
 20
109.4480499999999
 30
0.0
 11
257.5
 21
110.35435
 31
0.0
  0
LINE
  5
12B
330
1E
100
AcDbEntity
  8
0
100
AcDbLine
 10
257.0
 20
108.5417399999999
 30
0.0
 11
257.1
 21
107.6354299999999
 31
0.0
  0
LINE
  5
12C
330
1E
100
AcDbEntity
  8
0
100
AcDbLine
 10
257.0
 20
108.5417399999999
 30
0.0
 11
257.0
 21
138.1798
 31
0.0
  0
LINE
  5
12D
330
1E
100
AcDbEntity
  8
0
100
AcDbLine
 10
257.0
 20
108.5417399999999
 30
0.0
 11
257.1
 21
109.4480499999999
 31
0.0
  0
LINE
  5
12E
330
1E
100
AcDbEntity
  8
0
100
AcDbLine
 10
257.5
 20
110.35435
 30
0.0
 11
258.1
 21
111.17003
 31
0.0
  0
LINE
  5
12F
330
1E
100
AcDbEntity
  8
0
100
AcDbLine
 10
258.1
 20
111.17003
 30
0.0
 11
259.0
 21
111.71381
 31
0.0
  0
LINE
  5
130
330
1E
100
AcDbEntity
  8
0
100
AcDbLine
 10
257.1
 20
107.6354299999999
 30
0.0
 11
257.5
 21
106.7291199999999
 31
0.0
  0
LINE
  5
131
330
1E
100
AcDbEntity
  8
0
100
AcDbLine
 10
257.5
 20
106.7291199999999
 30
0.0
 11
258.1
 21
105.91345
 31
0.0
  0
LINE
  5
132
330
1E
100
AcDbEntity
  8
0
100
AcDbLine
 10
259.0
 20
111.71381
 30
0.0
 11
260.0
 21
112.076339
 31
0.0
  0
LINE
  5
133
330
1E
100
AcDbEntity
  8
0
100
AcDbLine
 10
260.0
 20
112.076339
 30
0.0
 11
261.0
 21
112.166969
 31
0.0
  0
LINE
  5
134
330
1E
100
AcDbEntity
  8
0
100
AcDbLine
 10
258.1
 20
105.91345
 30
0.0
 11
259.0
 21
105.36966
 31
0.0
  0
LINE
  5
135
330
1E
100
AcDbEntity
  8
0
100
AcDbLine
 10
259.0
 20
105.36966
 30
0.0
 11
260.0
 21
105.0071399999999
 31
0.0
  0
LINE
  5
136
330
1E
100
AcDbEntity
  8
0
100
AcDbLine
 10
260.0
 20
105.0071399999999
 30
0.0
 11
261.0
 21
104.9165099999999
 31
0.0
  0
LINE
  5
137
330
1E
100
AcDbEntity
  8
0
100
AcDbLine
 10
261.0
 20
104.9165099999999
 30
0.0
 11
262.0
 21
105.0071399999999
 31
0.0
  0
LINE
  5
138
330
1E
100
AcDbEntity
  8
0
100
AcDbLine
 10
263.0
 20
105.36966
 30
0.0
 11
263.8999999999999
 21
105.91345
 31
0.0
  0
LINE
  5
139
330
1E
100
AcDbEntity
  8
0
100
AcDbLine
 10
262.0
 20
105.0071399999999
 30
0.0
 11
263.0
 21
105.36966
 31
0.0
  0
LINE
  5
13A
330
1E
100
AcDbEntity
  8
0
100
AcDbLine
 10
264.5
 20
106.7291199999999
 30
0.0
 11
264.9
 21
107.6354299999999
 31
0.0
  0
LINE
  5
13B
330
1E
100
AcDbEntity
  8
0
100
AcDbLine
 10
263.8999999999999
 20
105.91345
 30
0.0
 11
264.5
 21
106.7291199999999
 31
0.0
  0
LINE
  5
13C
330
1E
100
AcDbEntity
  8
0
100
AcDbLine
 10
265.0
 20
108.5417399999999
 30
0.0
 11
265.0
 21
138.1798
 31
0.0
  0
LINE
  5
13D
330
1E
100
AcDbEntity
  8
0
100
AcDbLine
 10
264.9
 20
107.6354299999999
 30
0.0
 11
265.0
 21
108.5417399999999
 31
0.0
  0
LINE
  5
13E
330
1E
100
AcDbEntity
  8
0
100
AcDbLine
 10
264.9
 20
109.4480499999999
 30
0.0
 11
265.0
 21
108.5417399999999
 31
0.0
  0
LINE
  5
13F
330
1E
100
AcDbEntity
  8
0
100
AcDbLine
 10
264.5
 20
110.35435
 30
0.0
 11
264.9
 21
109.4480499999999
 31
0.0
  0
LINE
  5
140
330
1E
100
AcDbEntity
  8
0
100
AcDbLine
 10
263.8999999999999
 20
111.17003
 30
0.0
 11
264.5
 21
110.35435
 31
0.0
  0
LINE
  5
141
330
1E
100
AcDbEntity
  8
0
100
AcDbLine
 10
263.0
 20
111.71381
 30
0.0
 11
263.8999999999999
 21
111.17003
 31
0.0
  0
LINE
  5
142
330
1E
100
AcDbEntity
  8
0
100
AcDbLine
 10
262.0
 20
112.076339
 30
0.0
 11
263.0
 21
111.71381
 31
0.0
  0
LINE
  5
143
330
1E
100
AcDbEntity
  8
0
100
AcDbLine
 10
261.0
 20
112.166969
 30
0.0
 11
262.0
 21
112.076339
 31
0.0
  0
LINE
  5
144
330
1E
100
AcDbEntity
  8
0
100
AcDbLine
 10
204.132
 20
168.1059999999999
 30
0.0
 11
204.2805324999999
 21
167.9939
 31
0.0
  0
LINE
  5
145
330
1E
100
AcDbEntity
  8
0
100
AcDbLine
 10
209.796
 20
122.204
 30
0.0
 11
212.703488235294
 21
126.0061
 31
0.0
  0
LINE
  5
146
330
1E
100
AcDbEntity
  8
0
100
AcDbLine
 10
203.778
 20
117.602
 30
0.0
 11
209.796
 21
122.204
 31
0.0
  0
LINE
  5
147
330
1E
100
AcDbEntity
  8
0
100
AcDbLine
 10
233.4
 20
126.0061
 30
0.0
 11
233.4
 21
126.6898999999999
 31
0.0
  0
LINE
  5
148
330
1E
100
AcDbEntity
  8
0
100
AcDbLine
 10
233.4
 20
126.0061
 30
0.0
 11
234.0
 21
126.5686
 31
0.0
  0
LINE
  5
149
330
1E
100
AcDbEntity
  8
0
100
AcDbLine
 10
234.0
 20
126.5686
 30
0.0
 11
234.0
 21
127.2637
 31
0.0
  0
LINE
  5
14A
330
1E
100
AcDbEntity
  8
0
100
AcDbLine
 10
234.0
 20
129.3357
 30
0.0
 11
234.0
 21
127.2637
 31
0.0
  0
LINE
  5
14B
330
1E
100
AcDbEntity
  8
0
100
AcDbLine
 10
234.0
 20
129.3357
 30
0.0
 11
234.0
 21
132.5469999999999
 31
0.0
  0
LINE
  5
14C
330
1E
100
AcDbEntity
  8
0
100
AcDbLine
 10
234.0
 20
127.2637
 30
0.0
 11
234.0
 21
126.5686
 31
0.0
  0
LINE
  5
14D
330
1E
100
AcDbEntity
  8
0
100
AcDbLine
 10
234.0
 20
127.2637
 30
0.0
 11
234.0
 21
129.3357
 31
0.0
  0
LINE
  5
14E
330
1E
100
AcDbEntity
  8
0
100
AcDbLine
 10
233.4
 20
128.8655
 30
0.0
 11
233.4
 21
132.2221999999999
 31
0.0
  0
LINE
  5
14F
330
1E
100
AcDbEntity
  8
0
100
AcDbLine
 10
233.4
 20
128.8655
 30
0.0
 11
233.4
 21
126.6898999999999
 31
0.0
  0
LINE
  5
150
330
1E
100
AcDbEntity
  8
0
100
AcDbLine
 10
233.4
 20
126.6898999999999
 30
0.0
 11
233.4
 21
128.8655
 31
0.0
  0
LINE
  5
151
330
1E
100
AcDbEntity
  8
0
100
AcDbLine
 10
233.4
 20
126.6898999999999
 30
0.0
 11
233.4
 21
126.0061
 31
0.0
  0
LINE
  5
152
330
1E
100
AcDbEntity
  8
0
100
AcDbLine
 10
234.593
 20
127.0956999999999
 30
0.0
 11
236.5111012027959
 21
127.2673086763399
 31
0.0
  0
LINE
  5
153
330
1E
100
AcDbEntity
  8
0
100
AcDbLine
 10
234.0
 20
127.0956999999999
 30
0.0
 11
234.593
 21
127.0956999999999
 31
0.0
  0
LINE
  5
154
330
1E
100
AcDbEntity
  8
0
100
AcDbLine
 10
234.0
 20
132.5469999999999
 30
0.0
 11
234.0
 21
129.3357
 31
0.0
  0
LINE
  5
155
330
1E
100
AcDbEntity
  8
0
100
AcDbLine
 10
234.0
 20
132.5469999999999
 30
0.0
 11
234.0
 21
136.752
 31
0.0
  0
LINE
  5
156
330
1E
100
AcDbEntity
  8
0
100
AcDbLine
 10
233.4
 20
132.2221999999999
 30
0.0
 11
233.4
 21
136.4999999999999
 31
0.0
  0
LINE
  5
157
330
1E
100
AcDbEntity
  8
0
100
AcDbLine
 10
233.4
 20
132.2221999999999
 30
0.0
 11
233.4
 21
128.8655
 31
0.0
  0
LINE
  5
158
330
1E
100
AcDbEntity
  8
0
100
AcDbLine
 10
234.0
 20
136.752
 30
0.0
 11
234.0
 21
141.713
 31
0.0
  0
LINE
  5
159
330
1E
100
AcDbEntity
  8
0
100
AcDbLine
 10
234.0
 20
136.752
 30
0.0
 11
234.0
 21
132.5469999999999
 31
0.0
  0
LINE
  5
15A
330
1E
100
AcDbEntity
  8
0
100
AcDbLine
 10
233.4
 20
136.4999999999999
 30
0.0
 11
233.4
 21
141.5338
 31
0.0
  0
LINE
  5
15B
330
1E
100
AcDbEntity
  8
0
100
AcDbLine
 10
233.4
 20
136.4999999999999
 30
0.0
 11
233.4
 21
132.2221999999999
 31
0.0
  0
LINE
  5
15C
330
1E
100
AcDbEntity
  8
0
100
AcDbLine
 10
236.05
 20
134.0774999999999
 30
0.0
 11
236.194
 21
130.3037
 31
0.0
  0
LINE
  5
15D
330
1E
100
AcDbEntity
  8
0
100
AcDbLine
 10
236.194
 20
130.3037
 30
0.0
 11
236.424
 21
127.6108999999999
 31
0.0
  0
LINE
  5
15E
330
1E
100
AcDbEntity
  8
0
100
AcDbLine
 10
236.424
 20
127.6108999999999
 30
0.0
 11
236.728
 21
126.4116999999999
 31
0.0
  0
LINE
  5
15F
330
1E
100
AcDbEntity
  8
0
100
AcDbLine
 10
236.728
 20
126.4116999999999
 30
0.0
 11
257.0
 21
126.4116999999999
 31
0.0
  0
LINE
  5
160
330
1E
100
AcDbEntity
  8
0
100
AcDbLine
 10
250.97
 20
136.6211
 30
0.0
 11
251.495
 21
138.125
 31
0.0
  0
LINE
  5
161
330
1E
100
AcDbEntity
  8
0
100
AcDbLine
 10
249.619
 20
136.3548
 30
0.0
 11
250.97
 21
136.6211
 31
0.0
  0
LINE
  5
162
330
1E
100
AcDbEntity
  8
0
100
AcDbLine
 10
248.269
 20
136.8371999999999
 30
0.0
 11
249.619
 21
136.3548
 31
0.0
  0
LINE
  5
163
330
1E
100
AcDbEntity
  8
0
100
AcDbLine
 10
251.495
 20
138.125
 30
0.0
 11
251.495
 21
138.1798
 31
0.0
  0
LINE
  5
164
330
1E
100
AcDbEntity
  8
0
100
AcDbLine
 10
236.0
 20
138.1798
 30
0.0
 11
236.05
 21
142.9139999999999
 31
0.0
  0
LINE
  5
165
330
1E
100
AcDbEntity
  8
0
100
AcDbLine
 10
236.0
 20
138.1798
 30
0.0
 11
236.05
 21
134.0774999999999
 31
0.0
  0
LINE
  5
166
330
1E
100
AcDbEntity
  8
0
100
AcDbLine
 10
251.495
 20
138.1798
 30
0.0
 11
251.495
 21
138.125
 31
0.0
  0
LINE
  5
167
330
1E
100
AcDbEntity
  8
0
100
AcDbLine
 10
247.744
 20
138.1798
 30
0.0
 11
247.744
 21
138.125
 31
0.0
  0
LINE
  5
168
330
1E
100
AcDbEntity
  8
0
100
AcDbLine
 10
247.744
 20
138.125
 30
0.0
 11
248.269
 21
139.4859999999999
 31
0.0
  0
LINE
  5
169
330
1E
100
AcDbEntity
  8
0
100
AcDbLine
 10
247.744
 20
138.125
 30
0.0
 11
248.269
 21
136.8371999999999
 31
0.0
  0
LINE
  5
16A
330
1E
100
AcDbEntity
  8
0
100
AcDbLine
 10
247.744
 20
138.125
 30
0.0
 11
247.744
 21
138.1798
 31
0.0
  0
LINE
  5
16B
330
1E
100
AcDbEntity
  8
0
100
AcDbLine
 10
267.8819999999999
 20
126.4116999999999
 30
0.0
 11
268.87
 21
126.8463
 31
0.0
  0
LINE
  5
16C
330
1E
100
AcDbEntity
  8
0
100
AcDbLine
 10
268.87
 20
126.8463
 30
0.0
 11
269.294
 21
127.8831999999999
 31
0.0
  0
LINE
  5
16D
330
1E
100
AcDbEntity
  8
0
100
AcDbLine
 10
268.87
 20
126.8463
 30
0.0
 11
268.87
 21
128.1088
 31
0.0
  0
LINE
  5
16E
330
1E
100
AcDbEntity
  8
0
100
AcDbLine
 10
268.87
 20
134.4030999999999
 30
0.0
 11
268.87
 21
130.6656
 31
0.0
  0
LINE
  5
16F
330
1E
100
AcDbEntity
  8
0
100
AcDbLine
 10
268.87
 20
134.4030999999999
 30
0.0
 11
268.87
 21
138.3694
 31
0.0
  0
LINE
  5
170
330
1E
100
AcDbEntity
  8
0
100
AcDbLine
 10
268.87
 20
130.6656
 30
0.0
 11
268.87
 21
128.1088
 31
0.0
  0
LINE
  5
171
330
1E
100
AcDbEntity
  8
0
100
AcDbLine
 10
268.87
 20
130.6656
 30
0.0
 11
268.87
 21
134.4030999999999
 31
0.0
  0
LINE
  5
172
330
1E
100
AcDbEntity
  8
0
100
AcDbLine
 10
269.647
 20
136.047
 30
0.0
 11
270.0
 21
147.0274
 31
0.0
  0
LINE
  5
173
330
1E
100
AcDbEntity
  8
0
100
AcDbLine
 10
269.294
 20
127.8831999999999
 30
0.0
 11
269.647
 21
136.047
 31
0.0
  0
LINE
  5
174
330
1E
100
AcDbEntity
  8
0
100
AcDbLine
 10
268.87
 20
128.1088
 30
0.0
 11
268.87
 21
126.8463
 31
0.0
  0
LINE
  5
175
330
1E
100
AcDbEntity
  8
0
100
AcDbLine
 10
268.87
 20
128.1088
 30
0.0
 11
268.87
 21
130.6656
 31
0.0
  0
LINE
  5
176
330
1E
100
AcDbEntity
  8
0
100
AcDbLine
 10
265.0
 20
126.4116999999999
 30
0.0
 11
267.8819999999999
 21
126.4116999999999
 31
0.0
  0
LINE
  5
177
330
1E
100
AcDbEntity
  8
0
100
AcDbLine
 10
257.0
 20
138.1798
 30
0.0
 11
257.0
 21
108.5417399999999
 31
0.0
  0
LINE
  5
178
330
1E
100
AcDbEntity
  8
0
100
AcDbLine
 10
234.0
 20
141.713
 30
0.0
 11
234.0
 21
146.9402999999999
 31
0.0
  0
LINE
  5
179
330
1E
100
AcDbEntity
  8
0
100
AcDbLine
 10
234.0
 20
141.713
 30
0.0
 11
234.0
 21
136.752
 31
0.0
  0
LINE
  5
17A
330
1E
100
AcDbEntity
  8
0
100
AcDbLine
 10
233.4
 20
141.5338
 30
0.0
 11
233.4
 21
146.9065
 31
0.0
  0
LINE
  5
17B
330
1E
100
AcDbEntity
  8
0
100
AcDbLine
 10
233.4
 20
141.5338
 30
0.0
 11
233.4
 21
136.4999999999999
 31
0.0
  0
LINE
  5
17C
330
1E
100
AcDbEntity
  8
0
100
AcDbLine
 10
234.0
 20
146.9402999999999
 30
0.0
 11
234.0
 21
152.2883
 31
0.0
  0
LINE
  5
17D
330
1E
100
AcDbEntity
  8
0
100
AcDbLine
 10
234.0
 20
146.9402999999999
 30
0.0
 11
234.0
 21
141.713
 31
0.0
  0
LINE
  5
17E
330
1E
100
AcDbEntity
  8
0
100
AcDbLine
 10
233.4
 20
146.9065
 30
0.0
 11
233.4
 21
152.4421
 31
0.0
  0
LINE
  5
17F
330
1E
100
AcDbEntity
  8
0
100
AcDbLine
 10
233.4
 20
146.9065
 30
0.0
 11
233.4
 21
141.5338
 31
0.0
  0
LINE
  5
180
330
1E
100
AcDbEntity
  8
0
100
AcDbLine
 10
236.05
 20
142.9139999999999
 30
0.0
 11
236.194
 21
148.5205
 31
0.0
  0
LINE
  5
181
330
1E
100
AcDbEntity
  8
0
100
AcDbLine
 10
233.4
 20
152.4421
 30
0.0
 11
233.4
 21
157.5778999999999
 31
0.0
  0
LINE
  5
182
330
1E
100
AcDbEntity
  8
0
100
AcDbLine
 10
233.4
 20
152.4421
 30
0.0
 11
233.4
 21
146.9065
 31
0.0
  0
LINE
  5
183
330
1E
100
AcDbEntity
  8
0
100
AcDbLine
 10
234.0
 20
152.2883
 30
0.0
 11
234.0
 21
157.2674
 31
0.0
  0
LINE
  5
184
330
1E
100
AcDbEntity
  8
0
100
AcDbLine
 10
234.0
 20
152.2883
 30
0.0
 11
234.0
 21
146.9402999999999
 31
0.0
  0
LINE
  5
185
330
1E
100
AcDbEntity
  8
0
100
AcDbLine
 10
234.0
 20
157.2674
 30
0.0
 11
234.0
 21
161.4492999999999
 31
0.0
  0
LINE
  5
186
330
1E
100
AcDbEntity
  8
0
100
AcDbLine
 10
234.0
 20
157.2674
 30
0.0
 11
234.0
 21
152.2883
 31
0.0
  0
LINE
  5
187
330
1E
100
AcDbEntity
  8
0
100
AcDbLine
 10
233.4
 20
157.5778999999999
 30
0.0
 11
233.4
 21
161.8437999999999
 31
0.0
  0
LINE
  5
188
330
1E
100
AcDbEntity
  8
0
100
AcDbLine
 10
233.4
 20
157.5778999999999
 30
0.0
 11
233.4
 21
152.4421
 31
0.0
  0
LINE
  5
189
330
1E
100
AcDbEntity
  8
0
100
AcDbLine
 10
236.194
 20
148.5205
 30
0.0
 11
236.424
 21
154.1204
 31
0.0
  0
LINE
  5
18A
330
1E
100
AcDbEntity
  8
0
100
AcDbLine
 10
236.424
 20
154.1204
 30
0.0
 11
236.728
 21
159.1746999999999
 31
0.0
  0
LINE
  5
18B
330
1E
100
AcDbEntity
  8
0
100
AcDbLine
 10
234.0
 20
161.4492999999999
 30
0.0
 11
234.0
 21
164.7501
 31
0.0
  0
LINE
  5
18C
330
1E
100
AcDbEntity
  8
0
100
AcDbLine
 10
234.0
 20
161.4492999999999
 30
0.0
 11
234.0
 21
157.2674
 31
0.0
  0
LINE
  5
18D
330
1E
100
AcDbEntity
  8
0
100
AcDbLine
 10
233.4
 20
161.8437999999999
 30
0.0
 11
233.4
 21
165.1864999999999
 31
0.0
  0
LINE
  5
18E
330
1E
100
AcDbEntity
  8
0
100
AcDbLine
 10
233.4
 20
161.8437999999999
 30
0.0
 11
233.4
 21
157.5778999999999
 31
0.0
  0
LINE
  5
18F
330
1E
100
AcDbEntity
  8
0
100
AcDbLine
 10
234.0
 20
164.7501
 30
0.0
 11
234.0
 21
166.7412999999999
 31
0.0
  0
LINE
  5
190
330
1E
100
AcDbEntity
  8
0
100
AcDbLine
 10
234.0
 20
164.7501
 30
0.0
 11
234.0
 21
161.4492999999999
 31
0.0
  0
LINE
  5
191
330
1E
100
AcDbEntity
  8
0
100
AcDbLine
 10
233.4
 20
167.9939
 30
0.0
 11
233.4
 21
167.2197999999999
 31
0.0
  0
LINE
  5
192
330
1E
100
AcDbEntity
  8
0
100
AcDbLine
 10
233.4
 20
167.9939
 30
0.0
 11
234.0
 21
167.4314
 31
0.0
  0
LINE
  5
193
330
1E
100
AcDbEntity
  8
0
100
AcDbLine
 10
234.0
 20
167.4314
 30
0.0
 11
234.0
 21
166.7412999999999
 31
0.0
  0
LINE
  5
194
330
1E
100
AcDbEntity
  8
0
100
AcDbLine
 10
234.0
 20
166.7412999999999
 30
0.0
 11
234.0
 21
167.4314
 31
0.0
  0
LINE
  5
195
330
1E
100
AcDbEntity
  8
0
100
AcDbLine
 10
234.0
 20
166.7412999999999
 30
0.0
 11
234.0
 21
164.7501
 31
0.0
  0
LINE
  5
196
330
1E
100
AcDbEntity
  8
0
100
AcDbLine
 10
233.4
 20
167.2197999999999
 30
0.0
 11
233.4
 21
167.9939
 31
0.0
  0
LINE
  5
197
330
1E
100
AcDbEntity
  8
0
100
AcDbLine
 10
233.4
 20
167.2197999999999
 30
0.0
 11
233.4
 21
165.1864999999999
 31
0.0
  0
LINE
  5
198
330
1E
100
AcDbEntity
  8
0
100
AcDbLine
 10
233.4
 20
165.1864999999999
 30
0.0
 11
233.4
 21
167.2197999999999
 31
0.0
  0
LINE
  5
199
330
1E
100
AcDbEntity
  8
0
100
AcDbLine
 10
233.4
 20
165.1864999999999
 30
0.0
 11
233.4
 21
161.8437999999999
 31
0.0
  0
LINE
  5
19A
330
1E
100
AcDbEntity
  8
0
100
AcDbLine
 10
234.593
 20
166.9042
 30
0.0
 11
237.5330871499409
 21
166.641235683484
 31
0.0
  0
LINE
  5
19B
330
1E
100
AcDbEntity
  8
0
100
AcDbLine
 10
234.0
 20
166.9042
 30
0.0
 11
234.593
 21
166.9042
 31
0.0
  0
LINE
  5
19C
330
1E
100
AcDbEntity
  8
0
100
AcDbLine
 10
236.728
 20
159.1746999999999
 30
0.0
 11
237.0719999999999
 21
163.3262
 31
0.0
  0
LINE
  5
19D
330
1E
100
AcDbEntity
  8
0
100
AcDbLine
 10
238.064
 20
167.6432
 30
0.0
 11
267.8819999999999
 21
167.6431
 31
0.0
  0
LINE
  5
19E
330
1E
100
AcDbEntity
  8
0
100
AcDbLine
 10
237.72
 20
167.434
 30
0.0
 11
238.064
 21
167.6432
 31
0.0
  0
LINE
  5
19F
330
1E
100
AcDbEntity
  8
0
100
AcDbLine
 10
237.3959999999999
 20
166.0598
 30
0.0
 11
237.72
 21
167.434
 31
0.0
  0
LINE
  5
1A0
330
1E
100
AcDbEntity
  8
0
100
AcDbLine
 10
237.0719999999999
 20
163.3262
 30
0.0
 11
237.3959999999999
 21
166.0598
 31
0.0
  0
LINE
  5
1A3
330
1E
100
AcDbEntity
  8
0
100
AcDbLine
 10
268.87
 20
138.3694
 30
0.0
 11
268.87
 21
142.9677
 31
0.0
  0
LINE
  5
1A4
330
1E
100
AcDbEntity
  8
0
100
AcDbLine
 10
268.87
 20
138.3694
 30
0.0
 11
268.87
 21
134.4030999999999
 31
0.0
  0
LINE
  5
1A5
330
1E
100
AcDbEntity
  8
0
100
AcDbLine
 10
250.97
 20
139.7163999999999
 30
0.0
 11
251.495
 21
138.125
 31
0.0
  0
LINE
  5
1A7
330
1E
100
AcDbEntity
  8
0
100
AcDbLine
 10
268.87
 20
142.9677
 30
0.0
 11
268.87
 21
138.3694
 31
0.0
  0
LINE
  5
1A8
330
1E
100
AcDbEntity
  8
0
100
AcDbLine
 10
268.87
 20
142.9677
 30
0.0
 11
268.87
 21
148.4746
 31
0.0
  0
LINE
  5
1A9
330
1E
100
AcDbEntity
  8
0
100
AcDbLine
 10
268.87
 20
148.4746
 30
0.0
 11
268.87
 21
142.9677
 31
0.0
  0
LINE
  5
1AA
330
1E
100
AcDbEntity
  8
0
100
AcDbLine
 10
268.87
 20
148.4746
 30
0.0
 11
268.87
 21
153.9386
 31
0.0
  0
LINE
  5
1AB
330
1E
100
AcDbEntity
  8
0
100
AcDbLine
 10
268.87
 20
153.9386
 30
0.0
 11
268.87
 21
148.4746
 31
0.0
  0
LINE
  5
1AC
330
1E
100
AcDbEntity
  8
0
100
AcDbLine
 10
268.87
 20
153.9386
 30
0.0
 11
268.87
 21
158.9296
 31
0.0
  0
LINE
  5
1AD
330
1E
100
AcDbEntity
  8
0
100
AcDbLine
 10
268.87
 20
158.9296
 30
0.0
 11
268.87
 21
153.9386
 31
0.0
  0
LINE
  5
1AE
330
1E
100
AcDbEntity
  8
0
100
AcDbLine
 10
268.87
 20
158.9296
 30
0.0
 11
268.87
 21
162.9815999999999
 31
0.0
  0
LINE
  5
1AF
330
1E
100
AcDbEntity
  8
0
100
AcDbLine
 10
269.647
 20
158.0078
 30
0.0
 11
270.0
 21
147.0274
 31
0.0
  0
LINE
  5
1B0
330
1E
100
AcDbEntity
  8
0
100
AcDbLine
 10
268.87
 20
162.9815999999999
 30
0.0
 11
268.87
 21
158.9296
 31
0.0
  0
LINE
  5
1B1
330
1E
100
AcDbEntity
  8
0
100
AcDbLine
 10
268.87
 20
162.9815999999999
 30
0.0
 11
268.87
 21
165.652
 31
0.0
  0
LINE
  5
1B2
330
1E
100
AcDbEntity
  8
0
100
AcDbLine
 10
267.8819999999999
 20
167.6431
 30
0.0
 11
268.87
 21
167.2084999999999
 31
0.0
  0
LINE
  5
1B3
330
1E
100
AcDbEntity
  8
0
100
AcDbLine
 10
268.87
 20
167.2084999999999
 30
0.0
 11
268.87
 21
166.9629999999999
 31
0.0
  0
LINE
  5
1B4
330
1E
100
AcDbEntity
  8
0
100
AcDbLine
 10
268.87
 20
167.2084999999999
 30
0.0
 11
269.294
 21
166.1716
 31
0.0
  0
LINE
  5
1B5
330
1E
100
AcDbEntity
  8
0
100
AcDbLine
 10
269.294
 20
166.1716
 30
0.0
 11
269.647
 21
158.0078
 31
0.0
  0
LINE
  5
1B6
330
1E
100
AcDbEntity
  8
0
100
AcDbLine
 10
268.87
 20
166.9629999999999
 30
0.0
 11
268.87
 21
165.652
 31
0.0
  0
LINE
  5
1B7
330
1E
100
AcDbEntity
  8
0
100
AcDbLine
 10
268.87
 20
166.9629999999999
 30
0.0
 11
268.87
 21
167.2084999999999
 31
0.0
  0
LINE
  5
1B8
330
1E
100
AcDbEntity
  8
0
100
AcDbLine
 10
268.87
 20
165.652
 30
0.0
 11
268.87
 21
162.9815999999999
 31
0.0
  0
LINE
  5
1B9
330
1E
100
AcDbEntity
  8
0
100
AcDbLine
 10
268.87
 20
165.652
 30
0.0
 11
268.87
 21
166.9629999999999
 31
0.0
  0
LINE
  5
1BB
330
1E
100
AcDbEntity
  8
0
100
AcDbLine
 10
249.619
 20
140.0040999999999
 30
0.0
 11
250.97
 21
139.7163999999999
 31
0.0
  0
LINE
  5
1BD
330
1E
100
AcDbEntity
  8
0
100
AcDbLine
 10
248.269
 20
139.4859999999999
 30
0.0
 11
249.619
 21
140.0040999999999
 31
0.0
  0
LINE
  5
1BF
330
1E
100
AcDbEntity
  8
0
100
AcDbLine
 10
265.0
 20
138.1798
 30
0.0
 11
265.0
 21
108.5417399999999
 31
0.0
  0
LINE
  5
1C0
330
1E
100
AcDbEntity
  8
0
100
AcDbLine
 10
210.386
 20
121.6139999999999
 30
0.0
 11
213.70079245283
 21
126.0061
 31
0.0
  0
LINE
  5
1C1
330
1E
100
AcDbEntity
  8
0
100
AcDbLine
 10
204.132
 20
116.8939999999999
 30
0.0
 11
210.386
 21
121.6139999999999
 31
0.0
  0
LINE
  5
1C2
330
1E
100
AcDbEntity
  8
0
100
AcDbLine
 10
197.052
 20
114.062
 30
0.0
 11
204.132
 21
116.8939999999999
 31
0.0
  0
LINE
  5
1C3
330
1E
100
AcDbEntity
  8
0
100
AcDbLine
 10
159.9
 20
60.0
 30
0.0
 11
160.8999999999999
 21
60.0
 31
0.0
  0
LINE
  5
1C4
330
1E
100
AcDbEntity
  8
0
100
AcDbLine
 10
159.4999999999999
 20
60.0
 30
0.0
 11
159.9
 21
60.0
 31
0.0
  0
ENDSEC
  0
SECTION
  2
OBJECTS
  0
DICTIONARY
  5
C
330
0
100
AcDbDictionary
  3
ACAD_GROUP
350
D
  3
ACAD_LAYOUT
350
19
  3
ACAD_MLINESTYLE
350
16
  3
ACAD_PLOTSETTINGS
350
18
  3
ACAD_PLOTSTYLENAME
350
E
  3
ACDBHEADERROUNDTRIPXREC
350
1CC
  3
ACDBVARIABLEDICTIONARY
350
1C9
  0
DICTIONARY
  5
1EE
330
1E
100
AcDbDictionary
280
     1
  3
ACAD_LAYOUTSELFREF
360
1EF
  0
DICTIONARY
  5
1EC
330
1A
100
AcDbDictionary
280
     1
  3
ACAD_LAYOUTSELFREF
360
1ED
  0
DICTIONARY
  5
D
102
{ACAD_REACTORS
330
C
102
}
330
C
100
AcDbDictionary
  0
DICTIONARY
  5
19
102
{ACAD_REACTORS
330
C
102
}
330
C
100
AcDbDictionary
  0
DICTIONARY
  5
16
102
{ACAD_REACTORS
330
C
102
}
330
C
100
AcDbDictionary
  3
STANDARD
350
17
  0
DICTIONARY
  5
18
102
{ACAD_REACTORS
330
C
102
}
330
C
100
AcDbDictionary
  0
ACDBDICTIONARYWDFLT
  5
E
102
{ACAD_REACTORS
330
C
102
}
330
C
100
AcDbDictionary
281
     1
  3
Normal
350
F
100
AcDbDictionaryWithDefault
340
F
  0
DICTIONARY
  5
1CC
102
{ACAD_REACTORS
330
C
102
}
330
C
100
AcDbDictionary
  3
CEPSNTYPE
350
1D6
  3
FINGERPRINTGUID
350
1D7
  3
HYPERLINKBASE
350
1CF
  3
INSUNITS
350
1D5
  3
LAYOUTDICT
350
1D1
  3
LWETCUNION
350
1D4
  3
PLOTSETDICT
350
1D2
  3
PLOTSTYLNAMDICT
350
1D3
  3
PSVPSCALE
350
1D9
  3
PUCSBASE
350
1DC
  3
PUCSORGBACK
350
1E2
  3
PUCSORGBOTTOM
350
1DE
  3
PUCSORGFRONT
350
1E1
  3
PUCSORGLEFT
350
1DF
  3
PUCSORGRIGHT
350
1E0
  3
PUCSORGTOP
350
1DD
  3
PUCSORTHOREF
350
1DA
  3
PUCSORTHOVIEW
350
1DB
  3
STYLESHEET
350
1D0
  3
TSTACKALIGN
350
1CD
  3
TSTACKSIZE
350
1CE
  3
UCSBASE
350
1E5
  3
UCSORGBACK
350
1EB
  3
UCSORGBOTTOM
350
1E7
  3
UCSORGFRONT
350
1EA
  3
UCSORGLEFT
350
1E8
  3
UCSORGRIGHT
350
1E9
  3
UCSORGTOP
350
1E6
  3
UCSORTHOREF
350
1E3
  3
UCSORTHOVIEW
350
1E4
  3
VERSIONGUID
350
1D8
  0
DICTIONARY
  5
1C9
102
{ACAD_REACTORS
330
C
102
}
330
C
100
AcDbDictionary
  3
DIMASSOC
350
1CA
  0
XRECORD
  5
1EF
102
{ACAD_REACTORS
330
1EE
102
}
330
1EE
100
AcDbXrecord
340
1E
  0
XRECORD
  5
1ED
102
{ACAD_REACTORS
330
1EC
102
}
330
1EC
100
AcDbXrecord
340
1A
  0
MLINESTYLE
  5
17
102
{ACAD_REACTORS
330
16
102
}
330
16
100
AcDbMlineStyle
  2
STANDARD
 70
     0
  3

 62
   256
 51
90.0
 52
90.0
 71
     2
 49
0.5
 62
   256
  6
BYLAYER
 49
-0.5
 62
   256
  6
BYLAYER
  0
ACDBPLACEHOLDER
  5
F
102
{ACAD_REACTORS
330
E
102
}
330
E
100
AcDbPlaceHolder
280
     0
  0
XRECORD
  5
1D6
102
{ACAD_REACTORS
330
1CC
102
}
330
1CC
100
AcDbXrecord
 90
        0
  0
XRECORD
  5
1D7
102
{ACAD_REACTORS
330
1CC
102
}
330
1CC
100
AcDbXrecord
  1
{909FB9E9-EF6D-4E6A-BCF8-57BFBCEE1712}
  0
XRECORD
  5
1CF
102
{ACAD_REACTORS
330
1CC
102
}
330
1CC
100
AcDbXrecord
  1

  0
XRECORD
  5
1D5
102
{ACAD_REACTORS
330
1CC
102
}
330
1CC
100
AcDbXrecord
 90
        0
  0
XRECORD
  5
1D1
102
{ACAD_REACTORS
330
1CC
102
}
330
1CC
100
AcDbXrecord
340
19
  0
XRECORD
  5
1D4
102
{ACAD_REACTORS
330
1CC
102
}
330
1CC
100
AcDbXrecord
 90
    10781
  0
XRECORD
  5
1D2
102
{ACAD_REACTORS
330
1CC
102
}
330
1CC
100
AcDbXrecord
340
18
  0
XRECORD
  5
1D3
102
{ACAD_REACTORS
330
1CC
102
}
330
1CC
100
AcDbXrecord
340
E
  0
XRECORD
  5
1D9
102
{ACAD_REACTORS
330
1CC
102
}
330
1CC
100
AcDbXrecord
 40
0.0
  0
XRECORD
  5
1DC
102
{ACAD_REACTORS
330
1CC
102
}
330
1CC
100
AcDbXrecord
340
0
  0
XRECORD
  5
1E2
102
{ACAD_REACTORS
330
1CC
102
}
330
1CC
100
AcDbXrecord
 10
0.0
 20
0.0
 30
0.0
  0
XRECORD
  5
1DE
102
{ACAD_REACTORS
330
1CC
102
}
330
1CC
100
AcDbXrecord
 10
0.0
 20
0.0
 30
0.0
  0
XRECORD
  5
1E1
102
{ACAD_REACTORS
330
1CC
102
}
330
1CC
100
AcDbXrecord
 10
0.0
 20
0.0
 30
0.0
  0
XRECORD
  5
1DF
102
{ACAD_REACTORS
330
1CC
102
}
330
1CC
100
AcDbXrecord
 10
0.0
 20
0.0
 30
0.0
  0
XRECORD
  5
1E0
102
{ACAD_REACTORS
330
1CC
102
}
330
1CC
100
AcDbXrecord
 10
0.0
 20
0.0
 30
0.0
  0
XRECORD
  5
1DD
102
{ACAD_REACTORS
330
1CC
102
}
330
1CC
100
AcDbXrecord
 10
0.0
 20
0.0
 30
0.0
  0
XRECORD
  5
1DA
102
{ACAD_REACTORS
330
1CC
102
}
330
1CC
100
AcDbXrecord
340
0
  0
XRECORD
  5
1DB
102
{ACAD_REACTORS
330
1CC
102
}
330
1CC
100
AcDbXrecord
 70
     0
  0
XRECORD
  5
1D0
102
{ACAD_REACTORS
330
1CC
102
}
330
1CC
100
AcDbXrecord
  1

  0
XRECORD
  5
1CD
102
{ACAD_REACTORS
330
1CC
102
}
330
1CC
100
AcDbXrecord
 90
        1
  0
XRECORD
  5
1CE
102
{ACAD_REACTORS
330
1CC
102
}
330
1CC
100
AcDbXrecord
 90
       70
  0
XRECORD
  5
1E5
102
{ACAD_REACTORS
330
1CC
102
}
330
1CC
100
AcDbXrecord
340
0
  0
XRECORD
  5
1EB
102
{ACAD_REACTORS
330
1CC
102
}
330
1CC
100
AcDbXrecord
 10
0.0
 20
0.0
 30
0.0
  0
XRECORD
  5
1E7
102
{ACAD_REACTORS
330
1CC
102
}
330
1CC
100
AcDbXrecord
 10
0.0
 20
0.0
 30
0.0
  0
XRECORD
  5
1EA
102
{ACAD_REACTORS
330
1CC
102
}
330
1CC
100
AcDbXrecord
 10
0.0
 20
0.0
 30
0.0
  0
XRECORD
  5
1E8
102
{ACAD_REACTORS
330
1CC
102
}
330
1CC
100
AcDbXrecord
 10
0.0
 20
0.0
 30
0.0
  0
XRECORD
  5
1E9
102
{ACAD_REACTORS
330
1CC
102
}
330
1CC
100
AcDbXrecord
 10
0.0
 20
0.0
 30
0.0
  0
XRECORD
  5
1E6
102
{ACAD_REACTORS
330
1CC
102
}
330
1CC
100
AcDbXrecord
 10
0.0
 20
0.0
 30
0.0
  0
XRECORD
  5
1E3
102
{ACAD_REACTORS
330
1CC
102
}
330
1CC
100
AcDbXrecord
340
0
  0
XRECORD
  5
1E4
102
{ACAD_REACTORS
330
1CC
102
}
330
1CC
100
AcDbXrecord
 70
     1
  0
XRECORD
  5
1D8
102
{ACAD_REACTORS
330
1CC
102
}
330
1CC
100
AcDbXrecord
  1
{109E6A58-1046-4505-B43C-FA0D72689DB1}
  0
DICTIONARYVAR
  5
1CA
102
{ACAD_REACTORS
330
1C9
102
}
330
1C9
100
DictionaryVariables
280
     0
  1
1
  0
ENDSEC
  0
EOF
