  0
SECTION
  2
HEADER
  9
$ACADVER
  1
AC1014
  9
$ACADMAINTVER
 70
     9
  9
$DWGCODEPAGE
  3
ANSI_1252
  9
$INSBASE
 10
0.0
 20
0.0
 30
0.0
  9
$EXTMIN
 10
0.171749580624618
 20
-0.182527013735971
 30
0.0
  9
$EXTMAX
 10
131.828250419375
 20
116.182527013736
 30
0.0
  9
$LIMMIN
 10
0.0
 20
0.0
  9
$LIMMAX
 10
12.0
 20
9.0
  9
$ORTHOMODE
 70
     0
  9
$REGENMODE
 70
     1
  9
$FILLMODE
 70
     1
  9
$QTEXTMODE
 70
     0
  9
$MIRRTEXT
 70
     1
  9
$DRAGMODE
 70
     2
  9
$LTSCALE
 40
1.0
  9
$OSMODE
 70
    37
  9
$ATTMODE
 70
     1
  9
$TEXTSIZE
 40
0.2
  9
$TRACEWID
 40
0.05
  9
$TEXTSTYLE
  7
STANDARD
  9
$CLAYER
  8
0
  9
$CELTYPE
  6
CONTINUOUS
  9
$CECOLOR
 62
   256
  9
$CELTSCALE
 40
1.0
  9
$DELOBJ
 70
     1
  9
$DISPSILH
 70
     0
  9
$DIMSCALE
 40
1.0
  9
$DIMASZ
 40
0.18
  9
$DIMEXO
 40
0.0625
  9
$DIMDLI
 40
0.38
  9
$DIMRND
 40
0.0
  9
$DIMDLE
 40
0.0
  9
$DIMEXE
 40
0.18
  9
$DIMTP
 40
0.0
  9
$DIMTM
 40
0.0
  9
$DIMTXT
 40
0.18
  9
$DIMCEN
 40
0.09
  9
$DIMTSZ
 40
0.0
  9
$DIMTOL
 70
     0
  9
$DIMLIM
 70
     0
  9
$DIMTIH
 70
     1
  9
$DIMTOH
 70
     1
  9
$DIMSE1
 70
     0
  9
$DIMSE2
 70
     0
  9
$DIMTAD
 70
     0
  9
$DIMZIN
 70
     0
  9
$DIMBLK
  1

  9
$DIMASO
 70
     1
  9
$DIMSHO
 70
     1
  9
$DIMPOST
  1

  9
$DIMAPOST
  1

  9
$DIMALT
 70
     0
  9
$DIMALTD
 70
     2
  9
$DIMALTF
 40
25.4
  9
$DIMLFAC
 40
1.0
  9
$DIMTOFL
 70
     0
  9
$DIMTVP
 40
0.0
  9
$DIMTIX
 70
     0
  9
$DIMSOXD
 70
     0
  9
$DIMSAH
 70
     0
  9
$DIMBLK1
  1

  9
$DIMBLK2
  1

  9
$DIMSTYLE
  2
STANDARD
  9
$DIMCLRD
 70
     0
  9
$DIMCLRE
 70
     0
  9
$DIMCLRT
 70
     0
  9
$DIMTFAC
 40
1.0
  9
$DIMGAP
 40
0.09
  9
$DIMJUST
 70
     0
  9
$DIMSD1
 70
     0
  9
$DIMSD2
 70
     0
  9
$DIMTOLJ
 70
     1
  9
$DIMTZIN
 70
     0
  9
$DIMALTZ
 70
     0
  9
$DIMALTTZ
 70
     0
  9
$DIMFIT
 70
     3
  9
$DIMUPT
 70
     0
  9
$DIMUNIT
 70
     2
  9
$DIMDEC
 70
     4
  9
$DIMTDEC
 70
     4
  9
$DIMALTU
 70
     2
  9
$DIMALTTD
 70
     2
  9
$DIMTXSTY
  7
STANDARD
  9
$DIMAUNIT
 70
     0
  9
$LUNITS
 70
     2
  9
$LUPREC
 70
     4
  9
$SKETCHINC
 40
0.1
  9
$FILLETRAD
 40
0.0
  9
$AUNITS
 70
     0
  9
$AUPREC
 70
     0
  9
$MENU
  1
.
  9
$ELEVATION
 40
0.0
  9
$PELEVATION
 40
0.0
  9
$THICKNESS
 40
0.0
  9
$LIMCHECK
 70
     0
  9
$BLIPMODE
 70
     0
  9
$CHAMFERA
 40
0.0
  9
$CHAMFERB
 40
0.0
  9
$CHAMFERC
 40
0.0
  9
$CHAMFERD
 40
0.0
  9
$SKPOLY
 70
     0
  9
$TDCREATE
 40
2454690.805830440
  9
$TDUPDATE
 40
2454690.806289421
  9
$TDINDWG
 40
0.0004589815
  9
$TDUSRTIMER
 40
0.0004589815
  9
$USRTIMER
 70
     1
  9
$ANGBASE
 50
0.0
  9
$ANGDIR
 70
     0
  9
$PDMODE
 70
     0
  9
$PDSIZE
 40
0.0
  9
$PLINEWID
 40
0.0
  9
$COORDS
 70
     1
  9
$SPLFRAME
 70
     0
  9
$SPLINETYPE
 70
     6
  9
$SPLINESEGS
 70
     8
  9
$ATTDIA
 70
     0
  9
$ATTREQ
 70
     1
  9
$HANDLING
 70
 22529
  9
$HANDSEED
  5
A6
  9
$SURFTAB1
 70
     6
  9
$SURFTAB2
 70
     6
  9
$SURFTYPE
 70
     6
  9
$SURFU
 70
     6
  9
$SURFV
 70
     6
  9
$UCSNAME
  2

  9
$UCSORG
 10
0.0
 20
0.0
 30
0.0
  9
$UCSXDIR
 10
1.0
 20
0.0
 30
0.0
  9
$UCSYDIR
 10
0.0
 20
1.0
 30
0.0
  9
$PUCSNAME
  2

  9
$PUCSORG
 10
0.0
 20
0.0
 30
0.0
  9
$PUCSXDIR
 10
1.0
 20
0.0
 30
0.0
  9
$PUCSYDIR
 10
0.0
 20
1.0
 30
0.0
  9
$USERI1
 70
     0
  9
$USERI2
 70
     0
  9
$USERI3
 70
     0
  9
$USERI4
 70
     0
  9
$USERI5
 70
     0
  9
$USERR1
 40
0.0
  9
$USERR2
 40
0.0
  9
$USERR3
 40
0.0
  9
$USERR4
 40
0.0
  9
$USERR5
 40
0.0
  9
$WORLDVIEW
 70
     1
  9
$SHADEDGE
 70
     3
  9
$SHADEDIF
 70
    70
  9
$TILEMODE
 70
     1
  9
$MAXACTVP
 70
    64
  9
$PINSBASE
 10
0.0
 20
0.0
 30
0.0
  9
$PLIMCHECK
 70
     0
  9
$PEXTMIN
 10
1.000000000000000E+20
 20
1.000000000000000E+20
 30
1.000000000000000E+20
  9
$PEXTMAX
 10
-1.000000000000000E+20
 20
-1.000000000000000E+20
 30
-1.000000000000000E+20
  9
$PLIMMIN
 10
0.0
 20
0.0
  9
$PLIMMAX
 10
12.0
 20
9.0
  9
$UNITMODE
 70
     0
  9
$VISRETAIN
 70
     1
  9
$PLINEGEN
 70
     0
  9
$PSLTSCALE
 70
     1
  9
$TREEDEPTH
 70
  3020
  9
$PICKSTYLE
 70
     1
  9
$CMLSTYLE
  2
STANDARD
  9
$CMLJUST
 70
     0
  9
$CMLSCALE
 40
1.0
  9
$PROXYGRAPHICS
 70
     1
  9
$MEASUREMENT
 70
     0
  0
ENDSEC
  0
SECTION
  2
CLASSES
  0
CLASS
  1
ACDBDICTIONARYWDFLT
  2
AcDbDictionaryWithDefault
  3
AutoCAD 2000
 90
        0
280
     0
281
     0
  0
CLASS
  1
ACDBPLACEHOLDER
  2
AcDbPlaceHolder
  3
AutoCAD 2000
 90
        0
280
     0
281
     0
  0
CLASS
  1
LAYOUT
  2
AcDbLayout
  3
AutoCAD 2000
 90
        0
280
     0
281
     0
  0
CLASS
  1
DICTIONARYVAR
  2
AcDbDictionaryVar
  3
AutoCAD 2000
 90
        0
280
     0
281
     0
  0
CLASS
  1
LONG_TRANSACTION
  2
AcDbLongTransaction
  3
AutoCAD 2000
 90
        0
280
     0
281
     0
  0
CLASS
  1
LWPOLYLINE
  2
AcDbPolyline
  3
AutoCAD 2000
 90
        0
280
     0
281
     1
  0
CLASS
  1
HATCH
  2
AcDbHatch
  3
AutoCAD 2000
 90
        0
280
     0
281
     1
  0
CLASS
  1
XRECORD
  2
AcDbXrecord
  3
AutoCAD 2000
 90
        0
280
     0
281
     0
  0
ENDSEC
  0
SECTION
  2
TABLES
  0
TABLE
  2
VPORT
  5
8
330
0
100
AcDbSymbolTable
 70
     2
  0
VPORT
  5
81
330
8
100
AcDbSymbolTableRecord
100
AcDbViewportTableRecord
  2
*ACTIVE
 70
     0
 10
0.0
 20
0.0
 11
1.0
 21
1.0
 12
65.99999999999981
 22
58.00000000000002
 13
0.0
 23
0.0
 14
1.0
 24
1.0
 15
0.0
 25
0.0
 16
0.0
 26
0.0
 36
1.0
 17
0.0
 27
0.0
 37
0.0
 40
117.2578805289615
 41
2.043533930857874
 42
50.0
 43
0.0
 44
0.0
 50
0.0
 51
0.0
 71
     0
 72
   100
 73
     1
 74
     3
 75
     0
 76
     0
 77
     0
 78
     0
  0
ENDTAB
  0
TABLE
  2
LTYPE
  5
5
330
0
100
AcDbSymbolTable
 70
     1
  0
LTYPE
  5
13
330
5
100
AcDbSymbolTableRecord
100
AcDbLinetypeTableRecord
  2
BYBLOCK
 70
     0
  3

 72
    65
 73
     0
 40
0.0
  0
LTYPE
  5
14
330
5
100
AcDbSymbolTableRecord
100
AcDbLinetypeTableRecord
  2
BYLAYER
 70
     0
  3

 72
    65
 73
     0
 40
0.0
  0
LTYPE
  5
15
330
5
100
AcDbSymbolTableRecord
100
AcDbLinetypeTableRecord
  2
CONTINUOUS
 70
     0
  3
Solid line
 72
    65
 73
     0
 40
0.0
  0
ENDTAB
  0
TABLE
  2
LAYER
  5
2
330
0
100
AcDbSymbolTable
 70
     1
  0
LAYER
  5
10
330
2
100
AcDbSymbolTableRecord
100
AcDbLayerTableRecord
  2
0
 70
     0
 62
     7
  6
CONTINUOUS
  0
ENDTAB
  0
TABLE
  2
STYLE
  5
3
330
0
100
AcDbSymbolTable
 70
     1
  0
STYLE
  5
11
330
3
100
AcDbSymbolTableRecord
100
AcDbTextStyleTableRecord
  2
STANDARD
 70
     0
 40
0.0
 41
1.0
 50
0.0
 71
     0
 42
0.2
  3
txt
  4

  0
ENDTAB
  0
TABLE
  2
VIEW
  5
6
330
0
100
AcDbSymbolTable
 70
     0
  0
ENDTAB
  0
TABLE
  2
UCS
  5
7
330
0
100
AcDbSymbolTable
 70
     0
  0
ENDTAB
  0
TABLE
  2
APPID
  5
9
330
0
100
AcDbSymbolTable
 70
     1
  0
APPID
  5
12
330
9
100
AcDbSymbolTableRecord
100
AcDbRegAppTableRecord
  2
ACAD
 70
     0
  0
ENDTAB
  0
TABLE
  2
DIMSTYLE
  5
A
330
0
100
AcDbSymbolTable
 70
     1
  0
DIMSTYLE
105
7B
330
A
100
AcDbSymbolTableRecord
100
AcDbDimStyleTableRecord
  2
STANDARD
 70
     0
  3

  4

  5

  6

  7

 40
1.0
 41
0.18
 42
0.0625
 43
0.38
 44
0.18
 45
0.0
 46
0.0
 47
0.0
 48
0.0
140
0.18
141
0.09
142
0.0
143
25.4
144
1.0
145
0.0
146
1.0
147
0.09
 71
     0
 72
     0
 73
     1
 74
     1
 75
     0
 76
     0
 77
     0
 78
     0
170
     0
171
     2
172
     0
173
     0
174
     0
175
     0
176
     0
177
     0
178
     0
270
     2
271
     4
272
     4
273
     2
274
     2
340
11
275
     0
280
     0
281
     0
282
     0
283
     1
284
     0
285
     0
286
     0
287
     3
288
     0
  0
ENDTAB
  0
TABLE
  2
BLOCK_RECORD
  5
1
330
0
100
AcDbSymbolTable
 70
     0
  0
BLOCK_RECORD
  5
1E
102
{ACAD_XDICTIONARY
360
A4
102
}
330
1
100
AcDbSymbolTableRecord
100
AcDbBlockTableRecord
  2
*MODEL_SPACE
  0
BLOCK_RECORD
  5
1A
102
{ACAD_XDICTIONARY
360
A2
102
}
330
1
100
AcDbSymbolTableRecord
100
AcDbBlockTableRecord
  2
*PAPER_SPACE
  0
ENDTAB
  0
ENDSEC
  0
SECTION
  2
BLOCKS
  0
BLOCK
  5
1F
330
1E
100
AcDbEntity
  8
0
100
AcDbBlockBegin
  2
*MODEL_SPACE
 70
     0
 10
0.0
 20
0.0
 30
0.0
  3
*MODEL_SPACE
  1

  0
ENDBLK
  5
20
330
1E
100
AcDbEntity
  8
0
100
AcDbBlockEnd
  0
BLOCK
  5
1B
330
1A
100
AcDbEntity
 67
     1
  8
0
100
AcDbBlockBegin
  2
*PAPER_SPACE
 70
     0
 10
0.0
 20
0.0
 30
0.0
  3
*PAPER_SPACE
  1

  0
ENDBLK
  5
1C
330
1A
100
AcDbEntity
 67
     1
  8
0
100
AcDbBlockEnd
  0
ENDSEC
  0
SECTION
  2
ENTITIES
  0
LINE
  5
22
330
1E
100
AcDbEntity
  8
0
100
AcDbLine
 10
14.1717449078414
 20
-0.18252701373597
 30
0.0
 11
21.3988251751108
 21
3.990007707290919
 31
0.0
  0
LINE
  5
23
330
1E
100
AcDbEntity
  8
0
100
AcDbLine
 10
13.6244142972781
 20
0.7568662860274291
 30
0.0
 11
14.1717449078414
 21
-0.18252701373597
 31
0.0
  0
LINE
  5
24
330
1E
100
AcDbEntity
  8
0
100
AcDbLine
 10
12.1146721177206
 20
3.364668198800889
 30
0.0
 11
13.6244142972781
 21
0.7568662860274291
 31
0.0
  0
LINE
  5
25
330
1E
100
AcDbEntity
  8
0
100
AcDbLine
 10
12.1146721177206
 20
3.364668198800889
 30
0.0
 11
13.6244142972781
 21
0.7568662860274291
 31
0.0
  0
LINE
  5
26
330
1E
100
AcDbEntity
  8
0
100
AcDbLine
 10
13.6244142972781
 20
0.75686628602743
 30
0.0
 11
14.1717449078414
 21
-0.18252701373597
 31
0.0
  0
LINE
  5
27
330
1E
100
AcDbEntity
  8
0
100
AcDbLine
 10
14.1717449078414
 20
-0.182527013735971
 30
0.0
 11
21.3988251751108
 21
3.990007707290919
 31
0.0
  0
LINE
  5
28
330
1E
100
AcDbEntity
  8
0
100
AcDbLine
 10
9.84159213304165
 20
7.29690085561966
 30
0.0
 11
12.1146721177206
 21
3.364668198800889
 31
0.0
  0
LINE
  5
29
330
1E
100
AcDbEntity
  8
0
100
AcDbLine
 10
2.215129953504529
 20
20.5111227178176
 30
0.0
 11
4.484001473068599
 21
16.57649938716559
 31
0.0
  0
LINE
  5
2A
330
1E
100
AcDbEntity
  8
0
100
AcDbLine
 10
4.484001473068599
 20
16.57649938716559
 30
0.0
 11
7.167665176883519
 21
11.9265800422389
 31
0.0
  0
LINE
  5
2B
330
1E
100
AcDbEntity
  8
0
100
AcDbLine
 10
7.167665176883519
 20
11.9265800422389
 30
0.0
 11
9.84159213304165
 21
7.29690085561966
 31
0.0
  0
LINE
  5
2F
330
1E
100
AcDbEntity
  8
0
100
AcDbLine
 10
8.30756481192693
 20
28.6411891985896
 30
0.0
 11
21.45191416850429
 21
3.89745322214372
 31
0.0
  0
LINE
  5
30
330
1E
100
AcDbEntity
  8
0
100
AcDbLine
 10
21.45191416850429
 20
3.89745322214372
 30
0.0
 11
124.0821433313459
 21
63.2491508506291
 31
0.0
  0
LINE
  5
31
330
1E
100
AcDbEntity
  8
0
100
AcDbLine
 10
21.45191416850429
 20
3.89745322214373
 30
0.0
 11
124.0821433313459
 21
63.2491508506291
 31
0.0
  0
LINE
  5
32
330
1E
100
AcDbEntity
  8
0
100
AcDbLine
 10
21.39821835861369
 20
3.98965736347158
 30
0.0
 11
21.45191416850429
 21
3.89745322214372
 31
0.0
  0
LINE
  5
33
330
1E
100
AcDbEntity
  8
0
100
AcDbLine
 10
0.171749580624618
 20
24.0660817831416
 30
0.0
 11
8.255016522406599
 21
28.7330489746567
 31
0.0
  0
LINE
  5
34
330
1E
100
AcDbEntity
  8
0
100
AcDbLine
 10
0.171749580624618
 20
24.0660817831416
 30
0.0
 11
8.255016522406599
 21
28.7330489746567
 31
0.0
  0
LINE
  5
35
330
1E
100
AcDbEntity
  8
0
100
AcDbLine
 10
0.171749580624618
 20
24.0660817831416
 30
0.0
 11
0.7008698255259849
 21
23.14112411576669
 31
0.0
  0
LINE
  5
36
330
1E
100
AcDbEntity
  8
0
100
AcDbLine
 10
0.171749580624618
 20
24.0660817831416
 30
0.0
 11
0.7008698255259849
 21
23.14112411576669
 31
0.0
  0
LINE
  5
37
330
1E
100
AcDbEntity
  8
0
100
AcDbLine
 10
0.7008698255259849
 20
23.14112411576669
 30
0.0
 11
2.215129953504529
 21
20.5111227178176
 31
0.0
  0
LINE
  5
38
330
1E
100
AcDbEntity
  8
0
100
AcDbLine
 10
0.7008698255259849
 20
23.14112411576669
 30
0.0
 11
2.215129953504529
 21
20.5111227178176
 31
0.0
  0
LINE
  5
3A
330
1E
100
AcDbEntity
  8
0
100
AcDbLine
 10
8.255016522406599
 20
28.7330489746567
 30
0.0
 11
8.308298165883758
 21
28.6416134512858
 31
0.0
  0
LINE
  5
3B
330
1E
100
AcDbEntity
  8
0
100
AcDbLine
 10
8.307564811926919
 20
28.6411891985896
 30
0.0
 11
79.1655310729453
 21
69.6332407886457
 31
0.0
  0
LINE
  5
3D
330
1E
100
AcDbEntity
  8
0
100
AcDbLine
 10
8.30756481192693
 20
28.6411891985896
 30
0.0
 11
79.16553107294539
 21
69.6332407886457
 31
0.0
  0
LINE
  5
3F
330
1E
100
AcDbEntity
  8
0
100
AcDbLine
 10
123.951903955273
 20
51.1863151987881
 30
0.0
 11
123.978612469264
 21
53.660071020465
 31
0.0
  0
LINE
  5
40
330
1E
100
AcDbEntity
  8
0
100
AcDbLine
 10
123.951903955273
 20
51.1863151987881
 30
0.0
 11
124.776541554465
 21
51.17741179584829
 31
0.0
  0
LINE
  5
44
330
1E
100
AcDbEntity
  8
0
100
AcDbLine
 10
124.776491402655
 20
51.1144328785447
 30
0.0
 11
124.7784614353049
 21
53.58833209414971
 31
0.0
  0
LINE
  5
45
330
1E
100
AcDbEntity
  8
0
100
AcDbLine
 10
124.776491402655
 20
51.1144328785447
 30
0.0
 11
131.776489183178
 21
51.1088585915695
 31
0.0
  0
LINE
  5
46
330
1E
100
AcDbEntity
  8
0
100
AcDbLine
 10
109.7912212273259
 20
69.60885272580849
 30
0.0
 11
109.792069872702
 21
70.6745523879089
 31
0.0
  0
LINE
  5
47
330
1E
100
AcDbEntity
  8
0
100
AcDbLine
 10
67.79123454418921
 20
69.64229844765928
 30
0.0
 11
67.79208318956481
 21
70.70799810975969
 31
0.0
  0
LINE
  5
48
330
1E
100
AcDbEntity
  8
0
100
AcDbLine
 10
67.79123454418921
 20
69.64229844765928
 30
0.0
 11
109.7912212273259
 21
69.60885272580849
 31
0.0
  0
LINE
  5
49
330
1E
100
AcDbEntity
  8
0
100
AcDbLine
 10
109.792069872702
 20
70.6745523879089
 30
0.0
 11
109.794486565004
 21
73.7093514256705
 31
0.0
  0
LINE
  5
4A
330
1E
100
AcDbEntity
  8
0
100
AcDbLine
 10
67.79208318956481
 20
70.70799810975969
 30
0.0
 11
67.7944998818666
 21
73.7427971475213
 31
0.0
  0
LINE
  5
4B
330
1E
100
AcDbEntity
  8
0
100
AcDbLine
 10
109.791225983349
 20
69.6207976264695
 30
0.0
 11
109.792065116681
 21
70.67455239169629
 31
0.0
  0
LINE
  5
4C
330
1E
100
AcDbEntity
  8
0
100
AcDbLine
 10
109.791225983349
 20
69.6207976264695
 30
0.0
 11
124.7912190078499
 21
69.6088527275759
 31
0.0
  0
LINE
  5
4D
330
1E
100
AcDbEntity
  8
0
100
AcDbLine
 10
109.791225983349
 20
69.6207976264695
 30
0.0
 11
124.7912190078499
 21
69.6088527275759
 31
0.0
  0
LINE
  5
4E
330
1E
100
AcDbEntity
  8
0
100
AcDbLine
 10
123.978612469264
 20
53.660071020465
 30
0.0
 11
124.0546727873369
 21
60.70481543045179
 31
0.0
  0
LINE
  5
4F
330
1E
100
AcDbEntity
  8
0
100
AcDbLine
 10
124.0546727873369
 20
60.70481543045179
 30
0.0
 11
124.150812925037
 21
69.6093627002071
 31
0.0
  0
LINE
  5
50
330
1E
100
AcDbEntity
  8
0
100
AcDbLine
 10
109.792074628724
 20
70.68649728856991
 30
0.0
 11
109.794491321026
 21
73.7212963263315
 31
0.0
  0
LINE
  5
51
330
1E
100
AcDbEntity
  8
0
100
AcDbLine
 10
124.7784614353049
 20
53.58833209414971
 30
0.0
 11
124.784071680412
 21
60.6334848603554
 31
0.0
  0
LINE
  5
52
330
1E
100
AcDbEntity
  8
0
100
AcDbLine
 10
124.784071680412
 20
60.6334848603554
 30
0.0
 11
124.792467922297
 21
71.177196517279
 31
0.0
  0
LINE
  5
53
330
1E
100
AcDbEntity
  8
0
100
AcDbLine
 10
109.794486565004
 20
73.7093514256705
 30
0.0
 11
109.798103417218
 21
78.2512699855722
 31
0.0
  0
LINE
  5
54
330
1E
100
AcDbEntity
  8
0
100
AcDbLine
 10
67.7944998818666
 20
73.7427971475213
 30
0.0
 11
67.79811673408059
 21
78.284715707423
 31
0.0
  0
LINE
  5
55
330
1E
100
AcDbEntity
  8
0
100
AcDbLine
 10
109.798103417218
 20
78.2512699855722
 30
0.0
 11
109.8023698007889
 21
83.60884767489441
 31
0.0
  0
LINE
  5
56
330
1E
100
AcDbEntity
  8
0
100
AcDbLine
 10
109.794491321026
 20
73.7212963263315
 30
0.0
 11
109.79810817324
 21
78.2632148862332
 31
0.0
  0
LINE
  5
57
330
1E
100
AcDbEntity
  8
0
100
AcDbLine
 10
67.79811673408059
 20
78.284715707423
 30
0.0
 11
67.80238311765221
 21
83.64229339674508
 31
0.0
  0
LINE
  5
58
330
1E
100
AcDbEntity
  8
0
100
AcDbLine
 10
109.8023698007889
 20
83.60884767489441
 30
0.0
 11
109.8066361694089
 21
88.96640658814241
 31
0.0
  0
LINE
  5
59
330
1E
100
AcDbEntity
  8
0
100
AcDbLine
 10
67.80238311765221
 20
83.64229339674508
 30
0.0
 11
67.8066494862718
 21
88.99985230999321
 31
0.0
  0
LINE
  5
5A
330
1E
100
AcDbEntity
  8
0
100
AcDbLine
 10
109.79810817324
 20
78.2632148862332
 30
0.0
 11
109.802374556812
 21
83.6207925755554
 31
0.0
  0
LINE
  5
5B
330
1E
100
AcDbEntity
  8
0
100
AcDbLine
 10
109.8066361694089
 20
88.96640658814241
 30
0.0
 11
109.810253037549
 21
93.50834514803791
 31
0.0
  0
LINE
  5
5C
330
1E
100
AcDbEntity
  8
0
100
AcDbLine
 10
109.802374556812
 20
83.6207925755554
 30
0.0
 11
109.8066409254309
 21
88.97835148880341
 31
0.0
  0
LINE
  5
5D
330
1E
100
AcDbEntity
  8
0
100
AcDbLine
 10
67.8066494862718
 20
88.99985230999321
 30
0.0
 11
67.8102663544124
 21
93.54179086988869
 31
0.0
  0
LINE
  5
5E
330
1E
100
AcDbEntity
  8
0
100
AcDbLine
 10
109.810253037549
 20
93.50834514803791
 30
0.0
 11
109.8126697298509
 21
96.54314418579941
 31
0.0
  0
LINE
  5
5F
330
1E
100
AcDbEntity
  8
0
100
AcDbLine
 10
67.8102663544124
 20
93.54179086988869
 30
0.0
 11
67.8126830467141
 21
96.57658990765021
 31
0.0
  0
LINE
  5
60
330
1E
100
AcDbEntity
  8
0
100
AcDbLine
 10
109.8066409254309
 20
88.97835148880341
 30
0.0
 11
109.810257793572
 21
93.52029004869889
 31
0.0
  0
LINE
  5
61
330
1E
100
AcDbEntity
  8
0
100
AcDbLine
 10
109.810257793572
 20
93.52029004869889
 30
0.0
 11
109.8126744858739
 21
96.55508908646041
 31
0.0
  0
LINE
  5
62
330
1E
100
AcDbEntity
  8
0
100
AcDbLine
 10
124.792467922297
 20
71.177196517279
 30
0.0
 11
124.802372019622
 21
83.61442115320929
 31
0.0
  0
LINE
  5
63
330
1E
100
AcDbEntity
  8
0
100
AcDbLine
 10
124.802372019622
 20
83.61442115320929
 30
0.0
 11
124.81227611921
 21
96.05164863037961
 31
0.0
  0
LINE
  5
64
330
1E
100
AcDbEntity
  8
0
100
AcDbLine
 10
67.81353169208969
 20
97.6422895697506
 30
0.0
 11
109.8135183752269
 21
97.60884384789981
 31
0.0
  0
LINE
  5
65
330
1E
100
AcDbEntity
  8
0
100
AcDbLine
 10
67.81353169208969
 20
97.6422895697506
 30
0.0
 11
109.813513619206
 21
97.6088438516872
 31
0.0
  0
LINE
  5
66
330
1E
100
AcDbEntity
  8
0
100
AcDbLine
 10
67.8126830467141
 20
96.57658990765021
 30
0.0
 11
67.81353169208969
 21
97.6422895697506
 31
0.0
  0
LINE
  5
67
330
1E
100
AcDbEntity
  8
0
100
AcDbLine
 10
124.453119317863
 20
97.60913084338682
 30
0.0
 11
124.5508827319959
 21
106.6640267820719
 31
0.0
  0
LINE
  5
68
330
1E
100
AcDbEntity
  8
0
100
AcDbLine
 10
109.812679241895
 20
96.555089082673
 30
0.0
 11
109.8135183752269
 21
97.60884384789981
 31
0.0
  0
LINE
  5
69
330
1E
100
AcDbEntity
  8
0
100
AcDbLine
 10
124.5508827319959
 20
106.6640267820719
 30
0.0
 11
124.62694305007
 21
113.7087711920589
 31
0.0
  0
LINE
  5
6A
330
1E
100
AcDbEntity
  8
0
100
AcDbLine
 10
109.813523131249
 20
97.62078874856079
 30
0.0
 11
124.81351615575
 21
97.60884384966729
 31
0.0
  0
LINE
  5
6B
330
1E
100
AcDbEntity
  8
0
100
AcDbLine
 10
109.8126744858739
 20
96.55508908646041
 30
0.0
 11
109.813523131249
 21
97.62078874856079
 31
0.0
  0
LINE
  5
6C
330
1E
100
AcDbEntity
  8
0
100
AcDbLine
 10
124.81227611921
 20
96.05164863037961
 30
0.0
 11
124.820672361095
 21
106.595360287303
 31
0.0
  0
LINE
  5
6D
330
1E
100
AcDbEntity
  8
0
100
AcDbLine
 10
131.776489183178
 20
51.1088585915695
 30
0.0
 11
131.778459215827
 21
53.58275780717461
 31
0.0
  0
LINE
  5
6E
330
1E
100
AcDbEntity
  8
0
100
AcDbLine
 10
131.778459215827
 20
53.58275780717461
 30
0.0
 11
131.7840694609349
 21
60.62791057338021
 31
0.0
  0
LINE
  5
6F
330
1E
100
AcDbEntity
  8
0
100
AcDbLine
 10
131.7840694609349
 20
60.62791057338021
 30
0.0
 11
131.7924657028199
 21
71.17162223030391
 31
0.0
  0
LINE
  5
70
330
1E
100
AcDbEntity
  8
0
100
AcDbLine
 10
131.7924657028199
 20
71.17162223030391
 30
0.0
 11
131.8023698001449
 21
83.60884686623409
 31
0.0
  0
LINE
  5
71
330
1E
100
AcDbEntity
  8
0
100
AcDbLine
 10
131.8023698001449
 20
83.60884686623409
 30
0.0
 11
131.812273899733
 21
96.04607434340451
 31
0.0
  0
LINE
  5
72
330
1E
100
AcDbEntity
  8
0
100
AcDbLine
 10
131.812273899733
 20
96.04607434340451
 30
0.0
 11
131.820670141618
 21
106.589786000328
 31
0.0
  0
LINE
  5
73
330
1E
100
AcDbEntity
  8
0
100
AcDbLine
 10
131.820670141618
 20
106.589786000328
 30
0.0
 11
131.826280386726
 21
113.634938766534
 31
0.0
  0
LINE
  5
74
330
1E
100
AcDbEntity
  8
0
100
AcDbLine
 10
124.820672361095
 20
106.595360287303
 30
0.0
 11
124.826282606203
 21
113.640513053509
 31
0.0
  0
LINE
  5
75
330
1E
100
AcDbEntity
  8
0
100
AcDbLine
 10
124.65365156406
 20
116.182527013736
 30
0.0
 11
131.450937043407
 21
116.109138446954
 31
0.0
  0
LINE
  5
76
330
1E
100
AcDbEntity
  8
0
100
AcDbLine
 10
124.62694305007
 20
113.7087711920589
 30
0.0
 11
124.65365156406
 21
116.182527013736
 31
0.0
  0
LINE
  5
77
330
1E
100
AcDbEntity
  8
0
100
AcDbLine
 10
131.450937043407
 20
116.109138446954
 30
0.0
 11
131.828250419375
 21
116.108837982139
 31
0.0
  0
LINE
  5
78
330
1E
100
AcDbEntity
  8
0
100
AcDbLine
 10
124.8282526388529
 20
116.114412269114
 30
0.0
 11
131.828250419375
 21
116.108837982139
 31
0.0
  0
LINE
  5
79
330
1E
100
AcDbEntity
  8
0
100
AcDbLine
 10
124.826282606203
 20
113.640513053509
 30
0.0
 11
124.8282526388529
 21
116.114412269114
 31
0.0
  0
LINE
  5
7A
330
1E
100
AcDbEntity
  8
0
100
AcDbLine
 10
131.826280386726
 20
113.634938766534
 30
0.0
 11
131.828250419375
 21
116.108837982139
 31
0.0
  0
ENDSEC
  0
SECTION
  2
OBJECTS
  0
DICTIONARY
  5
C
330
0
100
AcDbDictionary
  3
ACAD_GROUP
350
D
  3
ACAD_LAYOUT
350
19
  3
ACAD_MLINESTYLE
350
16
  3
ACAD_PLOTSETTINGS
350
18
  3
ACAD_PLOTSTYLENAME
350
E
  3
ACDBHEADERROUNDTRIPXREC
350
82
  3
ACDBVARIABLEDICTIONARY
350
7F
  0
DICTIONARY
  5
A4
330
1E
100
AcDbDictionary
280
     1
  3
ACAD_LAYOUTSELFREF
360
A5
  0
DICTIONARY
  5
A2
330
1A
100
AcDbDictionary
280
     1
  3
ACAD_LAYOUTSELFREF
360
A3
  0
DICTIONARY
  5
D
102
{ACAD_REACTORS
330
C
102
}
330
C
100
AcDbDictionary
  0
DICTIONARY
  5
19
102
{ACAD_REACTORS
330
C
102
}
330
C
100
AcDbDictionary
  0
DICTIONARY
  5
16
102
{ACAD_REACTORS
330
C
102
}
330
C
100
AcDbDictionary
  3
STANDARD
350
17
  0
DICTIONARY
  5
18
102
{ACAD_REACTORS
330
C
102
}
330
C
100
AcDbDictionary
  0
ACDBDICTIONARYWDFLT
  5
E
102
{ACAD_REACTORS
330
C
102
}
330
C
100
AcDbDictionary
281
     1
  3
Normal
350
F
100
AcDbDictionaryWithDefault
340
F
  0
DICTIONARY
  5
82
102
{ACAD_REACTORS
330
C
102
}
330
C
100
AcDbDictionary
  3
CEPSNTYPE
350
8C
  3
FINGERPRINTGUID
350
8D
  3
HYPERLINKBASE
350
85
  3
INSUNITS
350
8B
  3
LAYOUTDICT
350
87
  3
LWETCUNION
350
8A
  3
PLOTSETDICT
350
88
  3
PLOTSTYLNAMDICT
350
89
  3
PSVPSCALE
350
8F
  3
PUCSBASE
350
92
  3
PUCSORGBACK
350
98
  3
PUCSORGBOTTOM
350
94
  3
PUCSORGFRONT
350
97
  3
PUCSORGLEFT
350
95
  3
PUCSORGRIGHT
350
96
  3
PUCSORGTOP
350
93
  3
PUCSORTHOREF
350
90
  3
PUCSORTHOVIEW
350
91
  3
STYLESHEET
350
86
  3
TSTACKALIGN
350
83
  3
TSTACKSIZE
350
84
  3
UCSBASE
350
9B
  3
UCSORGBACK
350
A1
  3
UCSORGBOTTOM
350
9D
  3
UCSORGFRONT
350
A0
  3
UCSORGLEFT
350
9E
  3
UCSORGRIGHT
350
9F
  3
UCSORGTOP
350
9C
  3
UCSORTHOREF
350
99
  3
UCSORTHOVIEW
350
9A
  3
VERSIONGUID
350
8E
  0
DICTIONARY
  5
7F
102
{ACAD_REACTORS
330
C
102
}
330
C
100
AcDbDictionary
  3
DIMASSOC
350
80
  0
XRECORD
  5
A5
102
{ACAD_REACTORS
330
A4
102
}
330
A4
100
AcDbXrecord
340
1E
  0
XRECORD
  5
A3
102
{ACAD_REACTORS
330
A2
102
}
330
A2
100
AcDbXrecord
340
1A
  0
MLINESTYLE
  5
17
102
{ACAD_REACTORS
330
16
102
}
330
16
100
AcDbMlineStyle
  2
STANDARD
 70
     0
  3

 62
   256
 51
90.0
 52
90.0
 71
     2
 49
0.5
 62
   256
  6
BYLAYER
 49
-0.5
 62
   256
  6
BYLAYER
  0
ACDBPLACEHOLDER
  5
F
102
{ACAD_REACTORS
330
E
102
}
330
E
100
AcDbPlaceHolder
280
     0
  0
XRECORD
  5
8C
102
{ACAD_REACTORS
330
82
102
}
330
82
100
AcDbXrecord
 90
        0
  0
XRECORD
  5
8D
102
{ACAD_REACTORS
330
82
102
}
330
82
100
AcDbXrecord
  1
{CA798FCC-183D-4358-A491-C850FE7125A5}
  0
XRECORD
  5
85
102
{ACAD_REACTORS
330
82
102
}
330
82
100
AcDbXrecord
  1

  0
XRECORD
  5
8B
102
{ACAD_REACTORS
330
82
102
}
330
82
100
AcDbXrecord
 90
        0
  0
XRECORD
  5
87
102
{ACAD_REACTORS
330
82
102
}
330
82
100
AcDbXrecord
340
19
  0
XRECORD
  5
8A
102
{ACAD_REACTORS
330
82
102
}
330
82
100
AcDbXrecord
 90
    10781
  0
XRECORD
  5
88
102
{ACAD_REACTORS
330
82
102
}
330
82
100
AcDbXrecord
340
18
  0
XRECORD
  5
89
102
{ACAD_REACTORS
330
82
102
}
330
82
100
AcDbXrecord
340
E
  0
XRECORD
  5
8F
102
{ACAD_REACTORS
330
82
102
}
330
82
100
AcDbXrecord
 40
0.0
  0
XRECORD
  5
92
102
{ACAD_REACTORS
330
82
102
}
330
82
100
AcDbXrecord
340
0
  0
XRECORD
  5
98
102
{ACAD_REACTORS
330
82
102
}
330
82
100
AcDbXrecord
 10
0.0
 20
0.0
 30
0.0
  0
XRECORD
  5
94
102
{ACAD_REACTORS
330
82
102
}
330
82
100
AcDbXrecord
 10
0.0
 20
0.0
 30
0.0
  0
XRECORD
  5
97
102
{ACAD_REACTORS
330
82
102
}
330
82
100
AcDbXrecord
 10
0.0
 20
0.0
 30
0.0
  0
XRECORD
  5
95
102
{ACAD_REACTORS
330
82
102
}
330
82
100
AcDbXrecord
 10
0.0
 20
0.0
 30
0.0
  0
XRECORD
  5
96
102
{ACAD_REACTORS
330
82
102
}
330
82
100
AcDbXrecord
 10
0.0
 20
0.0
 30
0.0
  0
XRECORD
  5
93
102
{ACAD_REACTORS
330
82
102
}
330
82
100
AcDbXrecord
 10
0.0
 20
0.0
 30
0.0
  0
XRECORD
  5
90
102
{ACAD_REACTORS
330
82
102
}
330
82
100
AcDbXrecord
340
0
  0
XRECORD
  5
91
102
{ACAD_REACTORS
330
82
102
}
330
82
100
AcDbXrecord
 70
     0
  0
XRECORD
  5
86
102
{ACAD_REACTORS
330
82
102
}
330
82
100
AcDbXrecord
  1

  0
XRECORD
  5
83
102
{ACAD_REACTORS
330
82
102
}
330
82
100
AcDbXrecord
 90
        1
  0
XRECORD
  5
84
102
{ACAD_REACTORS
330
82
102
}
330
82
100
AcDbXrecord
 90
       70
  0
XRECORD
  5
9B
102
{ACAD_REACTORS
330
82
102
}
330
82
100
AcDbXrecord
340
0
  0
XRECORD
  5
A1
102
{ACAD_REACTORS
330
82
102
}
330
82
100
AcDbXrecord
 10
0.0
 20
0.0
 30
0.0
  0
XRECORD
  5
9D
102
{ACAD_REACTORS
330
82
102
}
330
82
100
AcDbXrecord
 10
0.0
 20
0.0
 30
0.0
  0
XRECORD
  5
A0
102
{ACAD_REACTORS
330
82
102
}
330
82
100
AcDbXrecord
 10
0.0
 20
0.0
 30
0.0
  0
XRECORD
  5
9E
102
{ACAD_REACTORS
330
82
102
}
330
82
100
AcDbXrecord
 10
0.0
 20
0.0
 30
0.0
  0
XRECORD
  5
9F
102
{ACAD_REACTORS
330
82
102
}
330
82
100
AcDbXrecord
 10
0.0
 20
0.0
 30
0.0
  0
XRECORD
  5
9C
102
{ACAD_REACTORS
330
82
102
}
330
82
100
AcDbXrecord
 10
0.0
 20
0.0
 30
0.0
  0
XRECORD
  5
99
102
{ACAD_REACTORS
330
82
102
}
330
82
100
AcDbXrecord
340
0
  0
XRECORD
  5
9A
102
{ACAD_REACTORS
330
82
102
}
330
82
100
AcDbXrecord
 70
     1
  0
XRECORD
  5
8E
102
{ACAD_REACTORS
330
82
102
}
330
82
100
AcDbXrecord
  1
{930F176D-AFA1-424A-AB37-9433FCD27B2B}
  0
DICTIONARYVAR
  5
80
102
{ACAD_REACTORS
330
7F
102
}
330
7F
100
DictionaryVariables
280
     0
  1
1
  0
ENDSEC
  0
EOF
