  0
SECTION
  2
HEADER
  9
$ACADVER
  1
AC1014
  9
$ACADMAINTVER
 70
     9
  9
$DWGCODEPAGE
  3
ANSI_1252
  9
$INSBASE
 10
0.0
 20
0.0
 30
0.0
  9
$EXTMIN
 10
0.0000000000000006
 20
-0.0000125000000033
 30
0.0
  9
$EXTMAX
 10
46.0
 20
160.0000125
 30
0.0
  9
$LIMMIN
 10
0.0
 20
0.0
  9
$LIMMAX
 10
12.0
 20
9.0
  9
$ORTHOMODE
 70
     0
  9
$REGENMODE
 70
     1
  9
$FILLMODE
 70
     1
  9
$QTEXTMODE
 70
     0
  9
$MIRRTEXT
 70
     1
  9
$DRAGMODE
 70
     2
  9
$LTSCALE
 40
1.0
  9
$OSMODE
 70
    37
  9
$ATTMODE
 70
     1
  9
$TEXTSIZE
 40
0.2
  9
$TRACEWID
 40
0.05
  9
$TEXTSTYLE
  7
STANDARD
  9
$CLAYER
  8
0
  9
$CELTYPE
  6
CONTINUOUS
  9
$CECOLOR
 62
   256
  9
$CELTSCALE
 40
1.0
  9
$DELOBJ
 70
     1
  9
$DISPSILH
 70
     0
  9
$DIMSCALE
 40
1.0
  9
$DIMASZ
 40
0.18
  9
$DIMEXO
 40
0.0625
  9
$DIMDLI
 40
0.38
  9
$DIMRND
 40
0.0
  9
$DIMDLE
 40
0.0
  9
$DIMEXE
 40
0.18
  9
$DIMTP
 40
0.0
  9
$DIMTM
 40
0.0
  9
$DIMTXT
 40
0.18
  9
$DIMCEN
 40
0.09
  9
$DIMTSZ
 40
0.0
  9
$DIMTOL
 70
     0
  9
$DIMLIM
 70
     0
  9
$DIMTIH
 70
     1
  9
$DIMTOH
 70
     1
  9
$DIMSE1
 70
     0
  9
$DIMSE2
 70
     0
  9
$DIMTAD
 70
     0
  9
$DIMZIN
 70
     0
  9
$DIMBLK
  1

  9
$DIMASO
 70
     1
  9
$DIMSHO
 70
     1
  9
$DIMPOST
  1

  9
$DIMAPOST
  1

  9
$DIMALT
 70
     0
  9
$DIMALTD
 70
     2
  9
$DIMALTF
 40
25.4
  9
$DIMLFAC
 40
1.0
  9
$DIMTOFL
 70
     0
  9
$DIMTVP
 40
0.0
  9
$DIMTIX
 70
     0
  9
$DIMSOXD
 70
     0
  9
$DIMSAH
 70
     0
  9
$DIMBLK1
  1

  9
$DIMBLK2
  1

  9
$DIMSTYLE
  2
STANDARD
  9
$DIMCLRD
 70
     0
  9
$DIMCLRE
 70
     0
  9
$DIMCLRT
 70
     0
  9
$DIMTFAC
 40
1.0
  9
$DIMGAP
 40
0.09
  9
$DIMJUST
 70
     0
  9
$DIMSD1
 70
     0
  9
$DIMSD2
 70
     0
  9
$DIMTOLJ
 70
     1
  9
$DIMTZIN
 70
     0
  9
$DIMALTZ
 70
     0
  9
$DIMALTTZ
 70
     0
  9
$DIMFIT
 70
     3
  9
$DIMUPT
 70
     0
  9
$DIMUNIT
 70
     2
  9
$DIMDEC
 70
     4
  9
$DIMTDEC
 70
     4
  9
$DIMALTU
 70
     2
  9
$DIMALTTD
 70
     2
  9
$DIMTXSTY
  7
STANDARD
  9
$DIMAUNIT
 70
     0
  9
$LUNITS
 70
     2
  9
$LUPREC
 70
     4
  9
$SKETCHINC
 40
0.1
  9
$FILLETRAD
 40
0.0
  9
$AUNITS
 70
     0
  9
$AUPREC
 70
     0
  9
$MENU
  1
.
  9
$ELEVATION
 40
0.0
  9
$PELEVATION
 40
0.0
  9
$THICKNESS
 40
0.0
  9
$LIMCHECK
 70
     0
  9
$BLIPMODE
 70
     0
  9
$CHAMFERA
 40
0.0
  9
$CHAMFERB
 40
0.0
  9
$CHAMFERC
 40
0.0
  9
$CHAMFERD
 40
0.0
  9
$SKPOLY
 70
     0
  9
$TDCREATE
 40
2454690.805818136
  9
$TDUPDATE
 40
2454690.810528240
  9
$TDINDWG
 40
0.0047101042
  9
$TDUSRTIMER
 40
0.0047101042
  9
$USRTIMER
 70
     1
  9
$ANGBASE
 50
0.0
  9
$ANGDIR
 70
     0
  9
$PDMODE
 70
     0
  9
$PDSIZE
 40
0.0
  9
$PLINEWID
 40
0.0
  9
$COORDS
 70
     1
  9
$SPLFRAME
 70
     0
  9
$SPLINETYPE
 70
     6
  9
$SPLINESEGS
 70
     8
  9
$ATTDIA
 70
     0
  9
$ATTREQ
 70
     1
  9
$HANDLING
 70
 22529
  9
$HANDSEED
  5
176
  9
$SURFTAB1
 70
     6
  9
$SURFTAB2
 70
     6
  9
$SURFTYPE
 70
     6
  9
$SURFU
 70
     6
  9
$SURFV
 70
     6
  9
$UCSNAME
  2

  9
$UCSORG
 10
0.0
 20
0.0
 30
0.0
  9
$UCSXDIR
 10
1.0
 20
0.0
 30
0.0
  9
$UCSYDIR
 10
0.0
 20
1.0
 30
0.0
  9
$PUCSNAME
  2

  9
$PUCSORG
 10
0.0
 20
0.0
 30
0.0
  9
$PUCSXDIR
 10
1.0
 20
0.0
 30
0.0
  9
$PUCSYDIR
 10
0.0
 20
1.0
 30
0.0
  9
$USERI1
 70
     0
  9
$USERI2
 70
     0
  9
$USERI3
 70
     0
  9
$USERI4
 70
     0
  9
$USERI5
 70
     0
  9
$USERR1
 40
0.0
  9
$USERR2
 40
0.0
  9
$USERR3
 40
0.0
  9
$USERR4
 40
0.0
  9
$USERR5
 40
0.0
  9
$WORLDVIEW
 70
     1
  9
$SHADEDGE
 70
     3
  9
$SHADEDIF
 70
    70
  9
$TILEMODE
 70
     1
  9
$MAXACTVP
 70
    64
  9
$PINSBASE
 10
0.0
 20
0.0
 30
0.0
  9
$PLIMCHECK
 70
     0
  9
$PEXTMIN
 10
1.000000000000000E+20
 20
1.000000000000000E+20
 30
1.000000000000000E+20
  9
$PEXTMAX
 10
-1.000000000000000E+20
 20
-1.000000000000000E+20
 30
-1.000000000000000E+20
  9
$PLIMMIN
 10
0.0
 20
0.0
  9
$PLIMMAX
 10
12.0
 20
9.0
  9
$UNITMODE
 70
     0
  9
$VISRETAIN
 70
     1
  9
$PLINEGEN
 70
     0
  9
$PSLTSCALE
 70
     1
  9
$TREEDEPTH
 70
  3020
  9
$PICKSTYLE
 70
     1
  9
$CMLSTYLE
  2
STANDARD
  9
$CMLJUST
 70
     0
  9
$CMLSCALE
 40
1.0
  9
$PROXYGRAPHICS
 70
     1
  9
$MEASUREMENT
 70
     0
  0
ENDSEC
  0
SECTION
  2
CLASSES
  0
CLASS
  1
ACDBDICTIONARYWDFLT
  2
AcDbDictionaryWithDefault
  3
AutoCAD 2000
 90
        0
280
     0
281
     0
  0
CLASS
  1
ACDBPLACEHOLDER
  2
AcDbPlaceHolder
  3
AutoCAD 2000
 90
        0
280
     0
281
     0
  0
CLASS
  1
LAYOUT
  2
AcDbLayout
  3
AutoCAD 2000
 90
        0
280
     0
281
     0
  0
CLASS
  1
DICTIONARYVAR
  2
AcDbDictionaryVar
  3
AutoCAD 2000
 90
        0
280
     0
281
     0
  0
CLASS
  1
LONG_TRANSACTION
  2
AcDbLongTransaction
  3
AutoCAD 2000
 90
        0
280
     0
281
     0
  0
CLASS
  1
LWPOLYLINE
  2
AcDbPolyline
  3
AutoCAD 2000
 90
        0
280
     0
281
     1
  0
CLASS
  1
HATCH
  2
AcDbHatch
  3
AutoCAD 2000
 90
        0
280
     0
281
     1
  0
CLASS
  1
XRECORD
  2
AcDbXrecord
  3
AutoCAD 2000
 90
        0
280
     0
281
     0
  0
ENDSEC
  0
SECTION
  2
TABLES
  0
TABLE
  2
VPORT
  5
8
330
0
100
AcDbSymbolTable
 70
     2
  0
VPORT
  5
151
330
8
100
AcDbSymbolTableRecord
100
AcDbViewportTableRecord
  2
*ACTIVE
 70
     0
 10
0.0
 20
0.0
 11
1.0
 21
1.0
 12
23.0
 22
80.0
 13
0.0
 23
0.0
 14
1.0
 24
1.0
 15
0.0
 25
0.0
 16
0.0
 26
0.0
 36
1.0
 17
0.0
 27
0.0
 37
0.0
 40
161.2276466751918
 41
2.043533930857874
 42
50.0
 43
0.0
 44
0.0
 50
0.0
 51
0.0
 71
     0
 72
   100
 73
     1
 74
     3
 75
     0
 76
     0
 77
     0
 78
     0
  0
ENDTAB
  0
TABLE
  2
LTYPE
  5
5
330
0
100
AcDbSymbolTable
 70
     1
  0
LTYPE
  5
13
330
5
100
AcDbSymbolTableRecord
100
AcDbLinetypeTableRecord
  2
BYBLOCK
 70
     0
  3

 72
    65
 73
     0
 40
0.0
  0
LTYPE
  5
14
330
5
100
AcDbSymbolTableRecord
100
AcDbLinetypeTableRecord
  2
BYLAYER
 70
     0
  3

 72
    65
 73
     0
 40
0.0
  0
LTYPE
  5
15
330
5
100
AcDbSymbolTableRecord
100
AcDbLinetypeTableRecord
  2
CONTINUOUS
 70
     0
  3
Solid line
 72
    65
 73
     0
 40
0.0
  0
ENDTAB
  0
TABLE
  2
LAYER
  5
2
330
0
100
AcDbSymbolTable
 70
     1
  0
LAYER
  5
10
330
2
100
AcDbSymbolTableRecord
100
AcDbLayerTableRecord
  2
0
 70
     0
 62
     7
  6
CONTINUOUS
  0
ENDTAB
  0
TABLE
  2
STYLE
  5
3
330
0
100
AcDbSymbolTable
 70
     1
  0
STYLE
  5
11
330
3
100
AcDbSymbolTableRecord
100
AcDbTextStyleTableRecord
  2
STANDARD
 70
     0
 40
0.0
 41
1.0
 50
0.0
 71
     0
 42
0.2
  3
txt
  4

  0
ENDTAB
  0
TABLE
  2
VIEW
  5
6
330
0
100
AcDbSymbolTable
 70
     0
  0
ENDTAB
  0
TABLE
  2
UCS
  5
7
330
0
100
AcDbSymbolTable
 70
     0
  0
ENDTAB
  0
TABLE
  2
APPID
  5
9
330
0
100
AcDbSymbolTable
 70
     1
  0
APPID
  5
12
330
9
100
AcDbSymbolTableRecord
100
AcDbRegAppTableRecord
  2
ACAD
 70
     0
  0
ENDTAB
  0
TABLE
  2
DIMSTYLE
  5
A
330
0
100
AcDbSymbolTable
 70
     1
  0
DIMSTYLE
105
14B
330
A
100
AcDbSymbolTableRecord
100
AcDbDimStyleTableRecord
  2
STANDARD
 70
     0
  3

  4

  5

  6

  7

 40
1.0
 41
0.18
 42
0.0625
 43
0.38
 44
0.18
 45
0.0
 46
0.0
 47
0.0
 48
0.0
140
0.18
141
0.09
142
0.0
143
25.4
144
1.0
145
0.0
146
1.0
147
0.09
 71
     0
 72
     0
 73
     1
 74
     1
 75
     0
 76
     0
 77
     0
 78
     0
170
     0
171
     2
172
     0
173
     0
174
     0
175
     0
176
     0
177
     0
178
     0
270
     2
271
     4
272
     4
273
     2
274
     2
340
11
275
     0
280
     0
281
     0
282
     0
283
     1
284
     0
285
     0
286
     0
287
     3
288
     0
  0
ENDTAB
  0
TABLE
  2
BLOCK_RECORD
  5
1
330
0
100
AcDbSymbolTable
 70
     0
  0
BLOCK_RECORD
  5
1E
102
{ACAD_XDICTIONARY
360
174
102
}
330
1
100
AcDbSymbolTableRecord
100
AcDbBlockTableRecord
  2
*MODEL_SPACE
  0
BLOCK_RECORD
  5
1A
102
{ACAD_XDICTIONARY
360
172
102
}
330
1
100
AcDbSymbolTableRecord
100
AcDbBlockTableRecord
  2
*PAPER_SPACE
  0
ENDTAB
  0
ENDSEC
  0
SECTION
  2
BLOCKS
  0
BLOCK
  5
1F
330
1E
100
AcDbEntity
  8
0
100
AcDbBlockBegin
  2
*MODEL_SPACE
 70
     0
 10
0.0
 20
0.0
 30
0.0
  3
*MODEL_SPACE
  1

  0
ENDBLK
  5
20
330
1E
100
AcDbEntity
  8
0
100
AcDbBlockEnd
  0
BLOCK
  5
1B
330
1A
100
AcDbEntity
 67
     1
  8
0
100
AcDbBlockBegin
  2
*PAPER_SPACE
 70
     0
 10
0.0
 20
0.0
 30
0.0
  3
*PAPER_SPACE
  1

  0
ENDBLK
  5
1C
330
1A
100
AcDbEntity
 67
     1
  8
0
100
AcDbBlockEnd
  0
ENDSEC
  0
SECTION
  2
ENTITIES
  0
LINE
  5
22
330
1E
100
AcDbEntity
  8
0
100
AcDbLine
 10
0.800000000000001
 20
112.1000125
 30
0.0
 11
3.1
 21
106.6000124999999
 31
0.0
  0
LINE
  5
23
330
1E
100
AcDbEntity
  8
0
100
AcDbLine
 10
9.5
 20
5.5660125
 30
0.0
 11
10.9
 21
3.8660125
 31
0.0
  0
LINE
  5
24
330
1E
100
AcDbEntity
  8
0
100
AcDbLine
 10
9.0
 20
26.41861249999999
 30
0.0
 11
9.0
 21
16.89231249999999
 31
0.0
  0
LINE
  5
25
330
1E
100
AcDbEntity
  8
0
100
AcDbLine
 10
9.0
 20
26.41861249999999
 30
0.0
 11
9.5
 21
29.0166125
 31
0.0
  0
LINE
  5
26
330
1E
100
AcDbEntity
  8
0
100
AcDbLine
 10
9.0
 20
16.89231249999999
 30
0.0
 11
9.5
 21
15.0923125
 31
0.0
  0
LINE
  5
27
330
1E
100
AcDbEntity
  8
0
100
AcDbLine
 10
9.0
 20
16.89231249999999
 30
0.0
 11
9.0
 21
26.41861249999999
 31
0.0
  0
LINE
  5
28
330
1E
100
AcDbEntity
  8
0
100
AcDbLine
 10
9.5
 20
29.0166125
 30
0.0
 11
9.66929393939394
 21
29.6091412878788
 31
0.0
  0
LINE
  5
29
330
1E
100
AcDbEntity
  8
0
100
AcDbLine
 10
9.5
 20
15.0923125
 30
0.0
 11
10.9
 21
13.3923125
 31
0.0
  0
LINE
  5
2A
330
1E
100
AcDbEntity
  8
0
100
AcDbLine
 10
9.5
 20
14.2263125
 30
0.0
 11
10.9
 21
12.5263125
 31
0.0
  0
LINE
  5
2B
330
1E
100
AcDbEntity
  8
0
100
AcDbLine
 10
9.0
 20
16.02631249999999
 30
0.0
 11
9.0
 21
7.3660125
 31
0.0
  0
LINE
  5
2C
330
1E
100
AcDbEntity
  8
0
100
AcDbLine
 10
9.0
 20
16.02631249999999
 30
0.0
 11
9.5
 21
14.2263125
 31
0.0
  0
LINE
  5
2D
330
1E
100
AcDbEntity
  8
0
100
AcDbLine
 10
9.0
 20
16.02631249999999
 30
0.0
 11
9.120277777777779
 21
16.4593125
 31
0.0
  0
LINE
  5
2E
330
1E
100
AcDbEntity
  8
0
100
AcDbLine
 10
9.0
 20
7.3660125
 30
0.0
 11
9.5
 21
5.5660125
 31
0.0
  0
LINE
  5
2F
330
1E
100
AcDbEntity
  8
0
100
AcDbLine
 10
9.0
 20
7.3660125
 30
0.0
 11
9.0
 21
16.02631249999999
 31
0.0
  0
LINE
  5
30
330
1E
100
AcDbEntity
  8
0
100
AcDbLine
 10
10.9
 20
13.3923125
 30
0.0
 11
13.1
 21
11.9423125
 31
0.0
  0
LINE
  5
31
330
1E
100
AcDbEntity
  8
0
100
AcDbLine
 10
11.3
 20
13.1093125
 30
0.0
 11
12.152
 21
12.56713068181819
 31
0.0
  0
LINE
  5
32
330
1E
100
AcDbEntity
  8
0
100
AcDbLine
 10
11.266128440367
 20
13.1510005733945
 30
0.0
 11
11.3
 21
13.1093125
 31
0.0
  0
LINE
  5
33
330
1E
100
AcDbEntity
  8
0
100
AcDbLine
 10
10.9
 20
12.5263125
 30
0.0
 11
13.1
 21
11.0763125
 31
0.0
  0
LINE
  5
34
330
1E
100
AcDbEntity
  8
0
100
AcDbLine
 10
10.9
 20
3.8660125
 30
0.0
 11
11.69999999999999
 21
3.2499825
 31
0.0
  0
LINE
  5
35
330
1E
100
AcDbEntity
  8
0
100
AcDbLine
 10
10.9
 20
3.8660125
 30
0.0
 11
13.1
 21
2.416012499999999
 31
0.0
  0
LINE
  5
36
330
1E
100
AcDbEntity
  8
0
100
AcDbLine
 10
11.69999999999999
 20
3.2499825
 30
0.0
 11
13.8
 21
1.8999825
 31
0.0
  0
LINE
  5
37
330
1E
100
AcDbEntity
  8
0
100
AcDbLine
 10
10.9
 20
28.1147125
 30
0.0
 11
11.69999999999999
 21
27.49871249999999
 31
0.0
  0
LINE
  5
38
330
1E
100
AcDbEntity
  8
0
100
AcDbLine
 10
10.9
 20
28.1147125
 30
0.0
 11
13.1
 21
26.6647125
 31
0.0
  0
LINE
  5
39
330
1E
100
AcDbEntity
  8
0
100
AcDbLine
 10
9.5
 20
29.8147125
 30
0.0
 11
10.9
 21
28.1147125
 31
0.0
  0
LINE
  5
3A
330
1E
100
AcDbEntity
  8
0
100
AcDbLine
 10
9.0
 20
31.61471249999999
 30
0.0
 11
9.5
 21
29.8147125
 31
0.0
  0
LINE
  5
3B
330
1E
100
AcDbEntity
  8
0
100
AcDbLine
 10
13.1
 20
11.9423125
 30
0.0
 11
13.5
 21
11.70931249999999
 31
0.0
  0
LINE
  5
3C
330
1E
100
AcDbEntity
  8
0
100
AcDbLine
 10
13.1
 20
11.9423125
 30
0.0
 11
16.0
 21
10.84231249999999
 31
0.0
  0
LINE
  5
3D
330
1E
100
AcDbEntity
  8
0
100
AcDbLine
 10
13.5
 20
11.70931249999999
 30
0.0
 11
16.3
 21
10.6093125
 31
0.0
  0
LINE
  5
3E
330
1E
100
AcDbEntity
  8
0
100
AcDbLine
 10
13.1
 20
11.0763125
 30
0.0
 11
16.0
 21
9.9762625
 31
0.0
  0
LINE
  5
3F
330
1E
100
AcDbEntity
  8
0
100
AcDbLine
 10
13.1
 20
2.416012499999999
 30
0.0
 11
16.0
 21
1.3160125
 31
0.0
  0
LINE
  5
40
330
1E
100
AcDbEntity
  8
0
100
AcDbLine
 10
13.8
 20
1.8999825
 30
0.0
 11
16.5
 21
0.849987499999997
 31
0.0
  0
LINE
  5
41
330
1E
100
AcDbEntity
  8
0
100
AcDbLine
 10
13.1
 20
26.6647125
 30
0.0
 11
16.0
 21
25.56471249999999
 31
0.0
  0
LINE
  5
42
330
1E
100
AcDbEntity
  8
0
100
AcDbLine
 10
13.8
 20
26.1487125
 30
0.0
 11
16.5
 21
25.0987125
 31
0.0
  0
LINE
  5
43
330
1E
100
AcDbEntity
  8
0
100
AcDbLine
 10
11.69999999999999
 20
27.49871249999999
 30
0.0
 11
13.8
 21
26.1487125
 31
0.0
  0
LINE
  5
44
330
1E
100
AcDbEntity
  8
0
100
AcDbLine
 10
13.5
 20
101.5000125
 30
0.0
 11
18.1
 21
99.70001250000001
 31
0.0
  0
LINE
  5
45
330
1E
100
AcDbEntity
  8
0
100
AcDbLine
 10
16.0
 20
10.84231249999999
 30
0.0
 11
19.39999999999999
 21
10.14231249999999
 31
0.0
  0
LINE
  5
46
330
1E
100
AcDbEntity
  8
0
100
AcDbLine
 10
16.3
 20
10.6093125
 30
0.0
 11
19.5
 21
9.9592825
 31
0.0
  0
LINE
  5
47
330
1E
100
AcDbEntity
  8
0
100
AcDbLine
 10
16.0
 20
9.9762625
 30
0.0
 11
19.39999999999999
 21
9.276262499999999
 31
0.0
  0
LINE
  5
48
330
1E
100
AcDbEntity
  8
0
100
AcDbLine
 10
16.0
 20
1.3160125
 30
0.0
 11
19.39999999999999
 21
0.6160124999999971
 31
0.0
  0
LINE
  5
49
330
1E
100
AcDbEntity
  8
0
100
AcDbLine
 10
16.5
 20
0.849987499999997
 30
0.0
 11
19.69999999999999
 21
0.249987499999997
 31
0.0
  0
LINE
  5
4A
330
1E
100
AcDbEntity
  8
0
100
AcDbLine
 10
16.0
 20
25.56471249999999
 30
0.0
 11
19.39999999999999
 21
24.8647125
 31
0.0
  0
LINE
  5
4B
330
1E
100
AcDbEntity
  8
0
100
AcDbLine
 10
16.5
 20
25.0987125
 30
0.0
 11
19.69999999999999
 21
24.4987125
 31
0.0
  0
LINE
  5
4C
330
1E
100
AcDbEntity
  8
0
100
AcDbLine
 10
19.39999999999999
 20
10.14231249999999
 30
0.0
 11
23.0
 21
9.892292499999999
 31
0.0
  0
LINE
  5
4D
330
1E
100
AcDbEntity
  8
0
100
AcDbLine
 10
19.5
 20
9.9592825
 30
0.0
 11
23.0
 21
9.7092825
 31
0.0
  0
LINE
  5
4E
330
1E
100
AcDbEntity
  8
0
100
AcDbLine
 10
19.39999999999999
 20
9.276262499999999
 30
0.0
 11
23.0
 21
9.026262499999999
 31
0.0
  0
LINE
  5
4F
330
1E
100
AcDbEntity
  8
0
100
AcDbLine
 10
19.39999999999999
 20
0.6160124999999971
 30
0.0
 11
23.0
 21
0.366012499999997
 31
0.0
  0
LINE
  5
50
330
1E
100
AcDbEntity
  8
0
100
AcDbLine
 10
19.69999999999999
 20
0.249987499999997
 30
0.0
 11
23.0
 21
-0.0000125000000033
 31
0.0
  0
LINE
  5
51
330
1E
100
AcDbEntity
  8
0
100
AcDbLine
 10
19.69999999999999
 20
0.249987499999997
 30
0.0
 11
23.0
 21
-0.0000125000000033
 31
0.0
  0
LINE
  5
52
330
1E
100
AcDbEntity
  8
0
100
AcDbLine
 10
19.39999999999999
 20
24.8647125
 30
0.0
 11
23.0
 21
24.6147125
 31
0.0
  0
LINE
  5
53
330
1E
100
AcDbEntity
  8
0
100
AcDbLine
 10
19.69999999999999
 20
24.4987125
 30
0.0
 11
23.0
 21
24.2487125
 31
0.0
  0
LINE
  5
54
330
1E
100
AcDbEntity
  8
0
100
AcDbLine
 10
23.0
 20
-0.0000125000000033
 30
0.0
 11
26.3
 21
0.249987499999997
 31
0.0
  0
LINE
  5
55
330
1E
100
AcDbEntity
  8
0
100
AcDbLine
 10
23.0
 20
9.892292499999999
 30
0.0
 11
26.6
 21
10.14231249999999
 31
0.0
  0
LINE
  5
56
330
1E
100
AcDbEntity
  8
0
100
AcDbLine
 10
23.0
 20
9.7092825
 30
0.0
 11
26.5
 21
9.9592825
 31
0.0
  0
LINE
  5
57
330
1E
100
AcDbEntity
  8
0
100
AcDbLine
 10
23.0
 20
9.026262499999999
 30
0.0
 11
26.6
 21
9.276262499999999
 31
0.0
  0
LINE
  5
58
330
1E
100
AcDbEntity
  8
0
100
AcDbLine
 10
23.0
 20
0.366012499999997
 30
0.0
 11
26.6
 21
0.6160124999999971
 31
0.0
  0
LINE
  5
59
330
1E
100
AcDbEntity
  8
0
100
AcDbLine
 10
23.0
 20
-0.0000125000000033
 30
0.0
 11
26.3
 21
0.249987499999997
 31
0.0
  0
LINE
  5
5A
330
1E
100
AcDbEntity
  8
0
100
AcDbLine
 10
23.0
 20
24.6147125
 30
0.0
 11
26.6
 21
24.8647125
 31
0.0
  0
LINE
  5
5B
330
1E
100
AcDbEntity
  8
0
100
AcDbLine
 10
23.0
 20
24.2487125
 30
0.0
 11
26.3
 21
24.4987125
 31
0.0
  0
LINE
  5
5C
330
1E
100
AcDbEntity
  8
0
100
AcDbLine
 10
23.0
 20
96.30001249999999
 30
0.0
 11
24.1
 21
96.39511249999999
 31
0.0
  0
LINE
  5
5D
330
1E
100
AcDbEntity
  8
0
100
AcDbLine
 10
26.3
 20
0.249987499999997
 30
0.0
 11
29.5
 21
0.849987499999997
 31
0.0
  0
LINE
  5
5E
330
1E
100
AcDbEntity
  8
0
100
AcDbLine
 10
26.6
 20
0.6160124999999971
 30
0.0
 11
30.0
 21
1.3160125
 31
0.0
  0
LINE
  5
5F
330
1E
100
AcDbEntity
  8
0
100
AcDbLine
 10
26.5
 20
9.9592825
 30
0.0
 11
29.7
 21
10.6093125
 31
0.0
  0
LINE
  5
60
330
1E
100
AcDbEntity
  8
0
100
AcDbLine
 10
26.6
 20
9.276262499999999
 30
0.0
 11
30.0
 21
9.9762625
 31
0.0
  0
LINE
  5
61
330
1E
100
AcDbEntity
  8
0
100
AcDbLine
 10
26.6
 20
10.14231249999999
 30
0.0
 11
30.0
 21
10.84231249999999
 31
0.0
  0
LINE
  5
62
330
1E
100
AcDbEntity
  8
0
100
AcDbLine
 10
30.0
 20
10.84231249999999
 30
0.0
 11
32.9
 21
11.9423125
 31
0.0
  0
LINE
  5
63
330
1E
100
AcDbEntity
  8
0
100
AcDbLine
 10
29.7
 20
10.6093125
 30
0.0
 11
32.5
 21
11.70931249999999
 31
0.0
  0
LINE
  5
64
330
1E
100
AcDbEntity
  8
0
100
AcDbLine
 10
30.0
 20
9.9762625
 30
0.0
 11
32.9
 21
11.0763125
 31
0.0
  0
LINE
  5
65
330
1E
100
AcDbEntity
  8
0
100
AcDbLine
 10
30.0
 20
1.3160125
 30
0.0
 11
32.9
 21
2.416012499999999
 31
0.0
  0
LINE
  5
66
330
1E
100
AcDbEntity
  8
0
100
AcDbLine
 10
29.5
 20
0.849987499999997
 30
0.0
 11
32.2
 21
1.8999825
 31
0.0
  0
LINE
  5
67
330
1E
100
AcDbEntity
  8
0
100
AcDbLine
 10
32.2
 20
1.8999825
 30
0.0
 11
34.29999999999999
 21
3.2499825
 31
0.0
  0
LINE
  5
68
330
1E
100
AcDbEntity
  8
0
100
AcDbLine
 10
26.6
 20
24.8647125
 30
0.0
 11
30.0
 21
25.56471249999999
 31
0.0
  0
LINE
  5
69
330
1E
100
AcDbEntity
  8
0
100
AcDbLine
 10
26.3
 20
24.4987125
 30
0.0
 11
29.5
 21
25.0987125
 31
0.0
  0
LINE
  5
6A
330
1E
100
AcDbEntity
  8
0
100
AcDbLine
 10
30.0
 20
25.56471249999999
 30
0.0
 11
32.9
 21
26.6647125
 31
0.0
  0
LINE
  5
6B
330
1E
100
AcDbEntity
  8
0
100
AcDbLine
 10
29.5
 20
25.0987125
 30
0.0
 11
32.2
 21
26.1487125
 31
0.0
  0
LINE
  5
6C
330
1E
100
AcDbEntity
  8
0
100
AcDbLine
 10
32.9
 20
11.9423125
 30
0.0
 11
35.1
 21
13.3923125
 31
0.0
  0
LINE
  5
6D
330
1E
100
AcDbEntity
  8
0
100
AcDbLine
 10
32.5
 20
11.70931249999999
 30
0.0
 11
32.9
 21
11.9423125
 31
0.0
  0
LINE
  5
6E
330
1E
100
AcDbEntity
  8
0
100
AcDbLine
 10
33.8479999999999
 20
12.56713068181809
 30
0.0
 11
34.7
 21
13.1093125
 31
0.0
  0
LINE
  5
6F
330
1E
100
AcDbEntity
  8
0
100
AcDbLine
 10
32.9
 20
11.0763125
 30
0.0
 11
35.1
 21
12.5263125
 31
0.0
  0
LINE
  5
70
330
1E
100
AcDbEntity
  8
0
100
AcDbLine
 10
32.9
 20
2.416012499999999
 30
0.0
 11
35.1
 21
3.8660125
 31
0.0
  0
LINE
  5
71
330
1E
100
AcDbEntity
  8
0
100
AcDbLine
 10
34.29999999999999
 20
3.2499825
 30
0.0
 11
35.1
 21
3.8660125
 31
0.0
  0
LINE
  5
72
330
1E
100
AcDbEntity
  8
0
100
AcDbLine
 10
32.9
 20
26.6647125
 30
0.0
 11
35.1
 21
28.1147125
 31
0.0
  0
LINE
  5
73
330
1E
100
AcDbEntity
  8
0
100
AcDbLine
 10
35.1
 20
13.3923125
 30
0.0
 11
36.5
 21
15.0923125
 31
0.0
  0
LINE
  5
74
330
1E
100
AcDbEntity
  8
0
100
AcDbLine
 10
36.5
 20
15.0923125
 30
0.0
 11
37.0
 21
16.89231249999999
 31
0.0
  0
LINE
  5
75
330
1E
100
AcDbEntity
  8
0
100
AcDbLine
 10
34.7
 20
13.1093125
 30
0.0
 11
34.733871559633
 21
13.1510005733945
 31
0.0
  0
LINE
  5
76
330
1E
100
AcDbEntity
  8
0
100
AcDbLine
 10
35.1
 20
12.5263125
 30
0.0
 11
36.5
 21
14.2263125
 31
0.0
  0
LINE
  5
77
330
1E
100
AcDbEntity
  8
0
100
AcDbLine
 10
36.5
 20
14.2263125
 30
0.0
 11
37.0
 21
16.02631249999999
 31
0.0
  0
LINE
  5
78
330
1E
100
AcDbEntity
  8
0
100
AcDbLine
 10
35.1
 20
3.8660125
 30
0.0
 11
36.5
 21
5.5660125
 31
0.0
  0
LINE
  5
79
330
1E
100
AcDbEntity
  8
0
100
AcDbLine
 10
37.0
 20
26.41861249999999
 30
0.0
 11
37.0
 21
16.89231249999999
 31
0.0
  0
LINE
  5
7A
330
1E
100
AcDbEntity
  8
0
100
AcDbLine
 10
36.8797222222222
 20
16.4593125
 30
0.0
 11
37.0
 21
16.02631249999999
 31
0.0
  0
LINE
  5
7B
330
1E
100
AcDbEntity
  8
0
100
AcDbLine
 10
37.0
 20
16.02631249999999
 30
0.0
 11
37.0
 21
7.3660125
 31
0.0
  0
LINE
  5
7C
330
1E
100
AcDbEntity
  8
0
100
AcDbLine
 10
37.0
 20
16.89231249999999
 30
0.0
 11
37.0
 21
26.41861249999999
 31
0.0
  0
LINE
  5
7D
330
1E
100
AcDbEntity
  8
0
100
AcDbLine
 10
37.0
 20
7.3660125
 30
0.0
 11
37.0
 21
16.02631249999999
 31
0.0
  0
LINE
  5
7E
330
1E
100
AcDbEntity
  8
0
100
AcDbLine
 10
36.5
 20
5.5660125
 30
0.0
 11
37.0
 21
7.3660125
 31
0.0
  0
LINE
  5
7F
330
1E
100
AcDbEntity
  8
0
100
AcDbLine
 10
36.3307060606061
 20
29.6091412878788
 30
0.0
 11
36.5
 21
29.0166125
 31
0.0
  0
LINE
  5
80
330
1E
100
AcDbEntity
  8
0
100
AcDbLine
 10
36.5
 20
29.0166125
 30
0.0
 11
37.0
 21
26.41861249999999
 31
0.0
  0
LINE
  5
81
330
1E
100
AcDbEntity
  8
0
100
AcDbLine
 10
35.1
 20
28.1147125
 30
0.0
 11
36.5
 21
29.8147125
 31
0.0
  0
LINE
  5
82
330
1E
100
AcDbEntity
  8
0
100
AcDbLine
 10
34.29999999999999
 20
27.49871249999999
 30
0.0
 11
35.1
 21
28.1147125
 31
0.0
  0
LINE
  5
83
330
1E
100
AcDbEntity
  8
0
100
AcDbLine
 10
36.5
 20
29.8147125
 30
0.0
 11
37.0
 21
31.61471249999999
 31
0.0
  0
LINE
  5
84
330
1E
100
AcDbEntity
  8
0
100
AcDbLine
 10
32.2
 20
26.1487125
 30
0.0
 11
34.29999999999999
 21
27.49871249999999
 31
0.0
  0
LINE
  5
85
330
1E
100
AcDbEntity
  8
0
100
AcDbLine
 10
37.0
 20
31.61471249999999
 30
0.0
 11
37.1588
 21
102.4050125
 31
0.0
  0
LINE
  5
86
330
1E
100
AcDbEntity
  8
0
100
AcDbLine
 10
24.1
 20
96.39511249999999
 30
0.0
 11
25.0
 21
96.7755125
 31
0.0
  0
LINE
  5
87
330
1E
100
AcDbEntity
  8
0
100
AcDbLine
 10
25.0
 20
96.7755125
 30
0.0
 11
25.8
 21
97.4414125
 31
0.0
  0
LINE
  5
88
330
1E
100
AcDbEntity
  8
0
100
AcDbLine
 10
21.89999999999999
 20
96.39511249999999
 30
0.0
 11
23.0
 21
96.30001249999999
 31
0.0
  0
LINE
  5
89
330
1E
100
AcDbEntity
  8
0
100
AcDbLine
 10
25.8
 20
97.4414125
 30
0.0
 11
26.5
 21
98.2024125
 31
0.0
  0
LINE
  5
8A
330
1E
100
AcDbEntity
  8
0
100
AcDbLine
 10
26.5
 20
98.2024125
 30
0.0
 11
26.89999999999999
 21
99.05851250000001
 31
0.0
  0
LINE
  5
8B
330
1E
100
AcDbEntity
  8
0
100
AcDbLine
 10
21.0
 20
96.7755125
 30
0.0
 11
21.89999999999999
 21
96.39511249999999
 31
0.0
  0
LINE
  5
8C
330
1E
100
AcDbEntity
  8
0
100
AcDbLine
 10
20.2
 20
97.4414125
 30
0.0
 11
21.0
 21
96.7755125
 31
0.0
  0
LINE
  5
8E
330
1E
100
AcDbEntity
  8
0
100
AcDbLine
 10
26.9483080755657
 20
99.5640565107951
 30
0.0
 11
27.9
 21
99.70001250000001
 31
0.0
  0
LINE
  5
8F
330
1E
100
AcDbEntity
  8
0
100
AcDbLine
 10
27.9
 20
99.70001250000001
 30
0.0
 11
32.5
 21
101.5000125
 31
0.0
  0
LINE
  5
91
330
1E
100
AcDbEntity
  8
0
100
AcDbLine
 10
26.89999999999999
 20
99.05851250000001
 30
0.0
 11
27.0
 21
100.1050125
 31
0.0
  0
LINE
  5
92
330
1E
100
AcDbEntity
  8
0
100
AcDbLine
 10
19.5
 20
98.2024125
 30
0.0
 11
20.2
 21
97.4414125
 31
0.0
  0
LINE
  5
93
330
1E
100
AcDbEntity
  8
0
100
AcDbLine
 10
19.1
 20
99.05851250000001
 30
0.0
 11
19.5
 21
98.2024125
 31
0.0
  0
LINE
  5
96
330
1E
100
AcDbEntity
  8
0
100
AcDbLine
 10
26.9979003472503
 20
100.083039633974
 30
0.0
 11
27.8
 21
100.2000124999999
 31
0.0
  0
LINE
  5
97
330
1E
100
AcDbEntity
  8
0
100
AcDbLine
 10
27.0
 20
100.1050125
 30
0.0
 11
27.0
 21
117.9190124999999
 31
0.0
  0
LINE
  5
98
330
1E
100
AcDbEntity
  8
0
100
AcDbLine
 10
37.1539047939617
 20
100.222814112012
 30
0.0
 11
39.2
 21
101.8000124999999
 31
0.0
  0
LINE
  5
99
330
1E
100
AcDbEntity
  8
0
100
AcDbLine
 10
27.8
 20
100.2000124999999
 30
0.0
 11
32.2
 21
102.0000124999999
 31
0.0
  0
LINE
  5
9A
330
1E
100
AcDbEntity
  8
0
100
AcDbLine
 10
39.2
 20
101.8000124999999
 30
0.0
 11
42.9
 21
106.6000124999999
 31
0.0
  0
LINE
  5
9B
330
1E
100
AcDbEntity
  8
0
100
AcDbLine
 10
32.5
 20
101.5000125
 30
0.0
 11
36.4
 21
104.6000125
 31
0.0
  0
LINE
  5
9C
330
1E
100
AcDbEntity
  8
0
100
AcDbLine
 10
26.89999999999999
 20
101.1510125
 30
0.0
 11
27.0
 21
100.1050125
 31
0.0
  0
LINE
  5
9D
330
1E
100
AcDbEntity
  8
0
100
AcDbLine
 10
19.1
 20
101.1510125
 30
0.0
 11
19.5
 21
102.0070124999999
 31
0.0
  0
LINE
  5
9E
330
1E
100
AcDbEntity
  8
0
100
AcDbLine
 10
19.0
 20
100.1050125
 30
0.0
 11
19.1
 21
99.05851250000001
 31
0.0
  0
LINE
  5
9F
330
1E
100
AcDbEntity
  8
0
100
AcDbLine
 10
19.0
 20
100.1050125
 30
0.0
 11
19.0
 21
117.9190124999999
 31
0.0
  0
LINE
  5
A0
330
1E
100
AcDbEntity
  8
0
100
AcDbLine
 10
19.0
 20
100.1050125
 30
0.0
 11
19.1
 21
101.1510125
 31
0.0
  0
LINE
  5
A1
330
1E
100
AcDbEntity
  8
0
100
AcDbLine
 10
18.2
 20
100.2000124999999
 30
0.0
 11
19.00209965274969
 21
100.083039633974
 31
0.0
  0
LINE
  5
A2
330
1E
100
AcDbEntity
  8
0
100
AcDbLine
 10
18.1
 20
99.70001250000001
 30
0.0
 11
19.0516919244343
 21
99.5640565107951
 31
0.0
  0
LINE
  5
A5
330
1E
100
AcDbEntity
  8
0
100
AcDbLine
 10
8.84116
 20
102.4050125
 30
0.0
 11
9.0
 21
31.61471249999999
 31
0.0
  0
LINE
  5
A6
330
1E
100
AcDbEntity
  8
0
100
AcDbLine
 10
8.534419999999999
 20
104.2220125
 30
0.0
 11
8.84116
 21
102.4050125
 31
0.0
  0
LINE
  5
A7
330
1E
100
AcDbEntity
  8
0
100
AcDbLine
 10
32.2
 20
102.0000124999999
 30
0.0
 11
36.1
 21
104.9000125
 31
0.0
  0
LINE
  5
A8
330
1E
100
AcDbEntity
  8
0
100
AcDbLine
 10
26.5
 20
102.0070124999999
 30
0.0
 11
26.89999999999999
 21
101.1510125
 31
0.0
  0
LINE
  5
A9
330
1E
100
AcDbEntity
  8
0
100
AcDbLine
 10
25.0
 20
103.4340124999999
 30
0.0
 11
25.8
 21
102.7680125
 31
0.0
  0
LINE
  5
AB
330
1E
100
AcDbEntity
  8
0
100
AcDbLine
 10
37.1588
 20
102.4050125
 30
0.0
 11
37.4656
 21
104.2220125
 31
0.0
  0
LINE
  5
AC
330
1E
100
AcDbEntity
  8
0
100
AcDbLine
 10
25.8
 20
102.7680125
 30
0.0
 11
26.5
 21
102.0070124999999
 31
0.0
  0
LINE
  5
AD
330
1E
100
AcDbEntity
  8
0
100
AcDbLine
 10
37.4656
 20
104.2220125
 30
0.0
 11
38.7183
 21
107.3940125
 31
0.0
  0
LINE
  5
AE
330
1E
100
AcDbEntity
  8
0
100
AcDbLine
 10
36.4
 20
104.6000125
 30
0.0
 11
39.5
 21
108.5000125
 31
0.0
  0
LINE
  5
B0
330
1E
100
AcDbEntity
  8
0
100
AcDbLine
 10
23.0
 20
103.9100125
 30
0.0
 11
24.1
 21
103.8150125
 31
0.0
  0
LINE
  5
B1
330
1E
100
AcDbEntity
  8
0
100
AcDbLine
 10
24.1
 20
103.8150125
 30
0.0
 11
25.0
 21
103.4340124999999
 31
0.0
  0
LINE
  5
B2
330
1E
100
AcDbEntity
  8
0
100
AcDbLine
 10
21.89999999999999
 20
103.8150125
 30
0.0
 11
23.0
 21
103.9100125
 31
0.0
  0
LINE
  5
B3
330
1E
100
AcDbEntity
  8
0
100
AcDbLine
 10
21.0
 20
103.4340124999999
 30
0.0
 11
21.89999999999999
 21
103.8150125
 31
0.0
  0
LINE
  5
B4
330
1E
100
AcDbEntity
  8
0
100
AcDbLine
 10
20.2
 20
102.7680125
 30
0.0
 11
21.0
 21
103.4340124999999
 31
0.0
  0
LINE
  5
B5
330
1E
100
AcDbEntity
  8
0
100
AcDbLine
 10
19.5
 20
102.0070124999999
 30
0.0
 11
20.2
 21
102.7680125
 31
0.0
  0
LINE
  5
B6
330
1E
100
AcDbEntity
  8
0
100
AcDbLine
 10
13.8
 20
102.0000124999999
 30
0.0
 11
18.2
 21
100.2000124999999
 31
0.0
  0
LINE
  5
B7
330
1E
100
AcDbEntity
  8
0
100
AcDbLine
 10
36.1
 20
104.9000125
 30
0.0
 11
39.0
 21
108.8000124999999
 31
0.0
  0
LINE
  5
B8
330
1E
100
AcDbEntity
  8
0
100
AcDbLine
 10
27.0
 20
107.888901388889
 30
0.0
 11
28.5
 21
108.5000125
 31
0.0
  0
LINE
  5
B9
330
1E
100
AcDbEntity
  8
0
100
AcDbLine
 10
42.9
 20
106.6000124999999
 30
0.0
 11
45.2
 21
112.1000125
 31
0.0
  0
LINE
  5
BA
330
1E
100
AcDbEntity
  8
0
100
AcDbLine
 10
38.7183
 20
107.3940125
 30
0.0
 11
39.5
 21
108.5000125
 31
0.0
  0
LINE
  5
BB
330
1E
100
AcDbEntity
  8
0
100
AcDbLine
 10
39.5
 20
108.5000125
 30
0.0
 11
41.29999999999999
 21
113.1000125
 31
0.0
  0
LINE
  5
BC
330
1E
100
AcDbEntity
  8
0
100
AcDbLine
 10
39.5
 20
108.5000125
 30
0.0
 11
41.29999999999999
 21
113.1000125
 31
0.0
  0
LINE
  5
BD
330
1E
100
AcDbEntity
  8
0
100
AcDbLine
 10
28.5
 20
108.5000125
 30
0.0
 11
30.8
 21
110.2000124999999
 31
0.0
  0
LINE
  5
BE
330
1E
100
AcDbEntity
  8
0
100
AcDbLine
 10
45.2
 20
112.1000125
 30
0.0
 11
46.0
 21
118.0000125
 31
0.0
  0
LINE
  5
BF
330
1E
100
AcDbEntity
  8
0
100
AcDbLine
 10
39.0
 20
108.8000124999999
 30
0.0
 11
40.8
 21
113.2000125
 31
0.0
  0
LINE
  5
C0
330
1E
100
AcDbEntity
  8
0
100
AcDbLine
 10
30.8
 20
110.2000124999999
 30
0.0
 11
32.5
 21
112.5000124999999
 31
0.0
  0
LINE
  5
C1
330
1E
100
AcDbEntity
  8
0
100
AcDbLine
 10
17.5
 20
108.5000125
 30
0.0
 11
19.0
 21
107.888901388889
 31
0.0
  0
LINE
  5
C2
330
1E
100
AcDbEntity
  8
0
100
AcDbLine
 10
15.2
 20
110.2000124999999
 30
0.0
 11
17.5
 21
108.5000125
 31
0.0
  0
LINE
  5
C4
330
1E
100
AcDbEntity
  8
0
100
AcDbLine
 10
7.281689999999999
 20
107.3940125
 30
0.0
 11
8.534419999999999
 21
104.2220125
 31
0.0
  0
LINE
  5
C5
330
1E
100
AcDbEntity
  8
0
100
AcDbLine
 10
9.9
 20
104.9000125
 30
0.0
 11
13.8
 21
102.0000124999999
 31
0.0
  0
LINE
  5
C6
330
1E
100
AcDbEntity
  8
0
100
AcDbLine
 10
7.0
 20
108.8000124999999
 30
0.0
 11
9.9
 21
104.9000125
 31
0.0
  0
LINE
  5
C7
330
1E
100
AcDbEntity
  8
0
100
AcDbLine
 10
9.599999999999999
 20
104.6000125
 30
0.0
 11
13.5
 21
101.5000125
 31
0.0
  0
LINE
  5
C9
330
1E
100
AcDbEntity
  8
0
100
AcDbLine
 10
6.5
 20
108.5000125
 30
0.0
 11
9.599999999999999
 21
104.6000125
 31
0.0
  0
LINE
  5
CA
330
1E
100
AcDbEntity
  8
0
100
AcDbLine
 10
6.5
 20
108.5000125
 30
0.0
 11
7.281689999999999
 21
107.3940125
 31
0.0
  0
LINE
  5
CB
330
1E
100
AcDbEntity
  8
0
100
AcDbLine
 10
6.799999999999999
 20
101.8000124999999
 30
0.0
 11
8.84605637192004
 21
100.2228440466449
 31
0.0
  0
LINE
  5
CC
330
1E
100
AcDbEntity
  8
0
100
AcDbLine
 10
3.1
 20
106.6000124999999
 30
0.0
 11
6.799999999999999
 21
101.8000124999999
 31
0.0
  0
LINE
  5
CD
330
1E
100
AcDbEntity
  8
0
100
AcDbLine
 10
0.8
 20
123.9000125
 30
0.0
 11
3.1
 21
129.4000124999999
 31
0.0
  0
LINE
  5
CE
330
1E
100
AcDbEntity
  8
0
100
AcDbLine
 10
0.800000000000001
 20
123.9000125
 30
0.0
 11
3.1
 21
129.4000124999999
 31
0.0
  0
LINE
  5
CF
330
1E
100
AcDbEntity
  8
0
100
AcDbLine
 10
3.1
 20
129.4000124999999
 30
0.0
 11
6.799999999999999
 21
134.2000125
 31
0.0
  0
LINE
  5
D0
330
1E
100
AcDbEntity
  8
0
100
AcDbLine
 10
4.0
 20
118.0000125
 30
0.0
 11
4.7
 21
113.1000125
 31
0.0
  0
LINE
  5
D1
330
1E
100
AcDbEntity
  8
0
100
AcDbLine
 10
4.0
 20
118.0000125
 30
0.0
 11
4.7
 21
122.9000124999999
 31
0.0
  0
LINE
  5
D2
330
1E
100
AcDbEntity
  8
0
100
AcDbLine
 10
41.29999999999999
 20
113.1000125
 30
0.0
 11
42.0
 21
118.0000125
 31
0.0
  0
LINE
  5
D3
330
1E
100
AcDbEntity
  8
0
100
AcDbLine
 10
32.5
 20
112.5000124999999
 30
0.0
 11
33.6
 21
115.2000125
 31
0.0
  0
LINE
  5
D4
330
1E
100
AcDbEntity
  8
0
100
AcDbLine
 10
13.5
 20
112.5000124999999
 30
0.0
 11
15.2
 21
110.2000124999999
 31
0.0
  0
LINE
  5
D5
330
1E
100
AcDbEntity
  8
0
100
AcDbLine
 10
4.0
 20
118.0000125
 30
0.0
 11
4.7
 21
122.9000124999999
 31
0.0
  0
LINE
  5
D6
330
1E
100
AcDbEntity
  8
0
100
AcDbLine
 10
4.7
 20
122.9000124999999
 30
0.0
 11
6.5
 21
127.5000125
 31
0.0
  0
LINE
  5
D7
330
1E
100
AcDbEntity
  8
0
100
AcDbLine
 10
4.5
 20
118.0000125
 30
0.0
 11
5.2
 21
113.2000125
 31
0.0
  0
LINE
  5
D8
330
1E
100
AcDbEntity
  8
0
100
AcDbLine
 10
4.5
 20
118.0000125
 30
0.0
 11
5.2
 21
122.8000124999999
 31
0.0
  0
LINE
  5
D9
330
1E
100
AcDbEntity
  8
0
100
AcDbLine
 10
40.8
 20
113.2000125
 30
0.0
 11
41.5
 21
118.0000125
 31
0.0
  0
LINE
  5
DA
330
1E
100
AcDbEntity
  8
0
100
AcDbLine
 10
41.29999999999999
 20
113.1000125
 30
0.0
 11
42.0
 21
118.0000125
 31
0.0
  0
LINE
  5
DB
330
1E
100
AcDbEntity
  8
0
100
AcDbLine
 10
5.2
 20
122.8000124999999
 30
0.0
 11
7.0
 21
127.2000124999999
 31
0.0
  0
LINE
  5
DC
330
1E
100
AcDbEntity
  8
0
100
AcDbLine
 10
33.6
 20
115.2000125
 30
0.0
 11
34.0
 21
118.0000125
 31
0.0
  0
LINE
  5
DD
330
1E
100
AcDbEntity
  8
0
100
AcDbLine
 10
26.89999999999999
 20
119.0410124999999
 30
0.0
 11
27.0
 21
117.9190124999999
 31
0.0
  0
LINE
  5
DE
330
1E
100
AcDbEntity
  8
0
100
AcDbLine
 10
27.0
 20
117.9190124999999
 30
0.0
 11
27.0
 21
100.1050125
 31
0.0
  0
LINE
  5
DF
330
1E
100
AcDbEntity
  8
0
100
AcDbLine
 10
25.8
 20
120.7750125
 30
0.0
 11
26.5
 21
119.9570125
 31
0.0
  0
LINE
  5
E0
330
1E
100
AcDbEntity
  8
0
100
AcDbLine
 10
26.5
 20
119.9570125
 30
0.0
 11
26.89999999999999
 21
119.0410124999999
 31
0.0
  0
LINE
  5
E1
330
1E
100
AcDbEntity
  8
0
100
AcDbLine
 10
24.1
 20
121.8970125
 30
0.0
 11
25.0
 21
121.5020125
 31
0.0
  0
LINE
  5
E2
330
1E
100
AcDbEntity
  8
0
100
AcDbLine
 10
25.0
 20
121.5020125
 30
0.0
 11
25.8
 21
120.7750125
 31
0.0
  0
LINE
  5
E3
330
1E
100
AcDbEntity
  8
0
100
AcDbLine
 10
23.0
 20
121.9470124999999
 30
0.0
 11
24.1
 21
121.8970125
 31
0.0
  0
LINE
  5
E4
330
1E
100
AcDbEntity
  8
0
100
AcDbLine
 10
21.89999999999999
 20
121.8970125
 30
0.0
 11
23.0
 21
121.9470124999999
 31
0.0
  0
LINE
  5
E5
330
1E
100
AcDbEntity
  8
0
100
AcDbLine
 10
21.0
 20
121.5020125
 30
0.0
 11
21.89999999999999
 21
121.8970125
 31
0.0
  0
LINE
  5
E6
330
1E
100
AcDbEntity
  8
0
100
AcDbLine
 10
20.2
 20
120.7750125
 30
0.0
 11
21.0
 21
121.5020125
 31
0.0
  0
LINE
  5
E7
330
1E
100
AcDbEntity
  8
0
100
AcDbLine
 10
19.5
 20
119.9570125
 30
0.0
 11
20.2
 21
120.7750125
 31
0.0
  0
LINE
  5
E8
330
1E
100
AcDbEntity
  8
0
100
AcDbLine
 10
19.1
 20
119.0410124999999
 30
0.0
 11
19.5
 21
119.9570125
 31
0.0
  0
LINE
  5
E9
330
1E
100
AcDbEntity
  8
0
100
AcDbLine
 10
19.0
 20
117.9190124999999
 30
0.0
 11
19.0
 21
100.1050125
 31
0.0
  0
LINE
  5
EA
330
1E
100
AcDbEntity
  8
0
100
AcDbLine
 10
19.0
 20
117.9190124999999
 30
0.0
 11
19.1
 21
119.0410124999999
 31
0.0
  0
LINE
  5
EB
330
1E
100
AcDbEntity
  8
0
100
AcDbLine
 10
13.5
 20
123.5000125
 30
0.0
 11
15.2
 21
125.8000124999999
 31
0.0
  0
LINE
  5
EC
330
1E
100
AcDbEntity
  8
0
100
AcDbLine
 10
12.4
 20
120.8000124999999
 30
0.0
 11
13.5
 21
123.5000125
 31
0.0
  0
LINE
  5
ED
330
1E
100
AcDbEntity
  8
0
100
AcDbLine
 10
17.5
 20
127.5000125
 30
0.0
 11
20.2
 21
128.6000124999999
 31
0.0
  0
LINE
  5
EE
330
1E
100
AcDbEntity
  8
0
100
AcDbLine
 10
15.2
 20
125.8000124999999
 30
0.0
 11
17.5
 21
127.5000125
 31
0.0
  0
LINE
  5
EF
330
1E
100
AcDbEntity
  8
0
100
AcDbLine
 10
20.2
 20
128.6000124999999
 30
0.0
 11
23.0
 21
129.0000124999999
 31
0.0
  0
LINE
  5
F0
330
1E
100
AcDbEntity
  8
0
100
AcDbLine
 10
23.0
 20
129.0000124999999
 30
0.0
 11
25.8
 21
128.6000124999999
 31
0.0
  0
LINE
  5
F1
330
1E
100
AcDbEntity
  8
0
100
AcDbLine
 10
25.8
 20
128.6000124999999
 30
0.0
 11
28.5
 21
127.5000125
 31
0.0
  0
LINE
  5
F2
330
1E
100
AcDbEntity
  8
0
100
AcDbLine
 10
28.5
 20
127.5000125
 30
0.0
 11
30.8
 21
125.8000124999999
 31
0.0
  0
LINE
  5
F3
330
1E
100
AcDbEntity
  8
0
100
AcDbLine
 10
30.8
 20
125.8000124999999
 30
0.0
 11
32.5
 21
123.5000125
 31
0.0
  0
LINE
  5
F4
330
1E
100
AcDbEntity
  8
0
100
AcDbLine
 10
32.5
 20
123.5000125
 30
0.0
 11
33.6
 21
120.8000124999999
 31
0.0
  0
LINE
  5
F5
330
1E
100
AcDbEntity
  8
0
100
AcDbLine
 10
39.0
 20
127.2000124999999
 30
0.0
 11
40.8
 21
122.8000124999999
 31
0.0
  0
LINE
  5
F6
330
1E
100
AcDbEntity
  8
0
100
AcDbLine
 10
40.8
 20
122.8000124999999
 30
0.0
 11
41.5
 21
118.0000125
 31
0.0
  0
LINE
  5
F7
330
1E
100
AcDbEntity
  8
0
100
AcDbLine
 10
36.1
 20
131.1000124999999
 30
0.0
 11
39.0
 21
127.2000124999999
 31
0.0
  0
LINE
  5
F8
330
1E
100
AcDbEntity
  8
0
100
AcDbLine
 10
39.5
 20
127.5000125
 30
0.0
 11
41.29999999999999
 21
122.9000124999999
 31
0.0
  0
LINE
  5
F9
330
1E
100
AcDbEntity
  8
0
100
AcDbLine
 10
42.9
 20
129.4000124999999
 30
0.0
 11
45.2
 21
123.9000125
 31
0.0
  0
LINE
  5
FA
330
1E
100
AcDbEntity
  8
0
100
AcDbLine
 10
45.2
 20
123.9000125
 30
0.0
 11
46.0
 21
118.0000125
 31
0.0
  0
LINE
  5
FB
330
1E
100
AcDbEntity
  8
0
100
AcDbLine
 10
41.29999999999999
 20
122.9000124999999
 30
0.0
 11
42.0
 21
118.0000125
 31
0.0
  0
LINE
  5
FC
330
1E
100
AcDbEntity
  8
0
100
AcDbLine
 10
41.29999999999999
 20
122.9000124999999
 30
0.0
 11
42.0
 21
118.0000125
 31
0.0
  0
LINE
  5
FD
330
1E
100
AcDbEntity
  8
0
100
AcDbLine
 10
33.6
 20
120.8000124999999
 30
0.0
 11
34.0
 21
118.0000125
 31
0.0
  0
LINE
  5
FE
330
1E
100
AcDbEntity
  8
0
100
AcDbLine
 10
12.4
 20
115.2000125
 30
0.0
 11
13.5
 21
112.5000124999999
 31
0.0
  0
LINE
  5
FF
330
1E
100
AcDbEntity
  8
0
100
AcDbLine
 10
12.0
 20
118.0000125
 30
0.0
 11
12.4
 21
115.2000125
 31
0.0
  0
LINE
  5
100
330
1E
100
AcDbEntity
  8
0
100
AcDbLine
 10
12.0
 20
118.0000125
 30
0.0
 11
12.4
 21
120.8000124999999
 31
0.0
  0
LINE
  5
101
330
1E
100
AcDbEntity
  8
0
100
AcDbLine
 10
36.4
 20
131.4000124999999
 30
0.0
 11
39.5
 21
127.5000125
 31
0.0
  0
LINE
  5
102
330
1E
100
AcDbEntity
  8
0
100
AcDbLine
 10
9.9
 20
131.1000124999999
 30
0.0
 11
13.8
 21
134.0000124999999
 31
0.0
  0
LINE
  5
103
330
1E
100
AcDbEntity
  8
0
100
AcDbLine
 10
7.0
 20
127.2000124999999
 30
0.0
 11
9.9
 21
131.1000124999999
 31
0.0
  0
LINE
  5
104
330
1E
100
AcDbEntity
  8
0
100
AcDbLine
 10
32.2
 20
134.0000124999999
 30
0.0
 11
36.1
 21
131.1000124999999
 31
0.0
  0
LINE
  5
105
330
1E
100
AcDbEntity
  8
0
100
AcDbLine
 10
39.2
 20
134.2000125
 30
0.0
 11
42.9
 21
129.4000124999999
 31
0.0
  0
LINE
  5
106
330
1E
100
AcDbEntity
  8
0
100
AcDbLine
 10
32.5
 20
134.5000125
 30
0.0
 11
36.4
 21
131.4000124999999
 31
0.0
  0
LINE
  5
107
330
1E
100
AcDbEntity
  8
0
100
AcDbLine
 10
13.8
 20
134.0000124999999
 30
0.0
 11
18.2
 21
135.8000125
 31
0.0
  0
LINE
  5
108
330
1E
100
AcDbEntity
  8
0
100
AcDbLine
 10
27.8
 20
135.8000125
 30
0.0
 11
32.2
 21
134.0000124999999
 31
0.0
  0
LINE
  5
109
330
1E
100
AcDbEntity
  8
0
100
AcDbLine
 10
23.0
 20
136.5000124999999
 30
0.0
 11
27.8
 21
135.8000125
 31
0.0
  0
LINE
  5
10A
330
1E
100
AcDbEntity
  8
0
100
AcDbLine
 10
23.0
 20
137.0000125
 30
0.0
 11
27.9
 21
136.3000125
 31
0.0
  0
LINE
  5
10B
330
1E
100
AcDbEntity
  8
0
100
AcDbLine
 10
27.9
 20
136.3000125
 30
0.0
 11
32.5
 21
134.5000125
 31
0.0
  0
LINE
  5
10C
330
1E
100
AcDbEntity
  8
0
100
AcDbLine
 10
28.9
 20
140.2000125
 30
0.0
 11
34.39999999999999
 21
137.9000125
 31
0.0
  0
LINE
  5
10D
330
1E
100
AcDbEntity
  8
0
100
AcDbLine
 10
34.39999999999999
 20
137.9000125
 30
0.0
 11
39.2
 21
134.2000125
 31
0.0
  0
LINE
  5
10E
330
1E
100
AcDbEntity
  8
0
100
AcDbLine
 10
18.2
 20
135.8000125
 30
0.0
 11
23.0
 21
136.5000124999999
 31
0.0
  0
LINE
  5
10F
330
1E
100
AcDbEntity
  8
0
100
AcDbLine
 10
18.1
 20
136.3000125
 30
0.0
 11
23.0
 21
137.0000125
 31
0.0
  0
LINE
  5
110
330
1E
100
AcDbEntity
  8
0
100
AcDbLine
 10
13.5
 20
134.5000125
 30
0.0
 11
18.1
 21
136.3000125
 31
0.0
  0
LINE
  5
111
330
1E
100
AcDbEntity
  8
0
100
AcDbLine
 10
11.59999999999999
 20
137.9000125
 30
0.0
 11
17.1
 21
140.2000125
 31
0.0
  0
LINE
  5
120
330
1E
100
AcDbEntity
  8
0
100
AcDbLine
 10
20.4963
 20
142.8180125
 30
0.0
 11
20.5084421252426
 21
136.644075660749
 31
0.0
  0
LINE
  5
122
330
1E
100
AcDbEntity
  8
0
100
AcDbLine
 10
20.4956
 20
144.0270125
 30
0.0
 11
20.4956
 21
143.5890125
 31
0.0
  0
LINE
  5
123
330
1E
100
AcDbEntity
  8
0
100
AcDbLine
 10
20.4956
 20
144.0270125
 30
0.0
 11
20.4957
 21
144.5030125
 31
0.0
  0
LINE
  5
124
330
1E
100
AcDbEntity
  8
0
100
AcDbLine
 10
20.49599999999999
 20
145.0000125
 30
0.0
 11
20.508
 21
160.0000125
 31
0.0
  0
LINE
  5
125
330
1E
100
AcDbEntity
  8
0
100
AcDbLine
 10
20.4957
 20
144.5030125
 30
0.0
 11
20.49599999999999
 21
145.0000125
 31
0.0
  0
LINE
  5
126
330
1E
100
AcDbEntity
  8
0
100
AcDbLine
 10
20.4956
 20
143.5890125
 30
0.0
 11
20.4958
 21
143.2070124999999
 31
0.0
  0
LINE
  5
127
330
1E
100
AcDbEntity
  8
0
100
AcDbLine
 10
20.4956
 20
143.5890125
 30
0.0
 11
20.4956
 21
144.0270125
 31
0.0
  0
LINE
  5
128
330
1E
100
AcDbEntity
  8
0
100
AcDbLine
 10
20.4958
 20
143.2070124999999
 30
0.0
 11
20.4963
 21
142.8350125
 31
0.0
  0
LINE
  5
129
330
1E
100
AcDbEntity
  8
0
100
AcDbLine
 10
20.508
 20
160.0000125
 30
0.0
 11
20.69669999999999
 21
160.0000125
 31
0.0
  0
LINE
  5
12A
330
1E
100
AcDbEntity
  8
0
100
AcDbLine
 10
21.243
 20
160.0000125
 30
0.0
 11
22.0549
 21
159.9990124999999
 31
0.0
  0
LINE
  5
12B
330
1E
100
AcDbEntity
  8
0
100
AcDbLine
 10
20.69669999999999
 20
160.0000125
 30
0.0
 11
21.2374
 21
160.0000125
 31
0.0
  0
LINE
  5
12C
330
1E
100
AcDbEntity
  8
0
100
AcDbLine
 10
21.2374
 20
160.0000125
 30
0.0
 11
22.0475
 21
159.9990124999999
 31
0.0
  0
LINE
  5
12D
330
1E
100
AcDbEntity
  8
0
100
AcDbLine
 10
23.004
 20
159.9980124999999
 30
0.0
 11
23.961
 21
159.9970125
 31
0.0
  0
LINE
  5
12E
330
1E
100
AcDbEntity
  8
0
100
AcDbLine
 10
23.961
 20
159.9970125
 30
0.0
 11
24.77289999999999
 21
159.9970125
 31
0.0
  0
LINE
  5
12F
330
1E
100
AcDbEntity
  8
0
100
AcDbLine
 10
25.3162
 20
159.9960125
 30
0.0
 11
25.508
 21
159.9960125
 31
0.0
  0
LINE
  5
130
330
1E
100
AcDbEntity
  8
0
100
AcDbLine
 10
24.7785
 20
159.9970125
 30
0.0
 11
25.31919999999999
 21
159.9960125
 31
0.0
  0
LINE
  5
131
330
1E
100
AcDbEntity
  8
0
100
AcDbLine
 10
24.77289999999999
 20
159.9970125
 30
0.0
 11
25.3162
 21
159.9960125
 31
0.0
  0
LINE
  5
132
330
1E
100
AcDbEntity
  8
0
100
AcDbLine
 10
23.0119
 20
159.9980124999999
 30
0.0
 11
23.9684
 21
159.9970125
 31
0.0
  0
LINE
  5
133
330
1E
100
AcDbEntity
  8
0
100
AcDbLine
 10
22.0549
 20
159.9990124999999
 30
0.0
 11
23.0119
 21
159.9980124999999
 31
0.0
  0
LINE
  5
134
330
1E
100
AcDbEntity
  8
0
100
AcDbLine
 10
22.0475
 20
159.9990124999999
 30
0.0
 11
23.004
 21
159.9980124999999
 31
0.0
  0
LINE
  5
135
330
1E
100
AcDbEntity
  8
0
100
AcDbLine
 10
22.0475
 20
159.9990124999999
 30
0.0
 11
24.77289999999999
 21
159.9970125
 31
0.0
  0
LINE
  5
136
330
1E
100
AcDbEntity
  8
0
100
AcDbLine
 10
25.4956
 20
144.0230125
 30
0.0
 11
25.4956
 21
143.5850124999999
 31
0.0
  0
LINE
  5
137
330
1E
100
AcDbEntity
  8
0
100
AcDbLine
 10
25.4956
 20
144.0230125
 30
0.0
 11
25.4957
 21
144.4990124999999
 31
0.0
  0
LINE
  5
138
330
1E
100
AcDbEntity
  8
0
100
AcDbLine
 10
25.49599999999999
 20
144.9960125
 30
0.0
 11
25.508
 21
159.9960125
 31
0.0
  0
LINE
  5
139
330
1E
100
AcDbEntity
  8
0
100
AcDbLine
 10
25.4957
 20
144.4990124999999
 30
0.0
 11
25.49599999999999
 21
144.9960125
 31
0.0
  0
LINE
  5
13A
330
1E
100
AcDbEntity
  8
0
100
AcDbLine
 10
25.4956
 20
143.5850124999999
 30
0.0
 11
25.4958
 21
143.2030124999999
 31
0.0
  0
LINE
  5
13B
330
1E
100
AcDbEntity
  8
0
100
AcDbLine
 10
25.4956
 20
143.5850124999999
 30
0.0
 11
25.4956
 21
144.0230125
 31
0.0
  0
LINE
  5
13C
330
1E
100
AcDbEntity
  8
0
100
AcDbLine
 10
25.4958
 20
143.2030124999999
 30
0.0
 11
25.4963
 21
142.8310125
 31
0.0
  0
LINE
  5
13E
330
1E
100
AcDbEntity
  8
0
100
AcDbLine
 10
25.5005343597438
 20
140.6609569935939
 30
0.0
 11
28.9
 21
140.2000125
 31
0.0
  0
LINE
  5
13F
330
1E
100
AcDbEntity
  8
0
100
AcDbLine
 10
25.4963
 20
142.8140124999999
 30
0.0
 11
25.5084390013559
 21
136.6416640712349
 31
0.0
  0
LINE
  5
140
330
1E
100
AcDbEntity
  8
0
100
AcDbLine
 10
17.1
 20
140.2000125
 30
0.0
 11
20.5005419394283
 21
140.661102932465
 31
0.0
  0
LINE
  5
141
330
1E
100
AcDbEntity
  8
0
100
AcDbLine
 10
6.799999999999999
 20
134.2000125
 30
0.0
 11
11.59999999999999
 21
137.9000125
 31
0.0
  0
LINE
  5
142
330
1E
100
AcDbEntity
  8
0
100
AcDbLine
 10
9.599999999999999
 20
131.4000124999999
 30
0.0
 11
13.5
 21
134.5000125
 31
0.0
  0
LINE
  5
143
330
1E
100
AcDbEntity
  8
0
100
AcDbLine
 10
6.5
 20
127.5000125
 30
0.0
 11
9.599999999999999
 21
131.4000124999999
 31
0.0
  0
LINE
  5
144
330
1E
100
AcDbEntity
  8
0
100
AcDbLine
 10
5.2
 20
113.2000125
 30
0.0
 11
7.0
 21
108.8000124999999
 31
0.0
  0
LINE
  5
145
330
1E
100
AcDbEntity
  8
0
100
AcDbLine
 10
4.7
 20
113.1000125
 30
0.0
 11
6.5
 21
108.5000125
 31
0.0
  0
LINE
  5
146
330
1E
100
AcDbEntity
  8
0
100
AcDbLine
 10
4.7
 20
113.1000125
 30
0.0
 11
6.5
 21
108.5000125
 31
0.0
  0
LINE
  5
147
330
1E
100
AcDbEntity
  8
0
100
AcDbLine
 10
4.0
 20
118.0000125
 30
0.0
 11
4.7
 21
113.1000125
 31
0.0
  0
LINE
  5
148
330
1E
100
AcDbEntity
  8
0
100
AcDbLine
 10
0.8
 20
112.1000125
 30
0.0
 11
3.1
 21
106.6000124999999
 31
0.0
  0
LINE
  5
149
330
1E
100
AcDbEntity
  8
0
100
AcDbLine
 10
0.0000000000000006
 20
118.0000125
 30
0.0
 11
0.800000000000001
 21
112.1000125
 31
0.0
  0
LINE
  5
14A
330
1E
100
AcDbEntity
  8
0
100
AcDbLine
 10
0.0000000000000006
 20
118.0000125
 30
0.0
 11
0.800000000000001
 21
123.9000125
 31
0.0
  0
ENDSEC
  0
SECTION
  2
OBJECTS
  0
DICTIONARY
  5
C
330
0
100
AcDbDictionary
  3
ACAD_GROUP
350
D
  3
ACAD_LAYOUT
350
19
  3
ACAD_MLINESTYLE
350
16
  3
ACAD_PLOTSETTINGS
350
18
  3
ACAD_PLOTSTYLENAME
350
E
  3
ACDBHEADERROUNDTRIPXREC
350
152
  3
ACDBVARIABLEDICTIONARY
350
14F
  0
DICTIONARY
  5
174
330
1E
100
AcDbDictionary
280
     1
  3
ACAD_LAYOUTSELFREF
360
175
  0
DICTIONARY
  5
172
330
1A
100
AcDbDictionary
280
     1
  3
ACAD_LAYOUTSELFREF
360
173
  0
DICTIONARY
  5
D
102
{ACAD_REACTORS
330
C
102
}
330
C
100
AcDbDictionary
  0
DICTIONARY
  5
19
102
{ACAD_REACTORS
330
C
102
}
330
C
100
AcDbDictionary
  0
DICTIONARY
  5
16
102
{ACAD_REACTORS
330
C
102
}
330
C
100
AcDbDictionary
  3
STANDARD
350
17
  0
DICTIONARY
  5
18
102
{ACAD_REACTORS
330
C
102
}
330
C
100
AcDbDictionary
  0
ACDBDICTIONARYWDFLT
  5
E
102
{ACAD_REACTORS
330
C
102
}
330
C
100
AcDbDictionary
281
     1
  3
Normal
350
F
100
AcDbDictionaryWithDefault
340
F
  0
DICTIONARY
  5
152
102
{ACAD_REACTORS
330
C
102
}
330
C
100
AcDbDictionary
  3
CEPSNTYPE
350
15C
  3
FINGERPRINTGUID
350
15D
  3
HYPERLINKBASE
350
155
  3
INSUNITS
350
15B
  3
LAYOUTDICT
350
157
  3
LWETCUNION
350
15A
  3
PLOTSETDICT
350
158
  3
PLOTSTYLNAMDICT
350
159
  3
PSVPSCALE
350
15F
  3
PUCSBASE
350
162
  3
PUCSORGBACK
350
168
  3
PUCSORGBOTTOM
350
164
  3
PUCSORGFRONT
350
167
  3
PUCSORGLEFT
350
165
  3
PUCSORGRIGHT
350
166
  3
PUCSORGTOP
350
163
  3
PUCSORTHOREF
350
160
  3
PUCSORTHOVIEW
350
161
  3
STYLESHEET
350
156
  3
TSTACKALIGN
350
153
  3
TSTACKSIZE
350
154
  3
UCSBASE
350
16B
  3
UCSORGBACK
350
171
  3
UCSORGBOTTOM
350
16D
  3
UCSORGFRONT
350
170
  3
UCSORGLEFT
350
16E
  3
UCSORGRIGHT
350
16F
  3
UCSORGTOP
350
16C
  3
UCSORTHOREF
350
169
  3
UCSORTHOVIEW
350
16A
  3
VERSIONGUID
350
15E
  0
DICTIONARY
  5
14F
102
{ACAD_REACTORS
330
C
102
}
330
C
100
AcDbDictionary
  3
DIMASSOC
350
150
  0
XRECORD
  5
175
102
{ACAD_REACTORS
330
174
102
}
330
174
100
AcDbXrecord
340
1E
  0
XRECORD
  5
173
102
{ACAD_REACTORS
330
172
102
}
330
172
100
AcDbXrecord
340
1A
  0
MLINESTYLE
  5
17
102
{ACAD_REACTORS
330
16
102
}
330
16
100
AcDbMlineStyle
  2
STANDARD
 70
     0
  3

 62
   256
 51
90.0
 52
90.0
 71
     2
 49
0.5
 62
   256
  6
BYLAYER
 49
-0.5
 62
   256
  6
BYLAYER
  0
ACDBPLACEHOLDER
  5
F
102
{ACAD_REACTORS
330
E
102
}
330
E
100
AcDbPlaceHolder
280
     0
  0
XRECORD
  5
15C
102
{ACAD_REACTORS
330
152
102
}
330
152
100
AcDbXrecord
 90
        0
  0
XRECORD
  5
15D
102
{ACAD_REACTORS
330
152
102
}
330
152
100
AcDbXrecord
  1
{863E14C4-8EF4-4766-80C1-2E4F77A7B50E}
  0
XRECORD
  5
155
102
{ACAD_REACTORS
330
152
102
}
330
152
100
AcDbXrecord
  1

  0
XRECORD
  5
15B
102
{ACAD_REACTORS
330
152
102
}
330
152
100
AcDbXrecord
 90
        0
  0
XRECORD
  5
157
102
{ACAD_REACTORS
330
152
102
}
330
152
100
AcDbXrecord
340
19
  0
XRECORD
  5
15A
102
{ACAD_REACTORS
330
152
102
}
330
152
100
AcDbXrecord
 90
    10781
  0
XRECORD
  5
158
102
{ACAD_REACTORS
330
152
102
}
330
152
100
AcDbXrecord
340
18
  0
XRECORD
  5
159
102
{ACAD_REACTORS
330
152
102
}
330
152
100
AcDbXrecord
340
E
  0
XRECORD
  5
15F
102
{ACAD_REACTORS
330
152
102
}
330
152
100
AcDbXrecord
 40
0.0
  0
XRECORD
  5
162
102
{ACAD_REACTORS
330
152
102
}
330
152
100
AcDbXrecord
340
0
  0
XRECORD
  5
168
102
{ACAD_REACTORS
330
152
102
}
330
152
100
AcDbXrecord
 10
0.0
 20
0.0
 30
0.0
  0
XRECORD
  5
164
102
{ACAD_REACTORS
330
152
102
}
330
152
100
AcDbXrecord
 10
0.0
 20
0.0
 30
0.0
  0
XRECORD
  5
167
102
{ACAD_REACTORS
330
152
102
}
330
152
100
AcDbXrecord
 10
0.0
 20
0.0
 30
0.0
  0
XRECORD
  5
165
102
{ACAD_REACTORS
330
152
102
}
330
152
100
AcDbXrecord
 10
0.0
 20
0.0
 30
0.0
  0
XRECORD
  5
166
102
{ACAD_REACTORS
330
152
102
}
330
152
100
AcDbXrecord
 10
0.0
 20
0.0
 30
0.0
  0
XRECORD
  5
163
102
{ACAD_REACTORS
330
152
102
}
330
152
100
AcDbXrecord
 10
0.0
 20
0.0
 30
0.0
  0
XRECORD
  5
160
102
{ACAD_REACTORS
330
152
102
}
330
152
100
AcDbXrecord
340
0
  0
XRECORD
  5
161
102
{ACAD_REACTORS
330
152
102
}
330
152
100
AcDbXrecord
 70
     0
  0
XRECORD
  5
156
102
{ACAD_REACTORS
330
152
102
}
330
152
100
AcDbXrecord
  1

  0
XRECORD
  5
153
102
{ACAD_REACTORS
330
152
102
}
330
152
100
AcDbXrecord
 90
        1
  0
XRECORD
  5
154
102
{ACAD_REACTORS
330
152
102
}
330
152
100
AcDbXrecord
 90
       70
  0
XRECORD
  5
16B
102
{ACAD_REACTORS
330
152
102
}
330
152
100
AcDbXrecord
340
0
  0
XRECORD
  5
171
102
{ACAD_REACTORS
330
152
102
}
330
152
100
AcDbXrecord
 10
0.0
 20
0.0
 30
0.0
  0
XRECORD
  5
16D
102
{ACAD_REACTORS
330
152
102
}
330
152
100
AcDbXrecord
 10
0.0
 20
0.0
 30
0.0
  0
XRECORD
  5
170
102
{ACAD_REACTORS
330
152
102
}
330
152
100
AcDbXrecord
 10
0.0
 20
0.0
 30
0.0
  0
XRECORD
  5
16E
102
{ACAD_REACTORS
330
152
102
}
330
152
100
AcDbXrecord
 10
0.0
 20
0.0
 30
0.0
  0
XRECORD
  5
16F
102
{ACAD_REACTORS
330
152
102
}
330
152
100
AcDbXrecord
 10
0.0
 20
0.0
 30
0.0
  0
XRECORD
  5
16C
102
{ACAD_REACTORS
330
152
102
}
330
152
100
AcDbXrecord
 10
0.0
 20
0.0
 30
0.0
  0
XRECORD
  5
169
102
{ACAD_REACTORS
330
152
102
}
330
152
100
AcDbXrecord
340
0
  0
XRECORD
  5
16A
102
{ACAD_REACTORS
330
152
102
}
330
152
100
AcDbXrecord
 70
     1
  0
XRECORD
  5
15E
102
{ACAD_REACTORS
330
152
102
}
330
152
100
AcDbXrecord
  1
{600476E1-6FF6-4962-94F8-74C4941540F4}
  0
DICTIONARYVAR
  5
150
102
{ACAD_REACTORS
330
14F
102
}
330
14F
100
DictionaryVariables
280
     0
  1
1
  0
ENDSEC
  0
EOF
