  0
SECTION
  2
HEADER
  9
$ACADVER
  1
AC1014
  9
$ACADMAINTVER
 70
     9
  9
$DWGCODEPAGE
  3
ANSI_1252
  9
$INSBASE
 10
0.0
 20
0.0
 30
0.0
  9
$EXTMIN
 10
0.0000000000000009
 20
0.0000000000000036
 30
0.0
  9
$EXTMAX
 10
47.6486236200257
 20
135.0
 30
0.0
  9
$LIMMIN
 10
0.0
 20
0.0
  9
$LIMMAX
 10
12.0
 20
9.0
  9
$ORTHOMODE
 70
     0
  9
$REGENMODE
 70
     1
  9
$FILLMODE
 70
     1
  9
$QTEXTMODE
 70
     0
  9
$MIRRTEXT
 70
     1
  9
$DRAGMODE
 70
     2
  9
$LTSCALE
 40
1.0
  9
$OSMODE
 70
    37
  9
$ATTMODE
 70
     1
  9
$TEXTSIZE
 40
0.2
  9
$TRACEWID
 40
0.05
  9
$TEXTSTYLE
  7
STANDARD
  9
$CLAYER
  8
0
  9
$CELTYPE
  6
CONTINUOUS
  9
$CECOLOR
 62
   256
  9
$CELTSCALE
 40
1.0
  9
$DELOBJ
 70
     1
  9
$DISPSILH
 70
     0
  9
$DIMSCALE
 40
1.0
  9
$DIMASZ
 40
0.18
  9
$DIMEXO
 40
0.0625
  9
$DIMDLI
 40
0.38
  9
$DIMRND
 40
0.0
  9
$DIMDLE
 40
0.0
  9
$DIMEXE
 40
0.18
  9
$DIMTP
 40
0.0
  9
$DIMTM
 40
0.0
  9
$DIMTXT
 40
0.18
  9
$DIMCEN
 40
0.09
  9
$DIMTSZ
 40
0.0
  9
$DIMTOL
 70
     0
  9
$DIMLIM
 70
     0
  9
$DIMTIH
 70
     1
  9
$DIMTOH
 70
     1
  9
$DIMSE1
 70
     0
  9
$DIMSE2
 70
     0
  9
$DIMTAD
 70
     0
  9
$DIMZIN
 70
     0
  9
$DIMBLK
  1

  9
$DIMASO
 70
     1
  9
$DIMSHO
 70
     1
  9
$DIMPOST
  1

  9
$DIMAPOST
  1

  9
$DIMALT
 70
     0
  9
$DIMALTD
 70
     2
  9
$DIMALTF
 40
25.4
  9
$DIMLFAC
 40
1.0
  9
$DIMTOFL
 70
     0
  9
$DIMTVP
 40
0.0
  9
$DIMTIX
 70
     0
  9
$DIMSOXD
 70
     0
  9
$DIMSAH
 70
     0
  9
$DIMBLK1
  1

  9
$DIMBLK2
  1

  9
$DIMSTYLE
  2
STANDARD
  9
$DIMCLRD
 70
     0
  9
$DIMCLRE
 70
     0
  9
$DIMCLRT
 70
     0
  9
$DIMTFAC
 40
1.0
  9
$DIMGAP
 40
0.09
  9
$DIMJUST
 70
     0
  9
$DIMSD1
 70
     0
  9
$DIMSD2
 70
     0
  9
$DIMTOLJ
 70
     1
  9
$DIMTZIN
 70
     0
  9
$DIMALTZ
 70
     0
  9
$DIMALTTZ
 70
     0
  9
$DIMFIT
 70
     3
  9
$DIMUPT
 70
     0
  9
$DIMUNIT
 70
     2
  9
$DIMDEC
 70
     4
  9
$DIMTDEC
 70
     4
  9
$DIMALTU
 70
     2
  9
$DIMALTTD
 70
     2
  9
$DIMTXSTY
  7
STANDARD
  9
$DIMAUNIT
 70
     0
  9
$LUNITS
 70
     2
  9
$LUPREC
 70
     4
  9
$SKETCHINC
 40
0.1
  9
$FILLETRAD
 40
0.0
  9
$AUNITS
 70
     0
  9
$AUPREC
 70
     0
  9
$MENU
  1
.
  9
$ELEVATION
 40
0.0
  9
$PELEVATION
 40
0.0
  9
$THICKNESS
 40
0.0
  9
$LIMCHECK
 70
     0
  9
$BLIPMODE
 70
     0
  9
$CHAMFERA
 40
0.0
  9
$CHAMFERB
 40
0.0
  9
$CHAMFERC
 40
0.0
  9
$CHAMFERD
 40
0.0
  9
$SKPOLY
 70
     0
  9
$TDCREATE
 40
2454690.757454780
  9
$TDUPDATE
 40
2454690.759489826
  9
$TDINDWG
 40
0.0020352315
  9
$TDUSRTIMER
 40
0.0020352315
  9
$USRTIMER
 70
     1
  9
$ANGBASE
 50
0.0
  9
$ANGDIR
 70
     0
  9
$PDMODE
 70
     0
  9
$PDSIZE
 40
0.0
  9
$PLINEWID
 40
0.0
  9
$COORDS
 70
     1
  9
$SPLFRAME
 70
     0
  9
$SPLINETYPE
 70
     6
  9
$SPLINESEGS
 70
     8
  9
$ATTDIA
 70
     0
  9
$ATTREQ
 70
     1
  9
$HANDLING
 70
 22529
  9
$HANDSEED
  5
19E
  9
$SURFTAB1
 70
     6
  9
$SURFTAB2
 70
     6
  9
$SURFTYPE
 70
     6
  9
$SURFU
 70
     6
  9
$SURFV
 70
     6
  9
$UCSNAME
  2

  9
$UCSORG
 10
0.0
 20
0.0
 30
0.0
  9
$UCSXDIR
 10
1.0
 20
0.0
 30
0.0
  9
$UCSYDIR
 10
0.0
 20
1.0
 30
0.0
  9
$PUCSNAME
  2

  9
$PUCSORG
 10
0.0
 20
0.0
 30
0.0
  9
$PUCSXDIR
 10
1.0
 20
0.0
 30
0.0
  9
$PUCSYDIR
 10
0.0
 20
1.0
 30
0.0
  9
$USERI1
 70
     0
  9
$USERI2
 70
     0
  9
$USERI3
 70
     0
  9
$USERI4
 70
     0
  9
$USERI5
 70
     0
  9
$USERR1
 40
0.0
  9
$USERR2
 40
0.0
  9
$USERR3
 40
0.0
  9
$USERR4
 40
0.0
  9
$USERR5
 40
0.0
  9
$WORLDVIEW
 70
     1
  9
$SHADEDGE
 70
     3
  9
$SHADEDIF
 70
    70
  9
$TILEMODE
 70
     1
  9
$MAXACTVP
 70
    64
  9
$PINSBASE
 10
0.0
 20
0.0
 30
0.0
  9
$PLIMCHECK
 70
     0
  9
$PEXTMIN
 10
1.000000000000000E+20
 20
1.000000000000000E+20
 30
1.000000000000000E+20
  9
$PEXTMAX
 10
-1.000000000000000E+20
 20
-1.000000000000000E+20
 30
-1.000000000000000E+20
  9
$PLIMMIN
 10
0.0
 20
0.0
  9
$PLIMMAX
 10
12.0
 20
9.0
  9
$UNITMODE
 70
     0
  9
$VISRETAIN
 70
     1
  9
$PLINEGEN
 70
     0
  9
$PSLTSCALE
 70
     1
  9
$TREEDEPTH
 70
  3020
  9
$PICKSTYLE
 70
     1
  9
$CMLSTYLE
  2
STANDARD
  9
$CMLJUST
 70
     0
  9
$CMLSCALE
 40
1.0
  9
$PROXYGRAPHICS
 70
     1
  9
$MEASUREMENT
 70
     0
  0
ENDSEC
  0
SECTION
  2
CLASSES
  0
CLASS
  1
ACDBDICTIONARYWDFLT
  2
AcDbDictionaryWithDefault
  3
AutoCAD 2000
 90
        0
280
     0
281
     0
  0
CLASS
  1
ACDBPLACEHOLDER
  2
AcDbPlaceHolder
  3
AutoCAD 2000
 90
        0
280
     0
281
     0
  0
CLASS
  1
LAYOUT
  2
AcDbLayout
  3
AutoCAD 2000
 90
        0
280
     0
281
     0
  0
CLASS
  1
DICTIONARYVAR
  2
AcDbDictionaryVar
  3
AutoCAD 2000
 90
        0
280
     0
281
     0
  0
CLASS
  1
LONG_TRANSACTION
  2
AcDbLongTransaction
  3
AutoCAD 2000
 90
        0
280
     0
281
     0
  0
CLASS
  1
LWPOLYLINE
  2
AcDbPolyline
  3
AutoCAD 2000
 90
        0
280
     0
281
     1
  0
CLASS
  1
HATCH
  2
AcDbHatch
  3
AutoCAD 2000
 90
        0
280
     0
281
     1
  0
CLASS
  1
XRECORD
  2
AcDbXrecord
  3
AutoCAD 2000
 90
        0
280
     0
281
     0
  0
ENDSEC
  0
SECTION
  2
TABLES
  0
TABLE
  2
VPORT
  5
8
330
0
100
AcDbSymbolTable
 70
     3
  0
VPORT
  5
179
330
8
100
AcDbSymbolTableRecord
100
AcDbViewportTableRecord
  2
*ACTIVE
 70
     0
 10
0.0
 20
0.0
 11
1.0
 21
1.0
 12
23.82431181001285
 22
67.5
 13
0.0
 23
0.0
 14
1.0
 24
1.0
 15
0.0
 25
0.0
 16
0.0
 26
0.0
 36
1.0
 17
0.0
 27
0.0
 37
0.0
 40
136.0358056265984
 41
2.043533930857874
 42
50.0
 43
0.0
 44
0.0
 50
0.0
 51
0.0
 71
     0
 72
   100
 73
     1
 74
     3
 75
     0
 76
     0
 77
     0
 78
     0
  0
ENDTAB
  0
TABLE
  2
LTYPE
  5
5
330
0
100
AcDbSymbolTable
 70
     1
  0
LTYPE
  5
13
330
5
100
AcDbSymbolTableRecord
100
AcDbLinetypeTableRecord
  2
BYBLOCK
 70
     0
  3

 72
    65
 73
     0
 40
0.0
  0
LTYPE
  5
14
330
5
100
AcDbSymbolTableRecord
100
AcDbLinetypeTableRecord
  2
BYLAYER
 70
     0
  3

 72
    65
 73
     0
 40
0.0
  0
LTYPE
  5
15
330
5
100
AcDbSymbolTableRecord
100
AcDbLinetypeTableRecord
  2
CONTINUOUS
 70
     0
  3
Solid line
 72
    65
 73
     0
 40
0.0
  0
ENDTAB
  0
TABLE
  2
LAYER
  5
2
330
0
100
AcDbSymbolTable
 70
     1
  0
LAYER
  5
10
330
2
100
AcDbSymbolTableRecord
100
AcDbLayerTableRecord
  2
0
 70
     0
 62
     7
  6
CONTINUOUS
  0
ENDTAB
  0
TABLE
  2
STYLE
  5
3
330
0
100
AcDbSymbolTable
 70
     1
  0
STYLE
  5
11
330
3
100
AcDbSymbolTableRecord
100
AcDbTextStyleTableRecord
  2
STANDARD
 70
     0
 40
0.0
 41
1.0
 50
0.0
 71
     0
 42
0.2
  3
txt
  4

  0
ENDTAB
  0
TABLE
  2
VIEW
  5
6
330
0
100
AcDbSymbolTable
 70
     0
  0
ENDTAB
  0
TABLE
  2
UCS
  5
7
330
0
100
AcDbSymbolTable
 70
     0
  0
ENDTAB
  0
TABLE
  2
APPID
  5
9
330
0
100
AcDbSymbolTable
 70
     1
  0
APPID
  5
12
330
9
100
AcDbSymbolTableRecord
100
AcDbRegAppTableRecord
  2
ACAD
 70
     0
  0
ENDTAB
  0
TABLE
  2
DIMSTYLE
  5
A
330
0
100
AcDbSymbolTable
 70
     1
  0
DIMSTYLE
105
14E
330
A
100
AcDbSymbolTableRecord
100
AcDbDimStyleTableRecord
  2
STANDARD
 70
     0
  3

  4

  5

  6

  7

 40
1.0
 41
0.18
 42
0.0625
 43
0.38
 44
0.18
 45
0.0
 46
0.0
 47
0.0
 48
0.0
140
0.18
141
0.09
142
0.0
143
25.4
144
1.0
145
0.0
146
1.0
147
0.09
 71
     0
 72
     0
 73
     1
 74
     1
 75
     0
 76
     0
 77
     0
 78
     0
170
     0
171
     2
172
     0
173
     0
174
     0
175
     0
176
     0
177
     0
178
     0
270
     2
271
     4
272
     4
273
     2
274
     2
340
11
275
     0
280
     0
281
     0
282
     0
283
     1
284
     0
285
     0
286
     0
287
     3
288
     0
  0
ENDTAB
  0
TABLE
  2
BLOCK_RECORD
  5
1
330
0
100
AcDbSymbolTable
 70
     0
  0
BLOCK_RECORD
  5
1E
102
{ACAD_XDICTIONARY
360
19C
102
}
330
1
100
AcDbSymbolTableRecord
100
AcDbBlockTableRecord
  2
*MODEL_SPACE
  0
BLOCK_RECORD
  5
1A
102
{ACAD_XDICTIONARY
360
19A
102
}
330
1
100
AcDbSymbolTableRecord
100
AcDbBlockTableRecord
  2
*PAPER_SPACE
  0
ENDTAB
  0
ENDSEC
  0
SECTION
  2
BLOCKS
  0
BLOCK
  5
1F
330
1E
100
AcDbEntity
  8
0
100
AcDbBlockBegin
  2
*MODEL_SPACE
 70
     0
 10
0.0
 20
0.0
 30
0.0
  3
*MODEL_SPACE
  1

  0
ENDBLK
  5
20
330
1E
100
AcDbEntity
  8
0
100
AcDbBlockEnd
  0
BLOCK
  5
1B
330
1A
100
AcDbEntity
 67
     1
  8
0
100
AcDbBlockBegin
  2
*PAPER_SPACE
 70
     0
 10
0.0
 20
0.0
 30
0.0
  3
*PAPER_SPACE
  1

  0
ENDBLK
  5
1C
330
1A
100
AcDbEntity
 67
     1
  8
0
100
AcDbBlockEnd
  0
ENDSEC
  0
SECTION
  2
ENTITIES
  0
LINE
  5
22
330
1E
100
AcDbEntity
  8
0
100
AcDbLine
 10
9.992599999999999
 20
8.082089999999999
 30
0.0
 11
10.0
 21
15.6892
 31
0.0
  0
LINE
  5
23
330
1E
100
AcDbEntity
  8
0
100
AcDbLine
 10
9.992599999999999
 20
8.082089999999999
 30
0.0
 11
11.0582
 21
4.992009999999999
 31
0.0
  0
LINE
  5
24
330
1E
100
AcDbEntity
  8
0
100
AcDbLine
 10
11.0582
 20
4.992009999999999
 30
0.0
 11
14.09299999999999
 21
2.37097
 31
0.0
  0
LINE
  5
25
330
1E
100
AcDbEntity
  8
0
100
AcDbLine
 10
14.09299999999999
 20
2.37097
 30
0.0
 11
18.63489999999999
 21
0.6180100000000041
 31
0.0
  0
LINE
  5
26
330
1E
100
AcDbEntity
  8
0
100
AcDbLine
 10
14.09299999999999
 20
2.37097
 30
0.0
 11
18.63489999999999
 21
0.6180100000000041
 31
0.0
  0
LINE
  5
27
330
1E
100
AcDbEntity
  8
0
100
AcDbLine
 10
18.63489999999999
 20
0.6180100000000041
 30
0.0
 11
24.0149
 21
0.0000000000000036
 31
0.0
  0
LINE
  5
28
330
1E
100
AcDbEntity
  8
0
100
AcDbLine
 10
18.63489999999999
 20
0.6180100000000041
 30
0.0
 11
24.0149
 21
0.0000000000000036
 31
0.0
  0
LINE
  5
29
330
1E
100
AcDbEntity
  8
0
100
AcDbLine
 10
18.6423
 20
8.22507
 30
0.0
 11
24.0223
 21
7.607039999999999
 31
0.0
  0
LINE
  5
2A
330
1E
100
AcDbEntity
  8
0
100
AcDbLine
 10
18.64239999999999
 20
8.577689999999998
 30
0.0
 11
24.0
 21
7.962739999999999
 31
0.0
  0
LINE
  5
2B
330
1E
100
AcDbEntity
  8
0
100
AcDbLine
 10
24.0149
 20
0.0000000000000036
 30
0.0
 11
29.35
 21
0.6109980000000041
 31
0.0
  0
LINE
  5
2C
330
1E
100
AcDbEntity
  8
0
100
AcDbLine
 10
24.0149
 20
0.0000000000000036
 30
0.0
 11
29.35
 21
0.6109980000000041
 31
0.0
  0
LINE
  5
2D
330
1E
100
AcDbEntity
  8
0
100
AcDbLine
 10
24.0223
 20
7.607039999999999
 30
0.0
 11
29.3575
 21
8.218110000000001
 31
0.0
  0
LINE
  5
2E
330
1E
100
AcDbEntity
  8
0
100
AcDbLine
 10
29.35
 20
0.6109980000000041
 30
0.0
 11
33.89199999999999
 21
2.358029999999999
 31
0.0
  0
LINE
  5
2F
330
1E
100
AcDbEntity
  8
0
100
AcDbLine
 10
29.35
 20
0.6109980000000041
 30
0.0
 11
33.89199999999999
 21
2.358029999999999
 31
0.0
  0
LINE
  5
30
330
1E
100
AcDbEntity
  8
0
100
AcDbLine
 10
29.3575
 20
8.218110000000001
 30
0.0
 11
33.8994
 21
9.965120000000009
 31
0.0
  0
LINE
  5
31
330
1E
100
AcDbEntity
  8
0
100
AcDbLine
 10
24.0
 20
7.962739999999999
 30
0.0
 11
29.3576
 21
8.577689999999998
 31
0.0
  0
LINE
  5
32
330
1E
100
AcDbEntity
  8
0
100
AcDbLine
 10
14.1004
 20
9.97804
 30
0.0
 11
18.6423
 21
8.22507
 31
0.0
  0
LINE
  5
34
330
1E
100
AcDbEntity
  8
0
100
AcDbLine
 10
14.1005
 20
10.3282
 30
0.0
 11
18.64239999999999
 21
8.577689999999998
 31
0.0
  0
LINE
  5
35
330
1E
100
AcDbEntity
  8
0
100
AcDbLine
 10
29.3576
 20
8.577689999999998
 30
0.0
 11
33.8995
 21
10.3282
 31
0.0
  0
LINE
  5
36
330
1E
100
AcDbEntity
  8
0
100
AcDbLine
 10
33.89199999999999
 20
2.358029999999999
 30
0.0
 11
36.9269
 21
4.975089999999999
 31
0.0
  0
LINE
  5
37
330
1E
100
AcDbEntity
  8
0
100
AcDbLine
 10
33.8994
 20
9.965120000000009
 30
0.0
 11
36.9343
 21
12.5822
 31
0.0
  0
LINE
  5
38
330
1E
100
AcDbEntity
  8
0
100
AcDbLine
 10
36.9269
 20
4.975089999999999
 30
0.0
 11
37.9926
 21
8.070249999999999
 31
0.0
  0
LINE
  5
3A
330
1E
100
AcDbEntity
  8
0
100
AcDbLine
 10
10.0
 20
15.6892
 30
0.0
 11
11.06559999999999
 21
12.5991
 31
0.0
  0
LINE
  5
3B
330
1E
100
AcDbEntity
  8
0
100
AcDbLine
 10
10.0
 20
15.6892
 30
0.0
 11
10.05984374499759
 21
15.8626222094199
 31
0.0
  0
LINE
  5
3C
330
1E
100
AcDbEntity
  8
0
100
AcDbLine
 10
11.06559999999999
 20
12.5991
 30
0.0
 11
14.1004
 21
9.97804
 31
0.0
  0
LINE
  5
3D
330
1E
100
AcDbEntity
  8
0
100
AcDbLine
 10
0.4612000000000011
 20
106.262
 30
0.0
 11
1.8269
 21
101.767
 31
0.0
  0
LINE
  5
3E
330
1E
100
AcDbEntity
  8
0
100
AcDbLine
 10
0.4612000000000011
 20
115.7129999999999
 30
0.0
 11
1.8269
 21
120.208
 31
0.0
  0
LINE
  5
3F
330
1E
100
AcDbEntity
  8
0
100
AcDbLine
 10
0.0000000000000009
 20
111.0389999999999
 30
0.0
 11
0.0050811423681671
 21
110.987505508611
 31
0.0
  0
LINE
  5
40
330
1E
100
AcDbEntity
  8
0
100
AcDbLine
 10
0.0000000000000009
 20
111.0389999999999
 30
0.0
 11
0.0000000000000009
 21
110.936
 31
0.0
  0
LINE
  5
41
330
1E
100
AcDbEntity
  8
0
100
AcDbLine
 10
0.0000000000000009
 20
111.0389999999999
 30
0.0
 11
0.4612000000000011
 21
115.7129999999999
 31
0.0
  0
LINE
  5
42
330
1E
100
AcDbEntity
  8
0
100
AcDbLine
 10
0.0000000000000009
 20
111.0389999999999
 30
0.0
 11
0.0050811423681671
 21
110.987505508611
 31
0.0
  0
LINE
  5
45
330
1E
100
AcDbEntity
  8
0
100
AcDbLine
 10
0.0000000000000009
 20
110.936
 30
0.0
 11
0.4612000000000011
 21
106.262
 31
0.0
  0
LINE
  5
46
330
1E
100
AcDbEntity
  8
0
100
AcDbLine
 10
0.0000000000000009
 20
110.936
 30
0.0
 11
0.0000000000000009
 21
111.0389999999999
 31
0.0
  0
LINE
  5
47
330
1E
100
AcDbEntity
  8
0
100
AcDbLine
 10
8.3086
 20
92.82349999999999
 30
0.0
 11
9.5492
 21
91.1969
 31
0.0
  0
LINE
  5
4A
330
1E
100
AcDbEntity
  8
0
100
AcDbLine
 10
9.5492
 20
91.1969
 30
0.0
 11
10.02909999999999
 21
89.2074
 31
0.0
  0
LINE
  5
50
330
1E
100
AcDbEntity
  8
0
100
AcDbLine
 10
4.044699999999999
 20
97.6246
 30
0.0
 11
7.029399999999999
 21
93.99359999999999
 31
0.0
  0
LINE
  5
51
330
1E
100
AcDbEntity
  8
0
100
AcDbLine
 10
0.9515000000000009
 20
106.359
 30
0.0
 11
2.2888
 21
101.9579999999999
 31
0.0
  0
LINE
  5
52
330
1E
100
AcDbEntity
  8
0
100
AcDbLine
 10
2.2888
 20
101.9579999999999
 30
0.0
 11
4.460499999999999
 21
97.9015
 31
0.0
  0
LINE
  5
53
330
1E
100
AcDbEntity
  8
0
100
AcDbLine
 10
1.8269
 20
101.767
 30
0.0
 11
4.044699999999999
 21
97.6246
 31
0.0
  0
LINE
  5
54
330
1E
100
AcDbEntity
  8
0
100
AcDbLine
 10
4.460499999999999
 20
97.9015
 30
0.0
 11
7.382999999999999
 21
94.3462
 31
0.0
  0
LINE
  5
55
330
1E
100
AcDbEntity
  8
0
100
AcDbLine
 10
7.382999999999999
 20
94.3462
 30
0.0
 11
10.9441
 21
91.42850000000001
 31
0.0
  0
LINE
  5
56
330
1E
100
AcDbEntity
  8
0
100
AcDbLine
 10
7.029399999999999
 20
93.99359999999999
 30
0.0
 11
10.66629999999999
 21
91.0138
 31
0.0
  0
LINE
  5
57
330
1E
100
AcDbEntity
  8
0
100
AcDbLine
 10
7.029399999999999
 20
93.99359999999999
 30
0.0
 11
8.3086
 21
92.82349999999999
 31
0.0
  0
LINE
  5
58
330
1E
100
AcDbEntity
  8
0
100
AcDbLine
 10
10.9441
 20
91.42850000000001
 30
0.0
 11
15.0069
 21
89.2603
 31
0.0
  0
LINE
  5
59
330
1E
100
AcDbEntity
  8
0
100
AcDbLine
 10
10.66629999999999
 20
91.0138
 30
0.0
 11
14.81559999999999
 21
88.7996
 31
0.0
  0
LINE
  5
5B
330
1E
100
AcDbEntity
  8
0
100
AcDbLine
 10
1.8269
 20
120.208
 30
0.0
 11
4.044699999999999
 21
124.351
 31
0.0
  0
LINE
  5
5D
330
1E
100
AcDbEntity
  8
0
100
AcDbLine
 10
4.044699999999999
 20
124.351
 30
0.0
 11
7.029399999999999
 21
127.982
 31
0.0
  0
LINE
  5
5E
330
1E
100
AcDbEntity
  8
0
100
AcDbLine
 10
7.382999999999999
 20
127.526
 30
0.0
 11
10.9441
 21
130.4429999999999
 31
0.0
  0
LINE
  5
5F
330
1E
100
AcDbEntity
  8
0
100
AcDbLine
 10
7.029399999999999
 20
127.982
 30
0.0
 11
10.66629999999999
 21
130.962
 31
0.0
  0
LINE
  5
60
330
1E
100
AcDbEntity
  8
0
100
AcDbLine
 10
10.66629999999999
 20
130.962
 30
0.0
 11
14.81559999999999
 21
133.176
 31
0.0
  0
LINE
  5
62
330
1E
100
AcDbEntity
  8
0
100
AcDbLine
 10
10.9441
 20
130.4429999999999
 30
0.0
 11
15.0069
 21
132.6119999999999
 31
0.0
  0
LINE
  5
65
330
1E
100
AcDbEntity
  8
0
100
AcDbLine
 10
4.460499999999999
 20
123.971
 30
0.0
 11
7.382999999999999
 21
127.526
 31
0.0
  0
LINE
  5
66
330
1E
100
AcDbEntity
  8
0
100
AcDbLine
 10
2.2888
 20
119.915
 30
0.0
 11
4.460499999999999
 21
123.971
 31
0.0
  0
LINE
  5
67
330
1E
100
AcDbEntity
  8
0
100
AcDbLine
 10
0.9515000000000009
 20
115.514
 30
0.0
 11
2.2888
 21
119.915
 31
0.0
  0
LINE
  5
68
330
1E
100
AcDbEntity
  8
0
100
AcDbLine
 10
0.500000000000001
 20
110.936
 30
0.0
 11
0.9515000000000009
 21
115.514
 31
0.0
  0
LINE
  5
69
330
1E
100
AcDbEntity
  8
0
100
AcDbLine
 10
0.500000000000001
 20
110.936
 30
0.0
 11
0.9515000000000009
 21
106.359
 31
0.0
  0
LINE
  5
6A
330
1E
100
AcDbEntity
  8
0
100
AcDbLine
 10
10.0
 20
16.0361
 30
0.0
 11
11.0657
 21
12.9468
 31
0.0
  0
LINE
  5
6B
330
1E
100
AcDbEntity
  8
0
100
AcDbLine
 10
10.0
 20
16.0361
 30
0.0
 11
10.02909999999999
 21
89.2074
 31
0.0
  0
LINE
  5
6C
330
1E
100
AcDbEntity
  8
0
100
AcDbLine
 10
20.7473
 20
87.201
 30
0.0
 11
24.0
 21
86.97560000000001
 31
0.0
  0
LINE
  5
6E
330
1E
100
AcDbEntity
  8
0
100
AcDbLine
 10
19.31779999999999
 20
87.4361
 30
0.0
 11
20.7473
 21
87.201
 31
0.0
  0
LINE
  5
6F
330
1E
100
AcDbEntity
  8
0
100
AcDbLine
 10
24.1999
 20
86.9805
 30
0.0
 11
25.3264
 21
87.069
 31
0.0
  0
LINE
  5
72
330
1E
100
AcDbEntity
  8
0
100
AcDbLine
 10
25.3264
 20
87.069
 30
0.0
 11
27.55079999999999
 21
87.2437
 31
0.0
  0
LINE
  5
74
330
1E
100
AcDbEntity
  8
0
100
AcDbLine
 10
24.20009999999999
 20
86.9805
 30
0.0
 11
25.3264
 21
87.069
 31
0.0
  0
LINE
  5
75
330
1E
100
AcDbEntity
  8
0
100
AcDbLine
 10
27.55079999999999
 20
87.2437
 30
0.0
 11
28.6822
 21
87.4361
 31
0.0
  0
LINE
  5
77
330
1E
100
AcDbEntity
  8
0
100
AcDbLine
 10
24.0
 20
86.97560000000001
 30
0.0
 11
24.20009999999999
 21
86.9805
 31
0.0
  0
LINE
  5
79
330
1E
100
AcDbEntity
  8
0
100
AcDbLine
 10
17.4241
 20
87.8977
 30
0.0
 11
19.31779999999999
 21
87.4361
 31
0.0
  0
LINE
  5
7B
330
1E
100
AcDbEntity
  8
0
100
AcDbLine
 10
14.81559999999999
 20
88.7996
 30
0.0
 11
17.4241
 21
87.8977
 31
0.0
  0
LINE
  5
7C
330
1E
100
AcDbEntity
  8
0
100
AcDbLine
 10
15.0069
 20
89.2603
 30
0.0
 11
19.4154
 21
87.92520000000001
 31
0.0
  0
LINE
  5
7D
330
1E
100
AcDbEntity
  8
0
100
AcDbLine
 10
19.4154
 20
87.92520000000001
 30
0.0
 11
24.0
 21
87.4744
 31
0.0
  0
LINE
  5
7E
330
1E
100
AcDbEntity
  8
0
100
AcDbLine
 10
24.0
 20
87.4744
 30
0.0
 11
28.5846
 21
87.92520000000001
 31
0.0
  0
LINE
  5
7F
330
1E
100
AcDbEntity
  8
0
100
AcDbLine
 10
30.8187
 20
87.9682
 30
0.0
 11
33.18439999999999
 21
88.7996
 31
0.0
  0
LINE
  5
81
330
1E
100
AcDbEntity
  8
0
100
AcDbLine
 10
28.6822
 20
87.4361
 30
0.0
 11
30.8187
 21
87.9682
 31
0.0
  0
LINE
  5
82
330
1E
100
AcDbEntity
  8
0
100
AcDbLine
 10
28.5846
 20
87.92520000000001
 30
0.0
 11
32.9931
 21
89.2603
 31
0.0
  0
LINE
  5
83
330
1E
100
AcDbEntity
  8
0
100
AcDbLine
 10
32.9931
 20
89.2603
 30
0.0
 11
37.0559
 21
91.42850000000001
 31
0.0
  0
LINE
  5
84
330
1E
100
AcDbEntity
  8
0
100
AcDbLine
 10
36.9343
 20
12.5822
 30
0.0
 11
38.0
 21
15.6774
 31
0.0
  0
LINE
  5
86
330
1E
100
AcDbEntity
  8
0
100
AcDbLine
 10
33.18439999999999
 20
88.7996
 30
0.0
 11
37.3337
 21
91.0138
 31
0.0
  0
LINE
  5
88
330
1E
100
AcDbEntity
  8
0
100
AcDbLine
 10
32.9931
 20
132.6119999999999
 30
0.0
 11
37.0559
 21
130.4429999999999
 31
0.0
  0
LINE
  5
89
330
1E
100
AcDbEntity
  8
0
100
AcDbLine
 10
14.81559999999999
 20
133.176
 30
0.0
 11
19.31779999999999
 21
134.5399999999999
 31
0.0
  0
LINE
  5
8A
330
1E
100
AcDbEntity
  8
0
100
AcDbLine
 10
33.18439999999999
 20
133.176
 30
0.0
 11
37.3337
 21
130.962
 31
0.0
  0
LINE
  5
8C
330
1E
100
AcDbEntity
  8
0
100
AcDbLine
 10
28.5846
 20
133.947
 30
0.0
 11
32.9931
 21
132.6119999999999
 31
0.0
  0
LINE
  5
8D
330
1E
100
AcDbEntity
  8
0
100
AcDbLine
 10
19.31779999999999
 20
134.5399999999999
 30
0.0
 11
24.0
 21
135.0
 31
0.0
  0
LINE
  5
8E
330
1E
100
AcDbEntity
  8
0
100
AcDbLine
 10
24.0
 20
135.0
 30
0.0
 11
28.6822
 21
134.5399999999999
 31
0.0
  0
LINE
  5
8F
330
1E
100
AcDbEntity
  8
0
100
AcDbLine
 10
28.6822
 20
134.5399999999999
 30
0.0
 11
33.18439999999999
 21
133.176
 31
0.0
  0
LINE
  5
92
330
1E
100
AcDbEntity
  8
0
100
AcDbLine
 10
24.0
 20
134.3979999999999
 30
0.0
 11
28.5846
 21
133.947
 31
0.0
  0
LINE
  5
94
330
1E
100
AcDbEntity
  8
0
100
AcDbLine
 10
19.4154
 20
133.947
 30
0.0
 11
24.0
 21
134.3979999999999
 31
0.0
  0
LINE
  5
96
330
1E
100
AcDbEntity
  8
0
100
AcDbLine
 10
15.0069
 20
132.6119999999999
 30
0.0
 11
19.4154
 21
133.947
 31
0.0
  0
LINE
  5
97
330
1E
100
AcDbEntity
  8
0
100
AcDbLine
 10
11.0657
 20
12.9468
 30
0.0
 11
14.1005
 21
10.3282
 31
0.0
  0
LINE
  5
98
330
1E
100
AcDbEntity
  8
0
100
AcDbLine
 10
33.8995
 20
10.3282
 30
0.0
 11
36.9343
 21
12.9468
 31
0.0
  0
LINE
  5
99
330
1E
100
AcDbEntity
  8
0
100
AcDbLine
 10
37.0559
 20
91.42850000000001
 30
0.0
 11
40.617
 21
94.3462
 31
0.0
  0
LINE
  5
9A
330
1E
100
AcDbEntity
  8
0
100
AcDbLine
 10
37.9380734193005
 20
15.85658438983299
 30
0.0
 11
38.0
 21
15.6774
 31
0.0
  0
LINE
  5
9B
330
1E
100
AcDbEntity
  8
0
100
AcDbLine
 10
37.9926
 20
8.070249999999999
 30
0.0
 11
38.0
 21
15.6774
 31
0.0
  0
LINE
  5
9C
330
1E
100
AcDbEntity
  8
0
100
AcDbLine
 10
38.464
 20
91.201
 30
0.0
 11
39.7093
 21
92.8392
 31
0.0
  0
LINE
  5
9D
330
1E
100
AcDbEntity
  8
0
100
AcDbLine
 10
37.9868
 20
89.17379999999999
 30
0.0
 11
38.464
 21
91.201
 31
0.0
  0
LINE
  5
9E
330
1E
100
AcDbEntity
  8
0
100
AcDbLine
 10
37.9868
 20
89.17379999999999
 30
0.0
 11
38.0
 21
16.0361
 31
0.0
  0
LINE
  5
9F
330
1E
100
AcDbEntity
  8
0
100
AcDbLine
 10
39.7093
 20
92.8392
 30
0.0
 11
40.97059999999999
 21
93.99359999999999
 31
0.0
  0
LINE
  5
A0
330
1E
100
AcDbEntity
  8
0
100
AcDbLine
 10
37.3337
 20
91.0138
 30
0.0
 11
40.97059999999999
 21
93.99359999999999
 31
0.0
  0
LINE
  5
A2
330
1E
100
AcDbEntity
  8
0
100
AcDbLine
 10
40.617
 20
94.3462
 30
0.0
 11
43.5395
 21
97.9015
 31
0.0
  0
LINE
  5
A3
330
1E
100
AcDbEntity
  8
0
100
AcDbLine
 10
40.97059999999999
 20
93.99359999999999
 30
0.0
 11
43.95529999999999
 21
97.6246
 31
0.0
  0
LINE
  5
A4
330
1E
100
AcDbEntity
  8
0
100
AcDbLine
 10
43.95529999999999
 20
97.6246
 30
0.0
 11
46.17309999999999
 21
101.767
 31
0.0
  0
LINE
  5
A5
330
1E
100
AcDbEntity
  8
0
100
AcDbLine
 10
43.5395
 20
97.9015
 30
0.0
 11
45.71119999999999
 21
101.9579999999999
 31
0.0
  0
LINE
  5
A6
330
1E
100
AcDbEntity
  8
0
100
AcDbLine
 10
45.71119999999999
 20
101.9579999999999
 30
0.0
 11
47.04849999999999
 21
106.359
 31
0.0
  0
LINE
  5
A7
330
1E
100
AcDbEntity
  8
0
100
AcDbLine
 10
46.17309999999999
 20
101.767
 30
0.0
 11
47.5388
 21
106.262
 31
0.0
  0
LINE
  5
A8
330
1E
100
AcDbEntity
  8
0
100
AcDbLine
 10
47.04849999999999
 20
106.359
 30
0.0
 11
47.5
 21
110.936
 31
0.0
  0
LINE
  5
A9
330
1E
100
AcDbEntity
  8
0
100
AcDbLine
 10
47.5388
 20
106.262
 30
0.0
 11
47.6385375828877
 21
114.5999999999999
 31
0.0
  0
LINE
  5
AA
330
1E
100
AcDbEntity
  8
0
100
AcDbLine
 10
47.5388
 20
115.7129999999999
 30
0.0
 11
47.6486236200257
 21
114.5999999999999
 31
0.0
  0
LINE
  5
AB
330
1E
100
AcDbEntity
  8
0
100
AcDbLine
 10
47.04849999999999
 20
115.514
 30
0.0
 11
47.5
 21
110.936
 31
0.0
  0
LINE
  5
141
330
1E
100
AcDbEntity
  8
0
100
AcDbLine
 10
46.17309999999999
 20
120.208
 30
0.0
 11
47.5388
 21
115.7129999999999
 31
0.0
  0
LINE
  5
143
330
1E
100
AcDbEntity
  8
0
100
AcDbLine
 10
45.71119999999999
 20
119.915
 30
0.0
 11
47.04849999999999
 21
115.514
 31
0.0
  0
LINE
  5
144
330
1E
100
AcDbEntity
  8
0
100
AcDbLine
 10
43.95529999999999
 20
124.351
 30
0.0
 11
46.17309999999999
 21
120.208
 31
0.0
  0
LINE
  5
146
330
1E
100
AcDbEntity
  8
0
100
AcDbLine
 10
43.5395
 20
123.971
 30
0.0
 11
45.71119999999999
 21
119.915
 31
0.0
  0
LINE
  5
147
330
1E
100
AcDbEntity
  8
0
100
AcDbLine
 10
40.617
 20
127.526
 30
0.0
 11
43.5395
 21
123.971
 31
0.0
  0
LINE
  5
148
330
1E
100
AcDbEntity
  8
0
100
AcDbLine
 10
40.97059999999999
 20
127.982
 30
0.0
 11
43.95529999999999
 21
124.351
 31
0.0
  0
LINE
  5
14A
330
1E
100
AcDbEntity
  8
0
100
AcDbLine
 10
37.0559
 20
130.4429999999999
 30
0.0
 11
40.617
 21
127.526
 31
0.0
  0
LINE
  5
14B
330
1E
100
AcDbEntity
  8
0
100
AcDbLine
 10
37.3337
 20
130.962
 30
0.0
 11
40.97059999999999
 21
127.982
 31
0.0
  0
LINE
  5
14D
330
1E
100
AcDbEntity
  8
0
100
AcDbLine
 10
36.9343
 20
12.9468
 30
0.0
 11
38.0
 21
16.0361
 31
0.0
  0
ENDSEC
  0
SECTION
  2
OBJECTS
  0
DICTIONARY
  5
C
330
0
100
AcDbDictionary
  3
ACAD_GROUP
350
D
  3
ACAD_LAYOUT
350
19
  3
ACAD_MLINESTYLE
350
16
  3
ACAD_PLOTSETTINGS
350
18
  3
ACAD_PLOTSTYLENAME
350
E
  3
ACDBHEADERROUNDTRIPXREC
350
17A
  3
ACDBVARIABLEDICTIONARY
350
152
  0
DICTIONARY
  5
19C
330
1E
100
AcDbDictionary
280
     1
  3
ACAD_LAYOUTSELFREF
360
19D
  0
DICTIONARY
  5
19A
330
1A
100
AcDbDictionary
280
     1
  3
ACAD_LAYOUTSELFREF
360
19B
  0
DICTIONARY
  5
D
102
{ACAD_REACTORS
330
C
102
}
330
C
100
AcDbDictionary
  0
DICTIONARY
  5
19
102
{ACAD_REACTORS
330
C
102
}
330
C
100
AcDbDictionary
  0
DICTIONARY
  5
16
102
{ACAD_REACTORS
330
C
102
}
330
C
100
AcDbDictionary
  3
STANDARD
350
17
  0
DICTIONARY
  5
18
102
{ACAD_REACTORS
330
C
102
}
330
C
100
AcDbDictionary
  0
ACDBDICTIONARYWDFLT
  5
E
102
{ACAD_REACTORS
330
C
102
}
330
C
100
AcDbDictionary
281
     1
  3
Normal
350
F
100
AcDbDictionaryWithDefault
340
F
  0
DICTIONARY
  5
17A
102
{ACAD_REACTORS
330
C
102
}
330
C
100
AcDbDictionary
  3
CEPSNTYPE
350
184
  3
FINGERPRINTGUID
350
185
  3
HYPERLINKBASE
350
17D
  3
INSUNITS
350
183
  3
LAYOUTDICT
350
17F
  3
LWETCUNION
350
182
  3
PLOTSETDICT
350
180
  3
PLOTSTYLNAMDICT
350
181
  3
PSVPSCALE
350
187
  3
PUCSBASE
350
18A
  3
PUCSORGBACK
350
190
  3
PUCSORGBOTTOM
350
18C
  3
PUCSORGFRONT
350
18F
  3
PUCSORGLEFT
350
18D
  3
PUCSORGRIGHT
350
18E
  3
PUCSORGTOP
350
18B
  3
PUCSORTHOREF
350
188
  3
PUCSORTHOVIEW
350
189
  3
STYLESHEET
350
17E
  3
TSTACKALIGN
350
17B
  3
TSTACKSIZE
350
17C
  3
UCSBASE
350
193
  3
UCSORGBACK
350
199
  3
UCSORGBOTTOM
350
195
  3
UCSORGFRONT
350
198
  3
UCSORGLEFT
350
196
  3
UCSORGRIGHT
350
197
  3
UCSORGTOP
350
194
  3
UCSORTHOREF
350
191
  3
UCSORTHOVIEW
350
192
  3
VERSIONGUID
350
186
  0
DICTIONARY
  5
152
102
{ACAD_REACTORS
330
C
102
}
330
C
100
AcDbDictionary
  3
DIMASSOC
350
153
  0
XRECORD
  5
19D
102
{ACAD_REACTORS
330
19C
102
}
330
19C
100
AcDbXrecord
340
1E
  0
XRECORD
  5
19B
102
{ACAD_REACTORS
330
19A
102
}
330
19A
100
AcDbXrecord
340
1A
  0
MLINESTYLE
  5
17
102
{ACAD_REACTORS
330
16
102
}
330
16
100
AcDbMlineStyle
  2
STANDARD
 70
     0
  3

 62
   256
 51
90.0
 52
90.0
 71
     2
 49
0.5
 62
   256
  6
BYLAYER
 49
-0.5
 62
   256
  6
BYLAYER
  0
ACDBPLACEHOLDER
  5
F
102
{ACAD_REACTORS
330
E
102
}
330
E
100
AcDbPlaceHolder
280
     0
  0
XRECORD
  5
184
102
{ACAD_REACTORS
330
17A
102
}
330
17A
100
AcDbXrecord
 90
        0
  0
XRECORD
  5
185
102
{ACAD_REACTORS
330
17A
102
}
330
17A
100
AcDbXrecord
  1
{B8F5B811-4DAB-4581-9716-74B8B0C3CF81}
  0
XRECORD
  5
17D
102
{ACAD_REACTORS
330
17A
102
}
330
17A
100
AcDbXrecord
  1

  0
XRECORD
  5
183
102
{ACAD_REACTORS
330
17A
102
}
330
17A
100
AcDbXrecord
 90
        0
  0
XRECORD
  5
17F
102
{ACAD_REACTORS
330
17A
102
}
330
17A
100
AcDbXrecord
340
19
  0
XRECORD
  5
182
102
{ACAD_REACTORS
330
17A
102
}
330
17A
100
AcDbXrecord
 90
    10781
  0
XRECORD
  5
180
102
{ACAD_REACTORS
330
17A
102
}
330
17A
100
AcDbXrecord
340
18
  0
XRECORD
  5
181
102
{ACAD_REACTORS
330
17A
102
}
330
17A
100
AcDbXrecord
340
E
  0
XRECORD
  5
187
102
{ACAD_REACTORS
330
17A
102
}
330
17A
100
AcDbXrecord
 40
0.0
  0
XRECORD
  5
18A
102
{ACAD_REACTORS
330
17A
102
}
330
17A
100
AcDbXrecord
340
0
  0
XRECORD
  5
190
102
{ACAD_REACTORS
330
17A
102
}
330
17A
100
AcDbXrecord
 10
0.0
 20
0.0
 30
0.0
  0
XRECORD
  5
18C
102
{ACAD_REACTORS
330
17A
102
}
330
17A
100
AcDbXrecord
 10
0.0
 20
0.0
 30
0.0
  0
XRECORD
  5
18F
102
{ACAD_REACTORS
330
17A
102
}
330
17A
100
AcDbXrecord
 10
0.0
 20
0.0
 30
0.0
  0
XRECORD
  5
18D
102
{ACAD_REACTORS
330
17A
102
}
330
17A
100
AcDbXrecord
 10
0.0
 20
0.0
 30
0.0
  0
XRECORD
  5
18E
102
{ACAD_REACTORS
330
17A
102
}
330
17A
100
AcDbXrecord
 10
0.0
 20
0.0
 30
0.0
  0
XRECORD
  5
18B
102
{ACAD_REACTORS
330
17A
102
}
330
17A
100
AcDbXrecord
 10
0.0
 20
0.0
 30
0.0
  0
XRECORD
  5
188
102
{ACAD_REACTORS
330
17A
102
}
330
17A
100
AcDbXrecord
340
0
  0
XRECORD
  5
189
102
{ACAD_REACTORS
330
17A
102
}
330
17A
100
AcDbXrecord
 70
     0
  0
XRECORD
  5
17E
102
{ACAD_REACTORS
330
17A
102
}
330
17A
100
AcDbXrecord
  1

  0
XRECORD
  5
17B
102
{ACAD_REACTORS
330
17A
102
}
330
17A
100
AcDbXrecord
 90
        1
  0
XRECORD
  5
17C
102
{ACAD_REACTORS
330
17A
102
}
330
17A
100
AcDbXrecord
 90
       70
  0
XRECORD
  5
193
102
{ACAD_REACTORS
330
17A
102
}
330
17A
100
AcDbXrecord
340
0
  0
XRECORD
  5
199
102
{ACAD_REACTORS
330
17A
102
}
330
17A
100
AcDbXrecord
 10
0.0
 20
0.0
 30
0.0
  0
XRECORD
  5
195
102
{ACAD_REACTORS
330
17A
102
}
330
17A
100
AcDbXrecord
 10
0.0
 20
0.0
 30
0.0
  0
XRECORD
  5
198
102
{ACAD_REACTORS
330
17A
102
}
330
17A
100
AcDbXrecord
 10
0.0
 20
0.0
 30
0.0
  0
XRECORD
  5
196
102
{ACAD_REACTORS
330
17A
102
}
330
17A
100
AcDbXrecord
 10
0.0
 20
0.0
 30
0.0
  0
XRECORD
  5
197
102
{ACAD_REACTORS
330
17A
102
}
330
17A
100
AcDbXrecord
 10
0.0
 20
0.0
 30
0.0
  0
XRECORD
  5
194
102
{ACAD_REACTORS
330
17A
102
}
330
17A
100
AcDbXrecord
 10
0.0
 20
0.0
 30
0.0
  0
XRECORD
  5
191
102
{ACAD_REACTORS
330
17A
102
}
330
17A
100
AcDbXrecord
340
0
  0
XRECORD
  5
192
102
{ACAD_REACTORS
330
17A
102
}
330
17A
100
AcDbXrecord
 70
     1
  0
XRECORD
  5
186
102
{ACAD_REACTORS
330
17A
102
}
330
17A
100
AcDbXrecord
  1
{F62898E7-C2F4-4DF2-8885-94D24892F139}
  0
DICTIONARYVAR
  5
153
102
{ACAD_REACTORS
330
152
102
}
330
152
100
DictionaryVariables
280
     0
  1
1
  0
ENDSEC
  0
EOF
