  0
SECTION
  2
HEADER
  9
$ACADVER
  1
AC1014
  9
$ACADMAINTVER
 70
     9
  9
$DWGCODEPAGE
  3
ANSI_1252
  9
$INSBASE
 10
0.0
 20
0.0
 30
0.0
  9
$EXTMIN
 10
0.0000000000000009
 20
-0.0000000000000051
 30
0.0
  9
$EXTMAX
 10
62.0
 20
177.0
 30
0.0
  9
$LIMMIN
 10
0.0
 20
0.0
  9
$LIMMAX
 10
12.0
 20
9.0
  9
$ORTHOMODE
 70
     0
  9
$REGENMODE
 70
     1
  9
$FILLMODE
 70
     1
  9
$QTEXTMODE
 70
     0
  9
$MIRRTEXT
 70
     1
  9
$DRAGMODE
 70
     2
  9
$LTSCALE
 40
1.0
  9
$OSMODE
 70
    37
  9
$ATTMODE
 70
     1
  9
$TEXTSIZE
 40
0.2
  9
$TRACEWID
 40
0.05
  9
$TEXTSTYLE
  7
STANDARD
  9
$CLAYER
  8
0
  9
$CELTYPE
  6
CONTINUOUS
  9
$CECOLOR
 62
   256
  9
$CELTSCALE
 40
1.0
  9
$DELOBJ
 70
     1
  9
$DISPSILH
 70
     0
  9
$DIMSCALE
 40
1.0
  9
$DIMASZ
 40
0.18
  9
$DIMEXO
 40
0.0625
  9
$DIMDLI
 40
0.38
  9
$DIMRND
 40
0.0
  9
$DIMDLE
 40
0.0
  9
$DIMEXE
 40
0.18
  9
$DIMTP
 40
0.0
  9
$DIMTM
 40
0.0
  9
$DIMTXT
 40
0.18
  9
$DIMCEN
 40
0.09
  9
$DIMTSZ
 40
0.0
  9
$DIMTOL
 70
     0
  9
$DIMLIM
 70
     0
  9
$DIMTIH
 70
     1
  9
$DIMTOH
 70
     1
  9
$DIMSE1
 70
     0
  9
$DIMSE2
 70
     0
  9
$DIMTAD
 70
     0
  9
$DIMZIN
 70
     0
  9
$DIMBLK
  1

  9
$DIMASO
 70
     1
  9
$DIMSHO
 70
     1
  9
$DIMPOST
  1

  9
$DIMAPOST
  1

  9
$DIMALT
 70
     0
  9
$DIMALTD
 70
     2
  9
$DIMALTF
 40
25.4
  9
$DIMLFAC
 40
1.0
  9
$DIMTOFL
 70
     0
  9
$DIMTVP
 40
0.0
  9
$DIMTIX
 70
     0
  9
$DIMSOXD
 70
     0
  9
$DIMSAH
 70
     0
  9
$DIMBLK1
  1

  9
$DIMBLK2
  1

  9
$DIMSTYLE
  2
STANDARD
  9
$DIMCLRD
 70
     0
  9
$DIMCLRE
 70
     0
  9
$DIMCLRT
 70
     0
  9
$DIMTFAC
 40
1.0
  9
$DIMGAP
 40
0.09
  9
$DIMJUST
 70
     0
  9
$DIMSD1
 70
     0
  9
$DIMSD2
 70
     0
  9
$DIMTOLJ
 70
     1
  9
$DIMTZIN
 70
     0
  9
$DIMALTZ
 70
     0
  9
$DIMALTTZ
 70
     0
  9
$DIMFIT
 70
     3
  9
$DIMUPT
 70
     0
  9
$DIMUNIT
 70
     2
  9
$DIMDEC
 70
     4
  9
$DIMTDEC
 70
     4
  9
$DIMALTU
 70
     2
  9
$DIMALTTD
 70
     2
  9
$DIMTXSTY
  7
STANDARD
  9
$DIMAUNIT
 70
     0
  9
$LUNITS
 70
     2
  9
$LUPREC
 70
     4
  9
$SKETCHINC
 40
0.1
  9
$FILLETRAD
 40
0.0
  9
$AUNITS
 70
     0
  9
$AUPREC
 70
     0
  9
$MENU
  1
.
  9
$ELEVATION
 40
0.0
  9
$PELEVATION
 40
0.0
  9
$THICKNESS
 40
0.0
  9
$LIMCHECK
 70
     0
  9
$BLIPMODE
 70
     0
  9
$CHAMFERA
 40
0.0
  9
$CHAMFERB
 40
0.0
  9
$CHAMFERC
 40
0.0
  9
$CHAMFERD
 40
0.0
  9
$SKPOLY
 70
     0
  9
$TDCREATE
 40
2454690.757439236
  9
$TDUPDATE
 40
2454690.761172048
  9
$TDINDWG
 40
0.0037328125
  9
$TDUSRTIMER
 40
0.0037328125
  9
$USRTIMER
 70
     1
  9
$ANGBASE
 50
0.0
  9
$ANGDIR
 70
     0
  9
$PDMODE
 70
     0
  9
$PDSIZE
 40
0.0
  9
$PLINEWID
 40
0.0
  9
$COORDS
 70
     1
  9
$SPLFRAME
 70
     0
  9
$SPLINETYPE
 70
     6
  9
$SPLINESEGS
 70
     8
  9
$ATTDIA
 70
     0
  9
$ATTREQ
 70
     1
  9
$HANDLING
 70
 22529
  9
$HANDSEED
  5
163
  9
$SURFTAB1
 70
     6
  9
$SURFTAB2
 70
     6
  9
$SURFTYPE
 70
     6
  9
$SURFU
 70
     6
  9
$SURFV
 70
     6
  9
$UCSNAME
  2

  9
$UCSORG
 10
0.0
 20
0.0
 30
0.0
  9
$UCSXDIR
 10
1.0
 20
0.0
 30
0.0
  9
$UCSYDIR
 10
0.0
 20
1.0
 30
0.0
  9
$PUCSNAME
  2

  9
$PUCSORG
 10
0.0
 20
0.0
 30
0.0
  9
$PUCSXDIR
 10
1.0
 20
0.0
 30
0.0
  9
$PUCSYDIR
 10
0.0
 20
1.0
 30
0.0
  9
$USERI1
 70
     0
  9
$USERI2
 70
     0
  9
$USERI3
 70
     0
  9
$USERI4
 70
     0
  9
$USERI5
 70
     0
  9
$USERR1
 40
0.0
  9
$USERR2
 40
0.0
  9
$USERR3
 40
0.0
  9
$USERR4
 40
0.0
  9
$USERR5
 40
0.0
  9
$WORLDVIEW
 70
     1
  9
$SHADEDGE
 70
     3
  9
$SHADEDIF
 70
    70
  9
$TILEMODE
 70
     1
  9
$MAXACTVP
 70
    64
  9
$PINSBASE
 10
0.0
 20
0.0
 30
0.0
  9
$PLIMCHECK
 70
     0
  9
$PEXTMIN
 10
1.000000000000000E+20
 20
1.000000000000000E+20
 30
1.000000000000000E+20
  9
$PEXTMAX
 10
-1.000000000000000E+20
 20
-1.000000000000000E+20
 30
-1.000000000000000E+20
  9
$PLIMMIN
 10
0.0
 20
0.0
  9
$PLIMMAX
 10
12.0
 20
9.0
  9
$UNITMODE
 70
     0
  9
$VISRETAIN
 70
     1
  9
$PLINEGEN
 70
     0
  9
$PSLTSCALE
 70
     1
  9
$TREEDEPTH
 70
  3020
  9
$PICKSTYLE
 70
     1
  9
$CMLSTYLE
  2
STANDARD
  9
$CMLJUST
 70
     0
  9
$CMLSCALE
 40
1.0
  9
$PROXYGRAPHICS
 70
     1
  9
$MEASUREMENT
 70
     0
  0
ENDSEC
  0
SECTION
  2
CLASSES
  0
CLASS
  1
ACDBDICTIONARYWDFLT
  2
AcDbDictionaryWithDefault
  3
AutoCAD 2000
 90
        0
280
     0
281
     0
  0
CLASS
  1
ACDBPLACEHOLDER
  2
AcDbPlaceHolder
  3
AutoCAD 2000
 90
        0
280
     0
281
     0
  0
CLASS
  1
LAYOUT
  2
AcDbLayout
  3
AutoCAD 2000
 90
        0
280
     0
281
     0
  0
CLASS
  1
DICTIONARYVAR
  2
AcDbDictionaryVar
  3
AutoCAD 2000
 90
        0
280
     0
281
     0
  0
CLASS
  1
LONG_TRANSACTION
  2
AcDbLongTransaction
  3
AutoCAD 2000
 90
        0
280
     0
281
     0
  0
CLASS
  1
LWPOLYLINE
  2
AcDbPolyline
  3
AutoCAD 2000
 90
        0
280
     0
281
     1
  0
CLASS
  1
HATCH
  2
AcDbHatch
  3
AutoCAD 2000
 90
        0
280
     0
281
     1
  0
CLASS
  1
XRECORD
  2
AcDbXrecord
  3
AutoCAD 2000
 90
        0
280
     0
281
     0
  0
ENDSEC
  0
SECTION
  2
TABLES
  0
TABLE
  2
VPORT
  5
8
330
0
100
AcDbSymbolTable
 70
     2
  0
VPORT
  5
13E
330
8
100
AcDbSymbolTableRecord
100
AcDbViewportTableRecord
  2
*ACTIVE
 70
     0
 10
0.0
 20
0.0
 11
1.0
 21
1.0
 12
31.0
 22
88.49999999999999
 13
0.0
 23
0.0
 14
1.0
 24
1.0
 15
0.0
 25
0.0
 16
0.0
 26
0.0
 36
1.0
 17
0.0
 27
0.0
 37
0.0
 40
178.3580562659846
 41
2.043533930857874
 42
50.0
 43
0.0
 44
0.0
 50
0.0
 51
0.0
 71
     0
 72
   100
 73
     1
 74
     3
 75
     0
 76
     0
 77
     0
 78
     0
  0
ENDTAB
  0
TABLE
  2
LTYPE
  5
5
330
0
100
AcDbSymbolTable
 70
     1
  0
LTYPE
  5
13
330
5
100
AcDbSymbolTableRecord
100
AcDbLinetypeTableRecord
  2
BYBLOCK
 70
     0
  3

 72
    65
 73
     0
 40
0.0
  0
LTYPE
  5
14
330
5
100
AcDbSymbolTableRecord
100
AcDbLinetypeTableRecord
  2
BYLAYER
 70
     0
  3

 72
    65
 73
     0
 40
0.0
  0
LTYPE
  5
15
330
5
100
AcDbSymbolTableRecord
100
AcDbLinetypeTableRecord
  2
CONTINUOUS
 70
     0
  3
Solid line
 72
    65
 73
     0
 40
0.0
  0
ENDTAB
  0
TABLE
  2
LAYER
  5
2
330
0
100
AcDbSymbolTable
 70
     1
  0
LAYER
  5
10
330
2
100
AcDbSymbolTableRecord
100
AcDbLayerTableRecord
  2
0
 70
     0
 62
     7
  6
CONTINUOUS
  0
ENDTAB
  0
TABLE
  2
STYLE
  5
3
330
0
100
AcDbSymbolTable
 70
     1
  0
STYLE
  5
11
330
3
100
AcDbSymbolTableRecord
100
AcDbTextStyleTableRecord
  2
STANDARD
 70
     0
 40
0.0
 41
1.0
 50
0.0
 71
     0
 42
0.2
  3
txt
  4

  0
ENDTAB
  0
TABLE
  2
VIEW
  5
6
330
0
100
AcDbSymbolTable
 70
     0
  0
ENDTAB
  0
TABLE
  2
UCS
  5
7
330
0
100
AcDbSymbolTable
 70
     0
  0
ENDTAB
  0
TABLE
  2
APPID
  5
9
330
0
100
AcDbSymbolTable
 70
     1
  0
APPID
  5
12
330
9
100
AcDbSymbolTableRecord
100
AcDbRegAppTableRecord
  2
ACAD
 70
     0
  0
ENDTAB
  0
TABLE
  2
DIMSTYLE
  5
A
330
0
100
AcDbSymbolTable
 70
     1
  0
DIMSTYLE
105
136
330
A
100
AcDbSymbolTableRecord
100
AcDbDimStyleTableRecord
  2
STANDARD
 70
     0
  3

  4

  5

  6

  7

 40
1.0
 41
0.18
 42
0.0625
 43
0.38
 44
0.18
 45
0.0
 46
0.0
 47
0.0
 48
0.0
140
0.18
141
0.09
142
0.0
143
25.4
144
1.0
145
0.0
146
1.0
147
0.09
 71
     0
 72
     0
 73
     1
 74
     1
 75
     0
 76
     0
 77
     0
 78
     0
170
     0
171
     2
172
     0
173
     0
174
     0
175
     0
176
     0
177
     0
178
     0
270
     2
271
     4
272
     4
273
     2
274
     2
340
11
275
     0
280
     0
281
     0
282
     0
283
     1
284
     0
285
     0
286
     0
287
     3
288
     0
  0
ENDTAB
  0
TABLE
  2
BLOCK_RECORD
  5
1
330
0
100
AcDbSymbolTable
 70
     0
  0
BLOCK_RECORD
  5
1E
102
{ACAD_XDICTIONARY
360
161
102
}
330
1
100
AcDbSymbolTableRecord
100
AcDbBlockTableRecord
  2
*MODEL_SPACE
  0
BLOCK_RECORD
  5
1A
102
{ACAD_XDICTIONARY
360
15F
102
}
330
1
100
AcDbSymbolTableRecord
100
AcDbBlockTableRecord
  2
*PAPER_SPACE
  0
ENDTAB
  0
ENDSEC
  0
SECTION
  2
BLOCKS
  0
BLOCK
  5
1F
330
1E
100
AcDbEntity
  8
0
100
AcDbBlockBegin
  2
*MODEL_SPACE
 70
     0
 10
0.0
 20
0.0
 30
0.0
  3
*MODEL_SPACE
  1

  0
ENDBLK
  5
20
330
1E
100
AcDbEntity
  8
0
100
AcDbBlockEnd
  0
BLOCK
  5
1B
330
1A
100
AcDbEntity
 67
     1
  8
0
100
AcDbBlockBegin
  2
*PAPER_SPACE
 70
     0
 10
0.0
 20
0.0
 30
0.0
  3
*PAPER_SPACE
  1

  0
ENDBLK
  5
1C
330
1A
100
AcDbEntity
 67
     1
  8
0
100
AcDbBlockEnd
  0
ENDSEC
  0
SECTION
  2
ENTITIES
  0
LINE
  5
22
330
1E
100
AcDbEntity
  8
0
100
AcDbLine
 10
7.029399999999999
 20
0.0055779999999946
 30
0.0
 11
10.66629999999999
 21
0.0032089999999947
 31
0.0
  0
LINE
  5
23
330
1E
100
AcDbEntity
  8
0
100
AcDbLine
 10
4.044699999999999
 20
0.0084629999999943
 30
0.0
 11
7.029399999999999
 21
0.0055779999999946
 31
0.0
  0
LINE
  5
24
330
1E
100
AcDbEntity
  8
0
100
AcDbLine
 10
1.8269
 20
0.0117549999999941
 30
0.0
 11
4.044699999999999
 21
0.0084629999999943
 31
0.0
  0
LINE
  5
25
330
1E
100
AcDbEntity
  8
0
100
AcDbLine
 10
0.4612000000000011
 20
0.0153279999999938
 30
0.0
 11
1.8269
 21
0.0117549999999941
 31
0.0
  0
LINE
  5
26
330
1E
100
AcDbEntity
  8
0
100
AcDbLine
 10
9.992599999999999
 20
89.58479999999999
 30
0.0
 11
10.0
 21
94.9746
 31
0.0
  0
LINE
  5
27
330
1E
100
AcDbEntity
  8
0
100
AcDbLine
 10
9.992599999999999
 20
89.58479999999999
 30
0.0
 11
11.0582
 21
93.95700000000001
 31
0.0
  0
LINE
  5
28
330
1E
100
AcDbEntity
  8
0
100
AcDbLine
 10
9.992599999999999
 20
89.58479999999999
 30
0.0
 11
11.05829999999999
 21
85.21169999999999
 31
0.0
  0
LINE
  5
29
330
1E
100
AcDbEntity
  8
0
100
AcDbLine
 10
10.0
 20
94.9746
 30
0.0
 11
11.06559999999999
 21
99.34690000000001
 31
0.0
  0
LINE
  5
2A
330
1E
100
AcDbEntity
  8
0
100
AcDbLine
 10
0.0000000000000009
 20
0.0190429999999935
 30
0.0
 11
0.4612000000000011
 21
0.0153279999999938
 31
0.0
  0
LINE
  5
2B
330
1E
100
AcDbEntity
  8
0
100
AcDbLine
 10
0.0000000000000009
 20
0.0190429999999935
 30
0.0
 11
0.0000000000000009
 21
176.4809999999999
 31
0.0
  0
LINE
  5
2C
330
1E
100
AcDbEntity
  8
0
100
AcDbLine
 10
11.05829999999999
 20
85.21169999999999
 30
0.0
 11
14.0932
 21
81.50339999999999
 31
0.0
  0
LINE
  5
2D
330
1E
100
AcDbEntity
  8
0
100
AcDbLine
 10
11.0582
 20
93.95700000000001
 30
0.0
 11
14.09299999999999
 21
97.6626
 31
0.0
  0
LINE
  5
2E
330
1E
100
AcDbEntity
  8
0
100
AcDbLine
 10
11.06559999999999
 20
99.34690000000001
 30
0.0
 11
14.1004
 21
103.052
 31
0.0
  0
LINE
  5
2F
330
1E
100
AcDbEntity
  8
0
100
AcDbLine
 10
14.0932
 20
81.50339999999999
 30
0.0
 11
18.62999999999999
 21
79.0262
 31
0.0
  0
LINE
  5
30
330
1E
100
AcDbEntity
  8
0
100
AcDbLine
 10
14.09299999999999
 20
97.6626
 30
0.0
 11
18.63489999999999
 21
100.137
 31
0.0
  0
LINE
  5
31
330
1E
100
AcDbEntity
  8
0
100
AcDbLine
 10
10.66629999999999
 20
0.0032089999999947
 30
0.0
 11
14.81559999999999
 21
0.0014499999999949
 31
0.0
  0
LINE
  5
32
330
1E
100
AcDbEntity
  8
0
100
AcDbLine
 10
10.0
 20
95.1759
 30
0.0
 11
11.0657
 21
99.5486
 31
0.0
  0
LINE
  5
33
330
1E
100
AcDbEntity
  8
0
100
AcDbLine
 10
10.0
 20
95.1759
 30
0.0
 11
10.0245303370963
 21
95.0752512696002
 31
0.0
  0
LINE
  5
34
330
1E
100
AcDbEntity
  8
0
100
AcDbLine
 10
10.0
 20
95.1759
 30
0.0
 11
10.02909999999999
 21
149.634
 31
0.0
  0
LINE
  5
35
330
1E
100
AcDbEntity
  8
0
100
AcDbLine
 10
14.1004
 20
103.052
 30
0.0
 11
18.6423
 21
105.5269999999999
 31
0.0
  0
LINE
  5
36
330
1E
100
AcDbEntity
  8
0
100
AcDbLine
 10
11.0657
 20
99.5486
 30
0.0
 11
14.1005
 21
103.2559999999999
 31
0.0
  0
LINE
  5
37
330
1E
100
AcDbEntity
  8
0
100
AcDbLine
 10
20.08
 20
-0.0000000000000051
 30
0.0
 11
27.92
 21
-0.0000000000000051
 31
0.0
  0
LINE
  5
38
330
1E
100
AcDbEntity
  8
0
100
AcDbLine
 10
27.92
 20
-0.000000000000005
 30
0.0
 11
27.92
 21
0.099999999999995
 31
0.0
  0
LINE
  5
39
330
1E
100
AcDbEntity
  8
0
100
AcDbLine
 10
20.08
 20
-0.000000000000005
 30
0.0
 11
27.92
 21
-0.000000000000005
 31
0.0
  0
LINE
  5
3A
330
1E
100
AcDbEntity
  8
0
100
AcDbLine
 10
20.08
 20
-0.000000000000005
 30
0.0
 11
20.08
 21
0.099999999999995
 31
0.0
  0
LINE
  5
3B
330
1E
100
AcDbEntity
  8
0
100
AcDbLine
 10
27.9202451513776
 20
0.0003064392220282
 30
0.0
 11
28.6822
 21
0.0003659999999949
 31
0.0
  0
LINE
  5
3C
330
1E
100
AcDbEntity
  8
0
100
AcDbLine
 10
28.6822
 20
0.0003659999999949
 30
0.0
 11
33.18439999999999
 21
0.0014499999999949
 31
0.0
  0
LINE
  5
3D
330
1E
100
AcDbEntity
  8
0
100
AcDbLine
 10
27.9202451513776
 20
0.0003064392220282
 30
0.0
 11
28.6822
 21
0.0003659999999949
 31
0.0
  0
LINE
  5
3E
330
1E
100
AcDbEntity
  8
0
100
AcDbLine
 10
14.6625
 20
92.27809999999999
 30
0.0
 11
15.3729
 21
95.19299999999999
 31
0.0
  0
LINE
  5
3F
330
1E
100
AcDbEntity
  8
0
100
AcDbLine
 10
14.6625
 20
92.27809999999999
 30
0.0
 11
15.373
 21
89.36249999999999
 31
0.0
  0
LINE
  5
40
330
1E
100
AcDbEntity
  8
0
100
AcDbLine
 10
20.0
 20
39.9
 30
0.0
 11
20.0
 21
0.0999999999999951
 31
0.0
  0
LINE
  5
41
330
1E
100
AcDbEntity
  8
0
100
AcDbLine
 10
20.0
 20
0.099999999999995
 30
0.0
 11
20.0
 21
39.9
 31
0.0
  0
LINE
  5
42
330
1E
100
AcDbEntity
  8
0
100
AcDbLine
 10
20.08
 20
0.099999999999995
 30
0.0
 11
20.08
 21
-0.000000000000005
 31
0.0
  0
LINE
  5
43
330
1E
100
AcDbEntity
  8
0
100
AcDbLine
 10
20.08
 20
0.099999999999995
 30
0.0
 11
27.92
 21
0.099999999999995
 31
0.0
  0
LINE
  5
44
330
1E
100
AcDbEntity
  8
0
100
AcDbLine
 10
20.08
 20
0.099999999999995
 30
0.0
 11
20.08
 21
39.89929999999999
 31
0.0
  0
LINE
  5
45
330
1E
100
AcDbEntity
  8
0
100
AcDbLine
 10
20.08
 20
40.0
 30
0.0
 11
20.08
 21
39.89929999999999
 31
0.0
  0
LINE
  5
46
330
1E
100
AcDbEntity
  8
0
100
AcDbLine
 10
20.08
 20
40.0
 30
0.0
 11
27.92
 21
40.0
 31
0.0
  0
LINE
  5
47
330
1E
100
AcDbEntity
  8
0
100
AcDbLine
 10
20.08
 20
39.89929999999999
 30
0.0
 11
20.08
 21
40.0
 31
0.0
  0
LINE
  5
48
330
1E
100
AcDbEntity
  8
0
100
AcDbLine
 10
20.08
 20
39.89929999999999
 30
0.0
 11
27.92
 21
39.9
 31
0.0
  0
LINE
  5
49
330
1E
100
AcDbEntity
  8
0
100
AcDbLine
 10
20.08
 20
39.89929999999999
 30
0.0
 11
20.08
 21
0.0999999999999951
 31
0.0
  0
LINE
  5
4A
330
1E
100
AcDbEntity
  8
0
100
AcDbLine
 10
20.4211
 20
85.2386
 30
0.0
 11
23.9963
 21
84.656
 31
0.0
  0
LINE
  5
4B
330
1E
100
AcDbEntity
  8
0
100
AcDbLine
 10
18.62999999999999
 20
79.0262
 30
0.0
 11
23.99259999999999
 21
78.15229999999999
 31
0.0
  0
LINE
  5
4C
330
1E
100
AcDbEntity
  8
0
100
AcDbLine
 10
17.3964
 20
86.89019999999999
 30
0.0
 11
20.4211
 21
85.2386
 31
0.0
  0
LINE
  5
4D
330
1E
100
AcDbEntity
  8
0
100
AcDbLine
 10
15.373
 20
89.36249999999999
 30
0.0
 11
17.3964
 21
86.89019999999999
 31
0.0
  0
LINE
  5
4E
330
1E
100
AcDbEntity
  8
0
100
AcDbLine
 10
15.3729
 20
95.19299999999999
 30
0.0
 11
17.3962
 21
97.6635
 31
0.0
  0
LINE
  5
4F
330
1E
100
AcDbEntity
  8
0
100
AcDbLine
 10
17.3962
 20
97.6635
 30
0.0
 11
20.42429999999999
 21
99.3134
 31
0.0
  0
LINE
  5
50
330
1E
100
AcDbEntity
  8
0
100
AcDbLine
 10
20.42429999999999
 20
99.3134
 30
0.0
 11
24.0111
 21
99.89170000000001
 31
0.0
  0
LINE
  5
51
330
1E
100
AcDbEntity
  8
0
100
AcDbLine
 10
18.63489999999999
 20
100.137
 30
0.0
 11
24.0149
 21
101.0049999999999
 31
0.0
  0
LINE
  5
52
330
1E
100
AcDbEntity
  8
0
100
AcDbLine
 10
27.92
 20
0.099999999999995
 30
0.0
 11
27.92
 21
-0.000000000000005
 31
0.0
  0
LINE
  5
53
330
1E
100
AcDbEntity
  8
0
100
AcDbLine
 10
27.92
 20
0.099999999999995
 30
0.0
 11
27.92
 21
39.9
 31
0.0
  0
LINE
  5
54
330
1E
100
AcDbEntity
  8
0
100
AcDbLine
 10
28.0
 20
39.9
 30
0.0
 11
28.0
 21
0.0999999999999951
 31
0.0
  0
LINE
  5
55
330
1E
100
AcDbEntity
  8
0
100
AcDbLine
 10
28.0
 20
0.099999999999995
 30
0.0
 11
28.0
 21
39.9
 31
0.0
  0
LINE
  5
56
330
1E
100
AcDbEntity
  8
0
100
AcDbLine
 10
27.92
 20
39.9
 30
0.0
 11
27.92
 21
40.0
 31
0.0
  0
LINE
  5
57
330
1E
100
AcDbEntity
  8
0
100
AcDbLine
 10
27.92
 20
39.9
 30
0.0
 11
27.92
 21
0.0999999999999951
 31
0.0
  0
LINE
  5
58
330
1E
100
AcDbEntity
  8
0
100
AcDbLine
 10
27.92
 20
40.0
 30
0.0
 11
28.0
 21
39.9
 31
0.0
  0
LINE
  5
59
330
1E
100
AcDbEntity
  8
0
100
AcDbLine
 10
27.92
 20
40.0
 30
0.0
 11
27.92
 21
39.9
 31
0.0
  0
LINE
  5
5A
330
1E
100
AcDbEntity
  8
0
100
AcDbLine
 10
33.8921
 20
81.49449999999999
 30
0.0
 11
36.9269
 21
85.20000000000001
 31
0.0
  0
LINE
  5
5B
330
1E
100
AcDbEntity
  8
0
100
AcDbLine
 10
29.4018
 20
79.03719999999999
 30
0.0
 11
33.8921
 21
81.49449999999999
 31
0.0
  0
LINE
  5
5C
330
1E
100
AcDbEntity
  8
0
100
AcDbLine
 10
24.0111
 20
99.89170000000001
 30
0.0
 11
27.5681
 21
99.3102
 31
0.0
  0
LINE
  5
5D
330
1E
100
AcDbEntity
  8
0
100
AcDbLine
 10
24.0149
 20
101.0049999999999
 30
0.0
 11
29.35
 21
100.133
 31
0.0
  0
LINE
  5
5E
330
1E
100
AcDbEntity
  8
0
100
AcDbLine
 10
27.5681
 20
99.3102
 30
0.0
 11
30.5962
 21
97.6575
 31
0.0
  0
LINE
  5
5F
330
1E
100
AcDbEntity
  8
0
100
AcDbLine
 10
36.9269
 20
85.20000000000001
 30
0.0
 11
37.9926
 21
89.56299999999998
 31
0.0
  0
LINE
  5
60
330
1E
100
AcDbEntity
  8
0
100
AcDbLine
 10
29.35
 20
100.133
 30
0.0
 11
33.89199999999999
 21
97.65360000000001
 31
0.0
  0
LINE
  5
61
330
1E
100
AcDbEntity
  8
0
100
AcDbLine
 10
30.5962
 20
97.6575
 30
0.0
 11
32.6196
 21
95.1852
 31
0.0
  0
LINE
  5
62
330
1E
100
AcDbEntity
  8
0
100
AcDbLine
 10
32.6196
 20
95.1852
 30
0.0
 11
33.3301
 21
92.2635
 31
0.0
  0
LINE
  5
63
330
1E
100
AcDbEntity
  8
0
100
AcDbLine
 10
33.89199999999999
 20
97.65360000000001
 30
0.0
 11
36.9269
 21
93.94530000000001
 31
0.0
  0
LINE
  5
64
330
1E
100
AcDbEntity
  8
0
100
AcDbLine
 10
36.9269
 20
93.94530000000001
 30
0.0
 11
37.9926
 21
89.56299999999998
 31
0.0
  0
LINE
  5
65
330
1E
100
AcDbEntity
  8
0
100
AcDbLine
 10
33.8994
 20
103.0429999999999
 30
0.0
 11
36.9343
 21
99.33520000000001
 31
0.0
  0
LINE
  5
66
330
1E
100
AcDbEntity
  8
0
100
AcDbLine
 10
36.9343
 20
99.33520000000001
 30
0.0
 11
38.0
 21
94.9529
 31
0.0
  0
LINE
  5
67
330
1E
100
AcDbEntity
  8
0
100
AcDbLine
 10
32.6196
 20
89.3546
 30
0.0
 11
33.3301
 21
92.2635
 31
0.0
  0
LINE
  5
68
330
1E
100
AcDbEntity
  8
0
100
AcDbLine
 10
30.5963
 20
86.8842
 30
0.0
 11
32.6196
 21
89.3546
 31
0.0
  0
LINE
  5
69
330
1E
100
AcDbEntity
  8
0
100
AcDbLine
 10
27.6026
 20
85.24590000000001
 30
0.0
 11
30.5963
 21
86.8842
 31
0.0
  0
LINE
  5
6A
330
1E
100
AcDbEntity
  8
0
100
AcDbLine
 10
23.9963
 20
84.656
 30
0.0
 11
27.6026
 21
85.24590000000001
 31
0.0
  0
LINE
  5
6B
330
1E
100
AcDbEntity
  8
0
100
AcDbLine
 10
23.99259999999999
 20
78.15229999999999
 30
0.0
 11
29.4018
 21
79.03719999999999
 31
0.0
  0
LINE
  5
6C
330
1E
100
AcDbEntity
  8
0
100
AcDbLine
 10
33.18439999999999
 20
0.0014499999999949
 30
0.0
 11
37.3337
 21
0.0032089999999947
 31
0.0
  0
LINE
  5
6D
330
1E
100
AcDbEntity
  8
0
100
AcDbLine
 10
14.81559999999999
 20
0.0014499999999949
 30
0.0
 11
19.31779999999999
 21
0.0003659999999949
 31
0.0
  0
LINE
  5
6E
330
1E
100
AcDbEntity
  8
0
100
AcDbLine
 10
19.31779999999999
 20
0.0003659999999949
 30
0.0
 11
20.07975484862239
 21
0.0003064392220282
 31
0.0
  0
LINE
  5
6F
330
1E
100
AcDbEntity
  8
0
100
AcDbLine
 10
19.31779999999999
 20
0.0003659999999949
 30
0.0
 11
20.07975484862239
 21
0.0003064392220282
 31
0.0
  0
LINE
  5
70
330
1E
100
AcDbEntity
  8
0
100
AcDbLine
 10
14.1005
 20
103.2559999999999
 30
0.0
 11
18.64239999999999
 21
105.732
 31
0.0
  0
LINE
  5
71
330
1E
100
AcDbEntity
  8
0
100
AcDbLine
 10
18.6423
 20
105.5269999999999
 30
0.0
 11
24.0223
 21
106.3949999999999
 31
0.0
  0
LINE
  5
72
330
1E
100
AcDbEntity
  8
0
100
AcDbLine
 10
24.0223
 20
106.3949999999999
 30
0.0
 11
29.3575
 21
105.522
 31
0.0
  0
LINE
  5
73
330
1E
100
AcDbEntity
  8
0
100
AcDbLine
 10
29.3575
 20
105.522
 30
0.0
 11
33.8994
 21
103.0429999999999
 31
0.0
  0
LINE
  5
74
330
1E
100
AcDbEntity
  8
0
100
AcDbLine
 10
18.64239999999999
 20
105.732
 30
0.0
 11
24.0
 21
106.6019999999999
 31
0.0
  0
LINE
  5
75
330
1E
100
AcDbEntity
  8
0
100
AcDbLine
 10
0.4612000000000011
 20
176.477
 30
0.0
 11
1.8269
 21
176.474
 31
0.0
  0
LINE
  5
76
330
1E
100
AcDbEntity
  8
0
100
AcDbLine
 10
0.0000000000000009
 20
176.4809999999999
 30
0.0
 11
0.500000000000001
 21
176.9809999999999
 31
0.0
  0
LINE
  5
77
330
1E
100
AcDbEntity
  8
0
100
AcDbLine
 10
0.0000000000000009
 20
176.4809999999999
 30
0.0
 11
0.4612000000000011
 21
176.477
 31
0.0
  0
LINE
  5
78
330
1E
100
AcDbEntity
  8
0
100
AcDbLine
 10
0.0000000000000009
 20
176.4809999999999
 30
0.0
 11
0.0000000000000009
 21
0.0190429999999983
 31
0.0
  0
LINE
  5
85
330
1E
100
AcDbEntity
  8
0
100
AcDbLine
 10
1.8269
 20
176.474
 30
0.0
 11
4.044699999999999
 21
176.4699999999999
 31
0.0
  0
LINE
  5
86
330
1E
100
AcDbEntity
  8
0
100
AcDbLine
 10
4.044699999999999
 20
176.4699999999999
 30
0.0
 11
7.029399999999999
 21
176.467
 31
0.0
  0
LINE
  5
87
330
1E
100
AcDbEntity
  8
0
100
AcDbLine
 10
7.029399999999999
 20
176.467
 30
0.0
 11
10.66629999999999
 21
176.465
 31
0.0
  0
LINE
  5
88
330
1E
100
AcDbEntity
  8
0
100
AcDbLine
 10
10.66629999999999
 20
176.465
 30
0.0
 11
14.81559999999999
 21
176.4629999999999
 31
0.0
  0
LINE
  5
89
330
1E
100
AcDbEntity
  8
0
100
AcDbLine
 10
14.81559999999999
 20
176.4629999999999
 30
0.0
 11
19.31779999999999
 21
176.462
 31
0.0
  0
LINE
  5
8A
330
1E
100
AcDbEntity
  8
0
100
AcDbLine
 10
19.31779999999999
 20
176.462
 30
0.0
 11
24.0
 21
176.462
 31
0.0
  0
LINE
  5
8E
330
1E
100
AcDbEntity
  8
0
100
AcDbLine
 10
24.0
 20
176.462
 30
0.0
 11
28.6822
 21
176.462
 31
0.0
  0
LINE
  5
8F
330
1E
100
AcDbEntity
  8
0
100
AcDbLine
 10
0.9515000000000009
 20
176.977
 30
0.0
 11
2.2888
 21
176.974
 31
0.0
  0
LINE
  5
90
330
1E
100
AcDbEntity
  8
0
100
AcDbLine
 10
2.2888
 20
176.974
 30
0.0
 11
4.460499999999999
 21
176.9709999999999
 31
0.0
  0
LINE
  5
91
330
1E
100
AcDbEntity
  8
0
100
AcDbLine
 10
4.460499999999999
 20
176.9709999999999
 30
0.0
 11
7.382999999999999
 21
176.9679999999999
 31
0.0
  0
LINE
  5
92
330
1E
100
AcDbEntity
  8
0
100
AcDbLine
 10
7.382999999999999
 20
176.9679999999999
 30
0.0
 11
10.9441
 21
176.965
 31
0.0
  0
LINE
  5
93
330
1E
100
AcDbEntity
  8
0
100
AcDbLine
 10
10.9441
 20
176.965
 30
0.0
 11
15.0069
 21
176.964
 31
0.0
  0
LINE
  5
94
330
1E
100
AcDbEntity
  8
0
100
AcDbLine
 10
15.0069
 20
176.964
 30
0.0
 11
19.4154
 21
176.963
 31
0.0
  0
LINE
  5
95
330
1E
100
AcDbEntity
  8
0
100
AcDbLine
 10
19.4154
 20
176.963
 30
0.0
 11
24.0
 21
176.962
 31
0.0
  0
LINE
  5
96
330
1E
100
AcDbEntity
  8
0
100
AcDbLine
 10
24.0
 20
176.962
 30
0.0
 11
28.5846
 21
176.963
 31
0.0
  0
LINE
  5
97
330
1E
100
AcDbEntity
  8
0
100
AcDbLine
 10
28.6822
 20
176.462
 30
0.0
 11
33.18439999999999
 21
176.4629999999999
 31
0.0
  0
LINE
  5
98
330
1E
100
AcDbEntity
  8
0
100
AcDbLine
 10
28.5846
 20
176.963
 30
0.0
 11
32.9931
 21
176.964
 31
0.0
  0
LINE
  5
99
330
1E
100
AcDbEntity
  8
0
100
AcDbLine
 10
28.5846
 20
176.999
 30
0.0
 11
32.9931
 21
176.9979999999999
 31
0.0
  0
LINE
  5
9A
330
1E
100
AcDbEntity
  8
0
100
AcDbLine
 10
24.0
 20
177.0
 30
0.0
 11
28.5846
 21
176.999
 31
0.0
  0
LINE
  5
9B
330
1E
100
AcDbEntity
  8
0
100
AcDbLine
 10
19.4154
 20
176.999
 30
0.0
 11
24.0
 21
177.0
 31
0.0
  0
LINE
  5
9C
330
1E
100
AcDbEntity
  8
0
100
AcDbLine
 10
15.0069
 20
176.9979999999999
 30
0.0
 11
19.4154
 21
176.999
 31
0.0
  0
LINE
  5
9D
330
1E
100
AcDbEntity
  8
0
100
AcDbLine
 10
10.9441
 20
176.997
 30
0.0
 11
15.0069
 21
176.9979999999999
 31
0.0
  0
LINE
  5
9E
330
1E
100
AcDbEntity
  8
0
100
AcDbLine
 10
7.382999999999999
 20
176.994
 30
0.0
 11
10.9441
 21
176.997
 31
0.0
  0
LINE
  5
9F
330
1E
100
AcDbEntity
  8
0
100
AcDbLine
 10
4.460499999999999
 20
176.9909999999999
 30
0.0
 11
7.382999999999999
 21
176.994
 31
0.0
  0
LINE
  5
A0
330
1E
100
AcDbEntity
  8
0
100
AcDbLine
 10
2.2888
 20
176.988
 30
0.0
 11
4.460499999999999
 21
176.9909999999999
 31
0.0
  0
LINE
  5
A1
330
1E
100
AcDbEntity
  8
0
100
AcDbLine
 10
0.9515000000000009
 20
176.985
 30
0.0
 11
2.2888
 21
176.988
 31
0.0
  0
LINE
  5
A2
330
1E
100
AcDbEntity
  8
0
100
AcDbLine
 10
0.500000000000001
 20
176.9809999999999
 30
0.0
 11
0.9515000000000009
 21
176.985
 31
0.0
  0
LINE
  5
A3
330
1E
100
AcDbEntity
  8
0
100
AcDbLine
 10
0.500000000000001
 20
176.9809999999999
 30
0.0
 11
0.9515000000000009
 21
176.977
 31
0.0
  0
LINE
  5
A4
330
1E
100
AcDbEntity
  8
0
100
AcDbLine
 10
24.0
 20
106.6019999999999
 30
0.0
 11
29.3576
 21
105.732
 31
0.0
  0
LINE
  5
A5
330
1E
100
AcDbEntity
  8
0
100
AcDbLine
 10
33.18439999999999
 20
176.4629999999999
 30
0.0
 11
37.3337
 21
176.465
 31
0.0
  0
LINE
  5
A6
330
1E
100
AcDbEntity
  8
0
100
AcDbLine
 10
32.9931
 20
176.964
 30
0.0
 11
37.0559
 21
176.965
 31
0.0
  0
LINE
  5
A7
330
1E
100
AcDbEntity
  8
0
100
AcDbLine
 10
32.9931
 20
176.9979999999999
 30
0.0
 11
37.0559
 21
176.997
 31
0.0
  0
LINE
  5
A8
330
1E
100
AcDbEntity
  8
0
100
AcDbLine
 10
29.3576
 20
105.732
 30
0.0
 11
33.8995
 21
103.2559999999999
 31
0.0
  0
LINE
  5
A9
330
1E
100
AcDbEntity
  8
0
100
AcDbLine
 10
33.8995
 20
103.2559999999999
 30
0.0
 11
36.9343
 21
99.5486
 31
0.0
  0
LINE
  5
AA
330
1E
100
AcDbEntity
  8
0
100
AcDbLine
 10
37.9926
 20
89.56299999999998
 30
0.0
 11
38.0
 21
94.9529
 31
0.0
  0
LINE
  5
AB
330
1E
100
AcDbEntity
  8
0
100
AcDbLine
 10
37.3337
 20
0.0032089999999947
 30
0.0
 11
40.97059999999999
 21
0.0055779999999946
 31
0.0
  0
LINE
  5
AC
330
1E
100
AcDbEntity
  8
0
100
AcDbLine
 10
47.5388
 20
0.0153279999999938
 30
0.0
 11
48.0
 21
0.0190429999999935
 31
0.0
  0
LINE
  5
AD
330
1E
100
AcDbEntity
  8
0
100
AcDbLine
 10
48.0
 20
20.8118
 30
0.0
 11
48.0
 21
21.7647
 31
0.0
  0
LINE
  5
AE
330
1E
100
AcDbEntity
  8
0
100
AcDbLine
 10
48.0
 20
20.8118
 30
0.0
 11
48.0
 21
20.2118
 31
0.0
  0
LINE
  5
AF
330
1E
100
AcDbEntity
  8
0
100
AcDbLine
 10
48.0
 20
20.2118
 30
0.0
 11
48.0
 21
20.8118
 31
0.0
  0
LINE
  5
B0
330
1E
100
AcDbEntity
  8
0
100
AcDbLine
 10
48.0
 20
20.2118
 30
0.0
 11
48.0
 21
20.0
 31
0.0
  0
LINE
  5
B1
330
1E
100
AcDbEntity
  8
0
100
AcDbLine
 10
48.0
 20
20.0
 30
0.0
 11
48.0
 21
20.2118
 31
0.0
  0
LINE
  5
B2
330
1E
100
AcDbEntity
  8
0
100
AcDbLine
 10
48.0
 20
20.0
 30
0.0
 11
61.65379999999999
 21
20.0
 31
0.0
  0
LINE
  5
B3
330
1E
100
AcDbEntity
  8
0
100
AcDbLine
 10
48.0
 20
21.7647
 30
0.0
 11
48.0
 21
23.0177
 31
0.0
  0
LINE
  5
B4
330
1E
100
AcDbEntity
  8
0
100
AcDbLine
 10
48.0
 20
21.7647
 30
0.0
 11
48.0
 21
20.8118
 31
0.0
  0
LINE
  5
B5
330
1E
100
AcDbEntity
  8
0
100
AcDbLine
 10
48.0
 20
28.98229999999999
 30
0.0
 11
48.0
 21
30.2353
 31
0.0
  0
LINE
  5
B6
330
1E
100
AcDbEntity
  8
0
100
AcDbLine
 10
48.0
 20
28.98229999999999
 30
0.0
 11
48.0
 21
27.5353
 31
0.0
  0
LINE
  5
B7
330
1E
100
AcDbEntity
  8
0
100
AcDbLine
 10
48.0
 20
27.5353
 30
0.0
 11
48.0
 21
28.98229999999999
 31
0.0
  0
LINE
  5
B8
330
1E
100
AcDbEntity
  8
0
100
AcDbLine
 10
48.0
 20
27.5353
 30
0.0
 11
48.0
 21
26.0
 31
0.0
  0
LINE
  5
B9
330
1E
100
AcDbEntity
  8
0
100
AcDbLine
 10
48.0
 20
30.2353
 30
0.0
 11
48.0
 21
31.18819999999999
 31
0.0
  0
LINE
  5
BA
330
1E
100
AcDbEntity
  8
0
100
AcDbLine
 10
48.0
 20
30.2353
 30
0.0
 11
48.0
 21
28.98229999999999
 31
0.0
  0
LINE
  5
BB
330
1E
100
AcDbEntity
  8
0
100
AcDbLine
 10
48.0
 20
31.18819999999999
 30
0.0
 11
48.0
 21
31.78819999999999
 31
0.0
  0
LINE
  5
BC
330
1E
100
AcDbEntity
  8
0
100
AcDbLine
 10
48.0
 20
31.18819999999999
 30
0.0
 11
48.0
 21
30.2353
 31
0.0
  0
LINE
  5
BD
330
1E
100
AcDbEntity
  8
0
100
AcDbLine
 10
48.0
 20
31.78819999999999
 30
0.0
 11
48.0
 21
32.0
 31
0.0
  0
LINE
  5
BE
330
1E
100
AcDbEntity
  8
0
100
AcDbLine
 10
48.0
 20
31.78819999999999
 30
0.0
 11
48.0
 21
31.18819999999999
 31
0.0
  0
LINE
  5
BF
330
1E
100
AcDbEntity
  8
0
100
AcDbLine
 10
48.0
 20
32.0
 30
0.0
 11
61.0
 21
31.9898581464501
 31
0.0
  0
LINE
  5
C0
330
1E
100
AcDbEntity
  8
0
100
AcDbLine
 10
48.0
 20
32.0
 30
0.0
 11
48.0
 21
31.78819999999999
 31
0.0
  0
LINE
  5
C1
330
1E
100
AcDbEntity
  8
0
100
AcDbLine
 10
48.0
 20
26.0
 30
0.0
 11
48.0
 21
24.4647
 31
0.0
  0
LINE
  5
C2
330
1E
100
AcDbEntity
  8
0
100
AcDbLine
 10
48.0
 20
26.0
 30
0.0
 11
48.0
 21
27.5353
 31
0.0
  0
LINE
  5
C3
330
1E
100
AcDbEntity
  8
0
100
AcDbLine
 10
48.0
 20
23.0177
 30
0.0
 11
48.0
 21
24.4647
 31
0.0
  0
LINE
  5
C4
330
1E
100
AcDbEntity
  8
0
100
AcDbLine
 10
48.0
 20
23.0177
 30
0.0
 11
48.0
 21
21.7647
 31
0.0
  0
LINE
  5
C5
330
1E
100
AcDbEntity
  8
0
100
AcDbLine
 10
48.0
 20
24.4647
 30
0.0
 11
48.0
 21
26.0
 31
0.0
  0
LINE
  5
C6
330
1E
100
AcDbEntity
  8
0
100
AcDbLine
 10
48.0
 20
24.4647
 30
0.0
 11
48.0
 21
23.0177
 31
0.0
  0
LINE
  5
C7
330
1E
100
AcDbEntity
  8
0
100
AcDbLine
 10
48.0
 20
22.39999999999999
 30
0.0
 11
48.0
 21
0.0190429999999983
 31
0.0
  0
LINE
  5
C8
330
1E
100
AcDbEntity
  8
0
100
AcDbLine
 10
61.0
 20
32.0
 30
0.0
 11
61.65379999999999
 21
32.0
 31
0.0
  0
LINE
  5
C9
330
1E
100
AcDbEntity
  8
0
100
AcDbLine
 10
61.0
 20
48.87019999999999
 30
0.0
 11
61.0
 21
31.9898581464501
 31
0.0
  0
LINE
  5
CA
330
1E
100
AcDbEntity
  8
0
100
AcDbLine
 10
57.0
 20
32.0
 30
0.0
 11
57.0
 21
48.87019999999999
 31
0.0
  0
LINE
  5
CB
330
1E
100
AcDbEntity
  8
0
100
AcDbLine
 10
61.8846
 20
20.8824
 30
0.0
 11
61.8846
 21
21.8176
 31
0.0
  0
LINE
  5
CC
330
1E
100
AcDbEntity
  8
0
100
AcDbLine
 10
61.8846
 20
20.8824
 30
0.0
 11
61.8846
 21
20.3
 31
0.0
  0
LINE
  5
CD
330
1E
100
AcDbEntity
  8
0
100
AcDbLine
 10
61.8846
 20
20.3
 30
0.0
 11
61.8846
 21
20.8824
 31
0.0
  0
LINE
  5
CE
330
1E
100
AcDbEntity
  8
0
100
AcDbLine
 10
61.8846
 20
20.3
 30
0.0
 11
61.8846
 21
20.0882
 31
0.0
  0
LINE
  5
CF
330
1E
100
AcDbEntity
  8
0
100
AcDbLine
 10
61.65379999999999
 20
20.0
 30
0.0
 11
61.8846
 21
20.0882
 31
0.0
  0
LINE
  5
D0
330
1E
100
AcDbEntity
  8
0
100
AcDbLine
 10
61.8846
 20
20.0882
 30
0.0
 11
61.8846
 21
20.3
 31
0.0
  0
LINE
  5
D1
330
1E
100
AcDbEntity
  8
0
100
AcDbLine
 10
61.8846
 20
20.0882
 30
0.0
 11
62.0
 21
20.2647
 31
0.0
  0
LINE
  5
D2
330
1E
100
AcDbEntity
  8
0
100
AcDbLine
 10
61.8846
 20
21.8176
 30
0.0
 11
61.8846
 21
23.0529
 31
0.0
  0
LINE
  5
D3
330
1E
100
AcDbEntity
  8
0
100
AcDbLine
 10
61.8846
 20
21.8176
 30
0.0
 11
61.8846
 21
20.8824
 31
0.0
  0
LINE
  5
D4
330
1E
100
AcDbEntity
  8
0
100
AcDbLine
 10
62.0
 20
21.04119999999999
 30
0.0
 11
62.0
 21
21.94119999999999
 31
0.0
  0
LINE
  5
D5
330
1E
100
AcDbEntity
  8
0
100
AcDbLine
 10
62.0
 20
21.04119999999999
 30
0.0
 11
62.0
 21
20.4765
 31
0.0
  0
LINE
  5
D6
330
1E
100
AcDbEntity
  8
0
100
AcDbLine
 10
62.0
 20
20.4765
 30
0.0
 11
62.0
 21
21.04119999999999
 31
0.0
  0
LINE
  5
D7
330
1E
100
AcDbEntity
  8
0
100
AcDbLine
 10
62.0
 20
20.4765
 30
0.0
 11
62.0
 21
20.2647
 31
0.0
  0
LINE
  5
D8
330
1E
100
AcDbEntity
  8
0
100
AcDbLine
 10
62.0
 20
20.2647
 30
0.0
 11
62.0
 21
20.4765
 31
0.0
  0
LINE
  5
D9
330
1E
100
AcDbEntity
  8
0
100
AcDbLine
 10
62.0
 20
21.94119999999999
 30
0.0
 11
62.0
 21
23.1412
 31
0.0
  0
LINE
  5
DA
330
1E
100
AcDbEntity
  8
0
100
AcDbLine
 10
62.0
 20
21.94119999999999
 30
0.0
 11
62.0
 21
21.04119999999999
 31
0.0
  0
LINE
  5
DB
330
1E
100
AcDbEntity
  8
0
100
AcDbLine
 10
62.0
 20
23.1412
 30
0.0
 11
62.0
 21
24.5177
 31
0.0
  0
LINE
  5
DC
330
1E
100
AcDbEntity
  8
0
100
AcDbLine
 10
62.0
 20
23.1412
 30
0.0
 11
62.0
 21
21.94119999999999
 31
0.0
  0
LINE
  5
DD
330
1E
100
AcDbEntity
  8
0
100
AcDbLine
 10
61.8846
 20
23.0529
 30
0.0
 11
61.8846
 21
24.4823
 31
0.0
  0
LINE
  5
DE
330
1E
100
AcDbEntity
  8
0
100
AcDbLine
 10
61.8846
 20
23.0529
 30
0.0
 11
61.8846
 21
21.8176
 31
0.0
  0
LINE
  5
DF
330
1E
100
AcDbEntity
  8
0
100
AcDbLine
 10
61.8846
 20
28.94709999999999
 30
0.0
 11
61.8846
 21
30.1824
 31
0.0
  0
LINE
  5
E0
330
1E
100
AcDbEntity
  8
0
100
AcDbLine
 10
61.8846
 20
28.94709999999999
 30
0.0
 11
61.8846
 21
27.5177
 31
0.0
  0
LINE
  5
E1
330
1E
100
AcDbEntity
  8
0
100
AcDbLine
 10
61.8846
 20
27.5177
 30
0.0
 11
61.8846
 21
28.94709999999999
 31
0.0
  0
LINE
  5
E2
330
1E
100
AcDbEntity
  8
0
100
AcDbLine
 10
61.8846
 20
27.5177
 30
0.0
 11
61.8846
 21
26.0
 31
0.0
  0
LINE
  5
E3
330
1E
100
AcDbEntity
  8
0
100
AcDbLine
 10
61.8846
 20
30.1824
 30
0.0
 11
61.8846
 21
31.1176
 31
0.0
  0
LINE
  5
E4
330
1E
100
AcDbEntity
  8
0
100
AcDbLine
 10
61.8846
 20
30.1824
 30
0.0
 11
61.8846
 21
28.94709999999999
 31
0.0
  0
LINE
  5
E5
330
1E
100
AcDbEntity
  8
0
100
AcDbLine
 10
61.8846
 20
31.1176
 30
0.0
 11
61.8846
 21
31.69999999999999
 31
0.0
  0
LINE
  5
E6
330
1E
100
AcDbEntity
  8
0
100
AcDbLine
 10
61.8846
 20
31.1176
 30
0.0
 11
61.8846
 21
30.1824
 31
0.0
  0
LINE
  5
E7
330
1E
100
AcDbEntity
  8
0
100
AcDbLine
 10
61.8846
 20
31.69999999999999
 30
0.0
 11
61.8846
 21
31.9118
 31
0.0
  0
LINE
  5
E8
330
1E
100
AcDbEntity
  8
0
100
AcDbLine
 10
61.8846
 20
31.69999999999999
 30
0.0
 11
61.8846
 21
31.1176
 31
0.0
  0
LINE
  5
E9
330
1E
100
AcDbEntity
  8
0
100
AcDbLine
 10
61.8846
 20
31.9118
 30
0.0
 11
62.0
 21
31.73529999999999
 31
0.0
  0
LINE
  5
EA
330
1E
100
AcDbEntity
  8
0
100
AcDbLine
 10
61.8846
 20
31.9118
 30
0.0
 11
61.8846
 21
31.69999999999999
 31
0.0
  0
LINE
  5
EB
330
1E
100
AcDbEntity
  8
0
100
AcDbLine
 10
61.65379999999999
 20
32.0
 30
0.0
 11
61.8846
 21
31.9118
 31
0.0
  0
LINE
  5
EC
330
1E
100
AcDbEntity
  8
0
100
AcDbLine
 10
62.0
 20
28.8588
 30
0.0
 11
62.0
 21
30.0588
 31
0.0
  0
LINE
  5
ED
330
1E
100
AcDbEntity
  8
0
100
AcDbLine
 10
62.0
 20
28.8588
 30
0.0
 11
62.0
 21
27.48229999999999
 31
0.0
  0
LINE
  5
EE
330
1E
100
AcDbEntity
  8
0
100
AcDbLine
 10
62.0
 20
27.48229999999999
 30
0.0
 11
62.0
 21
28.8588
 31
0.0
  0
LINE
  5
EF
330
1E
100
AcDbEntity
  8
0
100
AcDbLine
 10
62.0
 20
27.48229999999999
 30
0.0
 11
62.0
 21
26.0
 31
0.0
  0
LINE
  5
F0
330
1E
100
AcDbEntity
  8
0
100
AcDbLine
 10
62.0
 20
30.0588
 30
0.0
 11
62.0
 21
30.9588
 31
0.0
  0
LINE
  5
F1
330
1E
100
AcDbEntity
  8
0
100
AcDbLine
 10
62.0
 20
30.0588
 30
0.0
 11
62.0
 21
28.8588
 31
0.0
  0
LINE
  5
F2
330
1E
100
AcDbEntity
  8
0
100
AcDbLine
 10
62.0
 20
30.9588
 30
0.0
 11
62.0
 21
31.5235
 31
0.0
  0
LINE
  5
F3
330
1E
100
AcDbEntity
  8
0
100
AcDbLine
 10
62.0
 20
30.9588
 30
0.0
 11
62.0
 21
30.0588
 31
0.0
  0
LINE
  5
F4
330
1E
100
AcDbEntity
  8
0
100
AcDbLine
 10
62.0
 20
31.73529999999999
 30
0.0
 11
62.0
 21
31.5235
 31
0.0
  0
LINE
  5
F5
330
1E
100
AcDbEntity
  8
0
100
AcDbLine
 10
62.0
 20
31.5235
 30
0.0
 11
62.0
 21
31.73529999999999
 31
0.0
  0
LINE
  5
F6
330
1E
100
AcDbEntity
  8
0
100
AcDbLine
 10
62.0
 20
31.5235
 30
0.0
 11
62.0
 21
30.9588
 31
0.0
  0
LINE
  5
F7
330
1E
100
AcDbEntity
  8
0
100
AcDbLine
 10
62.0
 20
26.0
 30
0.0
 11
62.0
 21
24.5177
 31
0.0
  0
LINE
  5
F8
330
1E
100
AcDbEntity
  8
0
100
AcDbLine
 10
62.0
 20
26.0
 30
0.0
 11
62.0
 21
27.48229999999999
 31
0.0
  0
LINE
  5
F9
330
1E
100
AcDbEntity
  8
0
100
AcDbLine
 10
62.0
 20
24.5177
 30
0.0
 11
62.0
 21
26.0
 31
0.0
  0
LINE
  5
FA
330
1E
100
AcDbEntity
  8
0
100
AcDbLine
 10
62.0
 20
24.5177
 30
0.0
 11
62.0
 21
23.1412
 31
0.0
  0
LINE
  5
FB
330
1E
100
AcDbEntity
  8
0
100
AcDbLine
 10
61.8846
 20
26.0
 30
0.0
 11
61.8846
 21
24.4823
 31
0.0
  0
LINE
  5
FC
330
1E
100
AcDbEntity
  8
0
100
AcDbLine
 10
61.8846
 20
26.0
 30
0.0
 11
61.8846
 21
27.5177
 31
0.0
  0
LINE
  5
FD
330
1E
100
AcDbEntity
  8
0
100
AcDbLine
 10
61.8846
 20
24.4823
 30
0.0
 11
61.8846
 21
26.0
 31
0.0
  0
LINE
  5
FE
330
1E
100
AcDbEntity
  8
0
100
AcDbLine
 10
61.8846
 20
24.4823
 30
0.0
 11
61.8846
 21
23.0529
 31
0.0
  0
LINE
  5
FF
330
1E
100
AcDbEntity
  8
0
100
AcDbLine
 10
61.0
 20
31.9898581464501
 30
0.0
 11
61.0
 21
48.87019999999999
 31
0.0
  0
LINE
  5
100
330
1E
100
AcDbEntity
  8
0
100
AcDbLine
 10
60.7059
 20
48.95669999999999
 30
0.0
 11
60.89999999999999
 21
48.95669999999999
 31
0.0
  0
LINE
  5
101
330
1E
100
AcDbEntity
  8
0
100
AcDbLine
 10
60.89999999999999
 20
48.95669999999999
 30
0.0
 11
60.97059999999999
 21
48.95669999999999
 31
0.0
  0
LINE
  5
102
330
1E
100
AcDbEntity
  8
0
100
AcDbLine
 10
60.97059999999999
 20
48.95669999999999
 30
0.0
 11
61.0
 21
48.87019999999999
 31
0.0
  0
LINE
  5
103
330
1E
100
AcDbEntity
  8
0
100
AcDbLine
 10
57.2941
 20
48.95669999999999
 30
0.0
 11
57.6059
 21
48.95669999999999
 31
0.0
  0
LINE
  5
104
330
1E
100
AcDbEntity
  8
0
100
AcDbLine
 10
57.6059
 20
48.95669999999999
 30
0.0
 11
58.0176
 21
48.95669999999999
 31
0.0
  0
LINE
  5
105
330
1E
100
AcDbEntity
  8
0
100
AcDbLine
 10
60.3941
 20
48.95669999999999
 30
0.0
 11
60.7059
 21
48.95669999999999
 31
0.0
  0
LINE
  5
106
330
1E
100
AcDbEntity
  8
0
100
AcDbLine
 10
59.9824
 20
48.95669999999999
 30
0.0
 11
60.3941
 21
48.95669999999999
 31
0.0
  0
LINE
  5
107
330
1E
100
AcDbEntity
  8
0
100
AcDbLine
 10
59.5059
 20
48.95669999999999
 30
0.0
 11
59.9824
 21
48.95669999999999
 31
0.0
  0
LINE
  5
108
330
1E
100
AcDbEntity
  8
0
100
AcDbLine
 10
59.0
 20
48.95669999999999
 30
0.0
 11
59.5059
 21
48.95669999999999
 31
0.0
  0
LINE
  5
109
330
1E
100
AcDbEntity
  8
0
100
AcDbLine
 10
58.0176
 20
48.95669999999999
 30
0.0
 11
58.4941
 21
48.95669999999999
 31
0.0
  0
LINE
  5
10A
330
1E
100
AcDbEntity
  8
0
100
AcDbLine
 10
57.6471
 20
49.0
 30
0.0
 11
58.0471
 21
49.0
 31
0.0
  0
LINE
  5
10B
330
1E
100
AcDbEntity
  8
0
100
AcDbLine
 10
58.0471
 20
49.0
 30
0.0
 11
58.5059
 21
49.0
 31
0.0
  0
LINE
  5
10C
330
1E
100
AcDbEntity
  8
0
100
AcDbLine
 10
60.35289999999999
 20
49.0
 30
0.0
 11
60.6529
 21
49.0
 31
0.0
  0
LINE
  5
10D
330
1E
100
AcDbEntity
  8
0
100
AcDbLine
 10
60.6529
 20
49.0
 30
0.0
 11
60.8412
 21
49.0
 31
0.0
  0
LINE
  5
10E
330
1E
100
AcDbEntity
  8
0
100
AcDbLine
 10
60.9118
 20
49.0
 30
0.0
 11
60.97059999999999
 21
48.95669999999999
 31
0.0
  0
LINE
  5
10F
330
1E
100
AcDbEntity
  8
0
100
AcDbLine
 10
60.8412
 20
49.0
 30
0.0
 11
60.9118
 21
49.0
 31
0.0
  0
LINE
  5
110
330
1E
100
AcDbEntity
  8
0
100
AcDbLine
 10
59.9529
 20
49.0
 30
0.0
 11
60.35289999999999
 21
49.0
 31
0.0
  0
LINE
  5
111
330
1E
100
AcDbEntity
  8
0
100
AcDbLine
 10
59.4941
 20
49.0
 30
0.0
 11
59.9529
 21
49.0
 31
0.0
  0
LINE
  5
112
330
1E
100
AcDbEntity
  8
0
100
AcDbLine
 10
59.0
 20
49.0
 30
0.0
 11
59.4941
 21
49.0
 31
0.0
  0
LINE
  5
113
330
1E
100
AcDbEntity
  8
0
100
AcDbLine
 10
58.5059
 20
49.0
 30
0.0
 11
59.0
 21
49.0
 31
0.0
  0
LINE
  5
114
330
1E
100
AcDbEntity
  8
0
100
AcDbLine
 10
58.4941
 20
48.95669999999999
 30
0.0
 11
59.0
 21
48.95669999999999
 31
0.0
  0
LINE
  5
115
330
1E
100
AcDbEntity
  8
0
100
AcDbLine
 10
57.34709999999999
 20
49.0
 30
0.0
 11
57.6471
 21
49.0
 31
0.0
  0
LINE
  5
116
330
1E
100
AcDbEntity
  8
0
100
AcDbLine
 10
57.1588
 20
49.0
 30
0.0
 11
57.34709999999999
 21
49.0
 31
0.0
  0
LINE
  5
117
330
1E
100
AcDbEntity
  8
0
100
AcDbLine
 10
57.0882
 20
49.0
 30
0.0
 11
57.1588
 21
49.0
 31
0.0
  0
LINE
  5
118
330
1E
100
AcDbEntity
  8
0
100
AcDbLine
 10
57.1
 20
48.95669999999999
 30
0.0
 11
57.2941
 21
48.95669999999999
 31
0.0
  0
LINE
  5
119
330
1E
100
AcDbEntity
  8
0
100
AcDbLine
 10
57.0294
 20
48.95669999999999
 30
0.0
 11
57.1
 21
48.95669999999999
 31
0.0
  0
LINE
  5
11A
330
1E
100
AcDbEntity
  8
0
100
AcDbLine
 10
57.0294
 20
48.95669999999999
 30
0.0
 11
57.0882
 21
49.0
 31
0.0
  0
LINE
  5
11B
330
1E
100
AcDbEntity
  8
0
100
AcDbLine
 10
57.0
 20
48.87019999999999
 30
0.0
 11
57.0
 21
32.0
 31
0.0
  0
LINE
  5
11C
330
1E
100
AcDbEntity
  8
0
100
AcDbLine
 10
57.0
 20
48.87019999999999
 30
0.0
 11
57.0294
 21
48.95669999999999
 31
0.0
  0
LINE
  5
11D
330
1E
100
AcDbEntity
  8
0
100
AcDbLine
 10
48.0
 20
29.6
 30
0.0
 11
48.0
 21
176.4809999999999
 31
0.0
  0
LINE
  5
11E
330
1E
100
AcDbEntity
  8
0
100
AcDbLine
 10
48.0
 20
0.0190429999999935
 30
0.0
 11
48.0
 21
22.39999999999999
 31
0.0
  0
LINE
  5
11F
330
1E
100
AcDbEntity
  8
0
100
AcDbLine
 10
46.17309999999999
 20
0.0117549999999941
 30
0.0
 11
47.5388
 21
0.0153279999999938
 31
0.0
  0
LINE
  5
120
330
1E
100
AcDbEntity
  8
0
100
AcDbLine
 10
43.95529999999999
 20
0.0084629999999943
 30
0.0
 11
46.17309999999999
 21
0.0117549999999941
 31
0.0
  0
LINE
  5
121
330
1E
100
AcDbEntity
  8
0
100
AcDbLine
 10
40.97059999999999
 20
0.0055779999999946
 30
0.0
 11
43.95529999999999
 21
0.0084629999999943
 31
0.0
  0
LINE
  5
122
330
1E
100
AcDbEntity
  8
0
100
AcDbLine
 10
37.0559
 20
176.965
 30
0.0
 11
40.617
 21
176.9679999999999
 31
0.0
  0
LINE
  5
123
330
1E
100
AcDbEntity
  8
0
100
AcDbLine
 10
37.9868
 20
149.2729999999999
 30
0.0
 11
38.0
 21
95.1759
 31
0.0
  0
LINE
  5
124
330
1E
100
AcDbEntity
  8
0
100
AcDbLine
 10
37.3337
 20
176.465
 30
0.0
 11
40.97059999999999
 21
176.467
 31
0.0
  0
LINE
  5
125
330
1E
100
AcDbEntity
  8
0
100
AcDbLine
 10
40.617
 20
176.9679999999999
 30
0.0
 11
43.5395
 21
176.9709999999999
 31
0.0
  0
LINE
  5
126
330
1E
100
AcDbEntity
  8
0
100
AcDbLine
 10
40.97059999999999
 20
176.467
 30
0.0
 11
43.95529999999999
 21
176.4699999999999
 31
0.0
  0
LINE
  5
127
330
1E
100
AcDbEntity
  8
0
100
AcDbLine
 10
43.5395
 20
176.9709999999999
 30
0.0
 11
45.71119999999999
 21
176.974
 31
0.0
  0
LINE
  5
128
330
1E
100
AcDbEntity
  8
0
100
AcDbLine
 10
43.95529999999999
 20
176.4699999999999
 30
0.0
 11
46.17309999999999
 21
176.474
 31
0.0
  0
LINE
  5
129
330
1E
100
AcDbEntity
  8
0
100
AcDbLine
 10
45.71119999999999
 20
176.974
 30
0.0
 11
47.04849999999999
 21
176.977
 31
0.0
  0
LINE
  5
12A
330
1E
100
AcDbEntity
  8
0
100
AcDbLine
 10
46.17309999999999
 20
176.474
 30
0.0
 11
47.5388
 21
176.477
 31
0.0
  0
LINE
  5
12B
330
1E
100
AcDbEntity
  8
0
100
AcDbLine
 10
47.04849999999999
 20
176.977
 30
0.0
 11
47.5
 21
176.9809999999999
 31
0.0
  0
LINE
  5
12C
330
1E
100
AcDbEntity
  8
0
100
AcDbLine
 10
48.0
 20
176.4809999999999
 30
0.0
 11
48.0
 21
29.6
 31
0.0
  0
LINE
  5
12D
330
1E
100
AcDbEntity
  8
0
100
AcDbLine
 10
47.5388
 20
176.477
 30
0.0
 11
48.0
 21
176.4809999999999
 31
0.0
  0
LINE
  5
12E
330
1E
100
AcDbEntity
  8
0
100
AcDbLine
 10
47.5
 20
176.9809999999999
 30
0.0
 11
48.0
 21
176.4809999999999
 31
0.0
  0
LINE
  5
12F
330
1E
100
AcDbEntity
  8
0
100
AcDbLine
 10
47.04849999999999
 20
176.985
 30
0.0
 11
47.5
 21
176.9809999999999
 31
0.0
  0
LINE
  5
130
330
1E
100
AcDbEntity
  8
0
100
AcDbLine
 10
45.71119999999999
 20
176.988
 30
0.0
 11
47.04849999999999
 21
176.985
 31
0.0
  0
LINE
  5
131
330
1E
100
AcDbEntity
  8
0
100
AcDbLine
 10
43.5395
 20
176.9909999999999
 30
0.0
 11
45.71119999999999
 21
176.988
 31
0.0
  0
LINE
  5
132
330
1E
100
AcDbEntity
  8
0
100
AcDbLine
 10
40.617
 20
176.994
 30
0.0
 11
43.5395
 21
176.9909999999999
 31
0.0
  0
LINE
  5
133
330
1E
100
AcDbEntity
  8
0
100
AcDbLine
 10
37.0559
 20
176.997
 30
0.0
 11
40.617
 21
176.994
 31
0.0
  0
LINE
  5
134
330
1E
100
AcDbEntity
  8
0
100
AcDbLine
 10
37.9728550754435
 20
95.06452353653379
 30
0.0
 11
38.0
 21
95.1759
 31
0.0
  0
LINE
  5
135
330
1E
100
AcDbEntity
  8
0
100
AcDbLine
 10
36.9343
 20
99.5486
 30
0.0
 11
38.0
 21
95.1759
 31
0.0
  0
LWPOLYLINE
  5
13B
330
1E
100
AcDbEntity
  8
0
100
AcDbPolyline
 90
       18
 70
     0
 43
0.0
 10
10.02909999999999
 20
149.634
 10
10.35718502218719
 20
153.0247770579159
 10
11.15349876282005
 20
155.4121583105521
 10
11.94981250345279
 20
157.1873905346988
 10
13.60369527951616
 20
159.0238376201672
 10
15.56385198369935
 20
160.9214995669573
 10
17.40149894691001
 20
161.9621530399711
 10
19.17789146394579
 20
162.7579466524257
 10
21.81185216778919
 20
163.4313105422369
 10
24.69083235357777
 20
163.5537402648803
 10
28.05985235187915
 20
163.1864510969499
 10
30.8163227966952
 20
162.0233679012927
 10
32.96024453664859
 20
160.3093505384678
 10
34.55287201791418
 20
158.7789781748803
 10
36.20675479397744
 20
156.5752415062092
 10
37.37059775752777
 20
153.8817855316923
 10
37.92189201621556
 20
151.7392641396153
 10
37.9868
 20
149.2729999999999
  0
ENDSEC
  0
SECTION
  2
OBJECTS
  0
DICTIONARY
  5
C
330
0
100
AcDbDictionary
  3
ACAD_GROUP
350
D
  3
ACAD_LAYOUT
350
19
  3
ACAD_MLINESTYLE
350
16
  3
ACAD_PLOTSETTINGS
350
18
  3
ACAD_PLOTSTYLENAME
350
E
  3
ACDBHEADERROUNDTRIPXREC
350
13F
  3
ACDBVARIABLEDICTIONARY
350
13C
  0
DICTIONARY
  5
161
330
1E
100
AcDbDictionary
280
     1
  3
ACAD_LAYOUTSELFREF
360
162
  0
DICTIONARY
  5
15F
330
1A
100
AcDbDictionary
280
     1
  3
ACAD_LAYOUTSELFREF
360
160
  0
DICTIONARY
  5
D
102
{ACAD_REACTORS
330
C
102
}
330
C
100
AcDbDictionary
  0
DICTIONARY
  5
19
102
{ACAD_REACTORS
330
C
102
}
330
C
100
AcDbDictionary
  0
DICTIONARY
  5
16
102
{ACAD_REACTORS
330
C
102
}
330
C
100
AcDbDictionary
  3
STANDARD
350
17
  0
DICTIONARY
  5
18
102
{ACAD_REACTORS
330
C
102
}
330
C
100
AcDbDictionary
  0
ACDBDICTIONARYWDFLT
  5
E
102
{ACAD_REACTORS
330
C
102
}
330
C
100
AcDbDictionary
281
     1
  3
Normal
350
F
100
AcDbDictionaryWithDefault
340
F
  0
DICTIONARY
  5
13F
102
{ACAD_REACTORS
330
C
102
}
330
C
100
AcDbDictionary
  3
CEPSNTYPE
350
149
  3
FINGERPRINTGUID
350
14A
  3
HYPERLINKBASE
350
142
  3
INSUNITS
350
148
  3
LAYOUTDICT
350
144
  3
LWETCUNION
350
147
  3
PLOTSETDICT
350
145
  3
PLOTSTYLNAMDICT
350
146
  3
PSVPSCALE
350
14C
  3
PUCSBASE
350
14F
  3
PUCSORGBACK
350
155
  3
PUCSORGBOTTOM
350
151
  3
PUCSORGFRONT
350
154
  3
PUCSORGLEFT
350
152
  3
PUCSORGRIGHT
350
153
  3
PUCSORGTOP
350
150
  3
PUCSORTHOREF
350
14D
  3
PUCSORTHOVIEW
350
14E
  3
STYLESHEET
350
143
  3
TSTACKALIGN
350
140
  3
TSTACKSIZE
350
141
  3
UCSBASE
350
158
  3
UCSORGBACK
350
15E
  3
UCSORGBOTTOM
350
15A
  3
UCSORGFRONT
350
15D
  3
UCSORGLEFT
350
15B
  3
UCSORGRIGHT
350
15C
  3
UCSORGTOP
350
159
  3
UCSORTHOREF
350
156
  3
UCSORTHOVIEW
350
157
  3
VERSIONGUID
350
14B
  0
DICTIONARY
  5
13C
102
{ACAD_REACTORS
330
C
102
}
330
C
100
AcDbDictionary
  3
DIMASSOC
350
13D
  0
XRECORD
  5
162
102
{ACAD_REACTORS
330
161
102
}
330
161
100
AcDbXrecord
340
1E
  0
XRECORD
  5
160
102
{ACAD_REACTORS
330
15F
102
}
330
15F
100
AcDbXrecord
340
1A
  0
MLINESTYLE
  5
17
102
{ACAD_REACTORS
330
16
102
}
330
16
100
AcDbMlineStyle
  2
STANDARD
 70
     0
  3

 62
   256
 51
90.0
 52
90.0
 71
     2
 49
0.5
 62
   256
  6
BYLAYER
 49
-0.5
 62
   256
  6
BYLAYER
  0
ACDBPLACEHOLDER
  5
F
102
{ACAD_REACTORS
330
E
102
}
330
E
100
AcDbPlaceHolder
280
     0
  0
XRECORD
  5
149
102
{ACAD_REACTORS
330
13F
102
}
330
13F
100
AcDbXrecord
 90
        0
  0
XRECORD
  5
14A
102
{ACAD_REACTORS
330
13F
102
}
330
13F
100
AcDbXrecord
  1
{063D14BE-3015-4A4D-8D22-9DE4605CC351}
  0
XRECORD
  5
142
102
{ACAD_REACTORS
330
13F
102
}
330
13F
100
AcDbXrecord
  1

  0
XRECORD
  5
148
102
{ACAD_REACTORS
330
13F
102
}
330
13F
100
AcDbXrecord
 90
        0
  0
XRECORD
  5
144
102
{ACAD_REACTORS
330
13F
102
}
330
13F
100
AcDbXrecord
340
19
  0
XRECORD
  5
147
102
{ACAD_REACTORS
330
13F
102
}
330
13F
100
AcDbXrecord
 90
    10781
  0
XRECORD
  5
145
102
{ACAD_REACTORS
330
13F
102
}
330
13F
100
AcDbXrecord
340
18
  0
XRECORD
  5
146
102
{ACAD_REACTORS
330
13F
102
}
330
13F
100
AcDbXrecord
340
E
  0
XRECORD
  5
14C
102
{ACAD_REACTORS
330
13F
102
}
330
13F
100
AcDbXrecord
 40
0.0
  0
XRECORD
  5
14F
102
{ACAD_REACTORS
330
13F
102
}
330
13F
100
AcDbXrecord
340
0
  0
XRECORD
  5
155
102
{ACAD_REACTORS
330
13F
102
}
330
13F
100
AcDbXrecord
 10
0.0
 20
0.0
 30
0.0
  0
XRECORD
  5
151
102
{ACAD_REACTORS
330
13F
102
}
330
13F
100
AcDbXrecord
 10
0.0
 20
0.0
 30
0.0
  0
XRECORD
  5
154
102
{ACAD_REACTORS
330
13F
102
}
330
13F
100
AcDbXrecord
 10
0.0
 20
0.0
 30
0.0
  0
XRECORD
  5
152
102
{ACAD_REACTORS
330
13F
102
}
330
13F
100
AcDbXrecord
 10
0.0
 20
0.0
 30
0.0
  0
XRECORD
  5
153
102
{ACAD_REACTORS
330
13F
102
}
330
13F
100
AcDbXrecord
 10
0.0
 20
0.0
 30
0.0
  0
XRECORD
  5
150
102
{ACAD_REACTORS
330
13F
102
}
330
13F
100
AcDbXrecord
 10
0.0
 20
0.0
 30
0.0
  0
XRECORD
  5
14D
102
{ACAD_REACTORS
330
13F
102
}
330
13F
100
AcDbXrecord
340
0
  0
XRECORD
  5
14E
102
{ACAD_REACTORS
330
13F
102
}
330
13F
100
AcDbXrecord
 70
     0
  0
XRECORD
  5
143
102
{ACAD_REACTORS
330
13F
102
}
330
13F
100
AcDbXrecord
  1

  0
XRECORD
  5
140
102
{ACAD_REACTORS
330
13F
102
}
330
13F
100
AcDbXrecord
 90
        1
  0
XRECORD
  5
141
102
{ACAD_REACTORS
330
13F
102
}
330
13F
100
AcDbXrecord
 90
       70
  0
XRECORD
  5
158
102
{ACAD_REACTORS
330
13F
102
}
330
13F
100
AcDbXrecord
340
0
  0
XRECORD
  5
15E
102
{ACAD_REACTORS
330
13F
102
}
330
13F
100
AcDbXrecord
 10
0.0
 20
0.0
 30
0.0
  0
XRECORD
  5
15A
102
{ACAD_REACTORS
330
13F
102
}
330
13F
100
AcDbXrecord
 10
0.0
 20
0.0
 30
0.0
  0
XRECORD
  5
15D
102
{ACAD_REACTORS
330
13F
102
}
330
13F
100
AcDbXrecord
 10
0.0
 20
0.0
 30
0.0
  0
XRECORD
  5
15B
102
{ACAD_REACTORS
330
13F
102
}
330
13F
100
AcDbXrecord
 10
0.0
 20
0.0
 30
0.0
  0
XRECORD
  5
15C
102
{ACAD_REACTORS
330
13F
102
}
330
13F
100
AcDbXrecord
 10
0.0
 20
0.0
 30
0.0
  0
XRECORD
  5
159
102
{ACAD_REACTORS
330
13F
102
}
330
13F
100
AcDbXrecord
 10
0.0
 20
0.0
 30
0.0
  0
XRECORD
  5
156
102
{ACAD_REACTORS
330
13F
102
}
330
13F
100
AcDbXrecord
340
0
  0
XRECORD
  5
157
102
{ACAD_REACTORS
330
13F
102
}
330
13F
100
AcDbXrecord
 70
     1
  0
XRECORD
  5
14B
102
{ACAD_REACTORS
330
13F
102
}
330
13F
100
AcDbXrecord
  1
{A6E47FC8-F44E-447D-9E8A-E5581B1A3614}
  0
DICTIONARYVAR
  5
13D
102
{ACAD_REACTORS
330
13C
102
}
330
13C
100
DictionaryVariables
280
     0
  1
1
  0
ENDSEC
  0
EOF
