  0
SECTION
  2
HEADER
  9
$ACADVER
  1
AC1015
  9
$ACADMAINTVER
 70
    13
  9
$DWGCODEPAGE
  3
ANSI_1252
  9
$INSBASE
 10
0.0
 20
0.0
 30
0.0
  9
$EXTMIN
 10
-0.000000000000002
 20
0.250000000000094
 30
0.0
  9
$EXTMAX
 10
102.0
 20
112.7499999999999
 30
0.0
  9
$LIMMIN
 10
0.0
 20
0.0
  9
$LIMMAX
 10
12.0
 20
9.0
  9
$ORTHOMODE
 70
     0
  9
$REGENMODE
 70
     1
  9
$FILLMODE
 70
     1
  9
$QTEXTMODE
 70
     0
  9
$MIRRTEXT
 70
     1
  9
$LTSCALE
 40
1.0
  9
$ATTMODE
 70
     1
  9
$TEXTSIZE
 40
0.2
  9
$TRACEWID
 40
0.05
  9
$TEXTSTYLE
  7
Standard
  9
$CLAYER
  8
0
  9
$CELTYPE
  6
Continuous
  9
$CECOLOR
 62
   256
  9
$CELTSCALE
 40
1.0
  9
$DISPSILH
 70
     0
  9
$DIMSCALE
 40
1.0
  9
$DIMASZ
 40
0.18
  9
$DIMEXO
 40
0.0625
  9
$DIMDLI
 40
0.38
  9
$DIMRND
 40
0.0
  9
$DIMDLE
 40
0.0
  9
$DIMEXE
 40
0.18
  9
$DIMTP
 40
0.0
  9
$DIMTM
 40
0.0
  9
$DIMTXT
 40
0.18
  9
$DIMCEN
 40
0.09
  9
$DIMTSZ
 40
0.0
  9
$DIMTOL
 70
     0
  9
$DIMLIM
 70
     0
  9
$DIMTIH
 70
     1
  9
$DIMTOH
 70
     1
  9
$DIMSE1
 70
     0
  9
$DIMSE2
 70
     0
  9
$DIMTAD
 70
     0
  9
$DIMZIN
 70
     0
  9
$DIMBLK
  1

  9
$DIMASO
 70
     1
  9
$DIMSHO
 70
     1
  9
$DIMPOST
  1

  9
$DIMAPOST
  1

  9
$DIMALT
 70
     0
  9
$DIMALTD
 70
     2
  9
$DIMALTF
 40
25.4
  9
$DIMLFAC
 40
1.0
  9
$DIMTOFL
 70
     0
  9
$DIMTVP
 40
0.0
  9
$DIMTIX
 70
     0
  9
$DIMSOXD
 70
     0
  9
$DIMSAH
 70
     0
  9
$DIMBLK1
  1

  9
$DIMBLK2
  1

  9
$DIMSTYLE
  2
Standard
  9
$DIMCLRD
 70
     0
  9
$DIMCLRE
 70
     0
  9
$DIMCLRT
 70
     0
  9
$DIMTFAC
 40
1.0
  9
$DIMGAP
 40
0.09
  9
$DIMJUST
 70
     0
  9
$DIMSD1
 70
     0
  9
$DIMSD2
 70
     0
  9
$DIMTOLJ
 70
     1
  9
$DIMTZIN
 70
     0
  9
$DIMALTZ
 70
     0
  9
$DIMALTTZ
 70
     0
  9
$DIMUPT
 70
     0
  9
$DIMDEC
 70
     4
  9
$DIMTDEC
 70
     4
  9
$DIMALTU
 70
     2
  9
$DIMALTTD
 70
     2
  9
$DIMTXSTY
  7
Standard
  9
$DIMAUNIT
 70
     0
  9
$DIMADEC
 70
     0
  9
$DIMALTRND
 40
0.0
  9
$DIMAZIN
 70
     0
  9
$DIMDSEP
 70
    46
  9
$DIMATFIT
 70
     3
  9
$DIMFRAC
 70
     0
  9
$DIMLDRBLK
  1

  9
$DIMLUNIT
 70
     2
  9
$DIMLWD
 70
    -2
  9
$DIMLWE
 70
    -2
  9
$DIMTMOVE
 70
     0
  9
$LUNITS
 70
     2
  9
$LUPREC
 70
     4
  9
$SKETCHINC
 40
0.1
  9
$FILLETRAD
 40
0.0
  9
$AUNITS
 70
     0
  9
$AUPREC
 70
     0
  9
$MENU
  1
.
  9
$ELEVATION
 40
0.0
  9
$PELEVATION
 40
0.0
  9
$THICKNESS
 40
0.0
  9
$LIMCHECK
 70
     0
  9
$CHAMFERA
 40
0.0
  9
$CHAMFERB
 40
0.0
  9
$CHAMFERC
 40
0.0
  9
$CHAMFERD
 40
0.0
  9
$SKPOLY
 70
     0
  9
$TDCREATE
 40
2454637.818496782
  9
$TDUCREATE
 40
2454637.735163449
  9
$TDUPDATE
 40
2454637.823495335
  9
$TDUUPDATE
 40
2454637.740162002
  9
$TDINDWG
 40
0.0049985532
  9
$TDUSRTIMER
 40
0.0049985532
  9
$USRTIMER
 70
     1
  9
$ANGBASE
 50
0.0
  9
$ANGDIR
 70
     0
  9
$PDMODE
 70
     0
  9
$PDSIZE
 40
0.0
  9
$PLINEWID
 40
0.0
  9
$SPLFRAME
 70
     0
  9
$SPLINETYPE
 70
     6
  9
$SPLINESEGS
 70
     8
  9
$HANDSEED
  5
316
  9
$SURFTAB1
 70
     6
  9
$SURFTAB2
 70
     6
  9
$SURFTYPE
 70
     6
  9
$SURFU
 70
     6
  9
$SURFV
 70
     6
  9
$UCSBASE
  2

  9
$UCSNAME
  2

  9
$UCSORG
 10
0.0
 20
0.0
 30
0.0
  9
$UCSXDIR
 10
1.0
 20
0.0
 30
0.0
  9
$UCSYDIR
 10
0.0
 20
1.0
 30
0.0
  9
$UCSORTHOREF
  2

  9
$UCSORTHOVIEW
 70
     1
  9
$UCSORGTOP
 10
0.0
 20
0.0
 30
0.0
  9
$UCSORGBOTTOM
 10
0.0
 20
0.0
 30
0.0
  9
$UCSORGLEFT
 10
0.0
 20
0.0
 30
0.0
  9
$UCSORGRIGHT
 10
0.0
 20
0.0
 30
0.0
  9
$UCSORGFRONT
 10
0.0
 20
0.0
 30
0.0
  9
$UCSORGBACK
 10
0.0
 20
0.0
 30
0.0
  9
$PUCSBASE
  2

  9
$PUCSNAME
  2

  9
$PUCSORG
 10
0.0
 20
0.0
 30
0.0
  9
$PUCSXDIR
 10
1.0
 20
0.0
 30
0.0
  9
$PUCSYDIR
 10
0.0
 20
1.0
 30
0.0
  9
$PUCSORTHOREF
  2

  9
$PUCSORTHOVIEW
 70
     0
  9
$PUCSORGTOP
 10
0.0
 20
0.0
 30
0.0
  9
$PUCSORGBOTTOM
 10
0.0
 20
0.0
 30
0.0
  9
$PUCSORGLEFT
 10
0.0
 20
0.0
 30
0.0
  9
$PUCSORGRIGHT
 10
0.0
 20
0.0
 30
0.0
  9
$PUCSORGFRONT
 10
0.0
 20
0.0
 30
0.0
  9
$PUCSORGBACK
 10
0.0
 20
0.0
 30
0.0
  9
$USERI1
 70
     0
  9
$USERI2
 70
     0
  9
$USERI3
 70
     0
  9
$USERI4
 70
     0
  9
$USERI5
 70
     0
  9
$USERR1
 40
0.0
  9
$USERR2
 40
0.0
  9
$USERR3
 40
0.0
  9
$USERR4
 40
0.0
  9
$USERR5
 40
0.0
  9
$WORLDVIEW
 70
     1
  9
$SHADEDGE
 70
     3
  9
$SHADEDIF
 70
    70
  9
$TILEMODE
 70
     1
  9
$MAXACTVP
 70
    64
  9
$PINSBASE
 10
0.0
 20
0.0
 30
0.0
  9
$PLIMCHECK
 70
     0
  9
$PEXTMIN
 10
1.000000000000000E+20
 20
1.000000000000000E+20
 30
1.000000000000000E+20
  9
$PEXTMAX
 10
-1.000000000000000E+20
 20
-1.000000000000000E+20
 30
-1.000000000000000E+20
  9
$PLIMMIN
 10
0.0
 20
0.0
  9
$PLIMMAX
 10
12.0
 20
9.0
  9
$UNITMODE
 70
     0
  9
$VISRETAIN
 70
     1
  9
$PLINEGEN
 70
     0
  9
$PSLTSCALE
 70
     1
  9
$TREEDEPTH
 70
  3020
  9
$CMLSTYLE
  2
Standard
  9
$CMLJUST
 70
     0
  9
$CMLSCALE
 40
1.0
  9
$PROXYGRAPHICS
 70
     1
  9
$MEASUREMENT
 70
     0
  9
$CELWEIGHT
370
    -1
  9
$ENDCAPS
280
     0
  9
$JOINSTYLE
280
     0
  9
$LWDISPLAY
290
     0
  9
$INSUNITS
 70
     0
  9
$HYPERLINKBASE
  1

  9
$STYLESHEET
  1

  9
$XEDIT
290
     1
  9
$CEPSNTYPE
380
     0
  9
$PSTYLEMODE
290
     1
  9
$FINGERPRINTGUID
  2
{89C7D1E9-690B-4FA7-A1BD-E284142A6B0A}
  9
$VERSIONGUID
  2
{E7F02A97-817A-4AA1-9B86-9A6A6305D5AD}
  9
$EXTNAMES
290
     1
  9
$PSVPSCALE
 40
0.0
  9
$OLESTARTUP
290
     0
  0
ENDSEC
  0
SECTION
  2
CLASSES
  0
CLASS
  1
ACDBDICTIONARYWDFLT
  2
AcDbDictionaryWithDefault
  3
AutoCAD 2000
 90
        0
280
     0
281
     0
  0
CLASS
  1
ACDBPLACEHOLDER
  2
AcDbPlaceHolder
  3
AutoCAD 2000
 90
        0
280
     0
281
     0
  0
CLASS
  1
LAYOUT
  2
AcDbLayout
  3
AutoCAD 2000
 90
        0
280
     0
281
     0
  0
CLASS
  1
DICTIONARYVAR
  2
AcDbDictionaryVar
  3
AutoCAD 2000
 90
        0
280
     0
281
     0
  0
ENDSEC
  0
SECTION
  2
TABLES
  0
TABLE
  2
VPORT
  5
8
330
0
100
AcDbSymbolTable
 70
     2
  0
VPORT
  5
315
330
8
100
AcDbSymbolTableRecord
100
AcDbViewportTableRecord
  2
*Active
 70
     0
 10
0.0
 20
0.0
 11
1.0
 21
1.0
 12
51.0
 22
56.50000000000004
 13
0.0
 23
0.0
 14
1.0
 24
1.0
 15
0.0
 25
0.0
 16
0.0
 26
0.0
 36
1.0
 17
0.0
 27
0.0
 37
0.0
 40
113.3631713554986
 41
2.043533930857874
 42
50.0
 43
0.0
 44
0.0
 50
0.0
 51
0.0
 71
     0
 72
   100
 73
     1
 74
     3
 75
     0
 76
     0
 77
     0
 78
     0
281
     0
 65
     1
110
0.0
120
0.0
130
0.0
111
1.0
121
0.0
131
0.0
112
0.0
122
1.0
132
0.0
 79
     1
146
0.0
  0
ENDTAB
  0
TABLE
  2
LTYPE
  5
5
330
0
100
AcDbSymbolTable
 70
     1
  0
LTYPE
  5
13
330
5
100
AcDbSymbolTableRecord
100
AcDbLinetypeTableRecord
  2
ByBlock
 70
     0
  3

 72
    65
 73
     0
 40
0.0
  0
LTYPE
  5
14
330
5
100
AcDbSymbolTableRecord
100
AcDbLinetypeTableRecord
  2
ByLayer
 70
     0
  3

 72
    65
 73
     0
 40
0.0
  0
LTYPE
  5
15
330
5
100
AcDbSymbolTableRecord
100
AcDbLinetypeTableRecord
  2
Continuous
 70
     0
  3
Solid line
 72
    65
 73
     0
 40
0.0
  0
ENDTAB
  0
TABLE
  2
LAYER
  5
2
330
0
100
AcDbSymbolTable
 70
     1
  0
LAYER
  5
10
330
2
100
AcDbSymbolTableRecord
100
AcDbLayerTableRecord
  2
0
 70
     0
 62
     7
  6
Continuous
370
    -3
390
F
  0
ENDTAB
  0
TABLE
  2
STYLE
  5
3
330
0
100
AcDbSymbolTable
 70
     1
  0
STYLE
  5
11
330
3
100
AcDbSymbolTableRecord
100
AcDbTextStyleTableRecord
  2
Standard
 70
     0
 40
0.0
 41
1.0
 50
0.0
 71
     0
 42
0.2
  3
txt
  4

  0
ENDTAB
  0
TABLE
  2
VIEW
  5
6
330
0
100
AcDbSymbolTable
 70
     0
  0
ENDTAB
  0
TABLE
  2
UCS
  5
7
330
0
100
AcDbSymbolTable
 70
     0
  0
ENDTAB
  0
TABLE
  2
APPID
  5
9
330
0
100
AcDbSymbolTable
 70
     1
  0
APPID
  5
12
330
9
100
AcDbSymbolTableRecord
100
AcDbRegAppTableRecord
  2
ACAD
 70
     0
  0
ENDTAB
  0
TABLE
  2
DIMSTYLE
  5
A
330
0
100
AcDbSymbolTable
 70
     1
100
AcDbDimStyleTable
 71
     0
  0
DIMSTYLE
105
30B
330
A
100
AcDbSymbolTableRecord
100
AcDbDimStyleTableRecord
  2
Standard
 70
     0
340
11
  0
ENDTAB
  0
TABLE
  2
BLOCK_RECORD
  5
1
330
0
100
AcDbSymbolTable
 70
     0
  0
BLOCK_RECORD
  5
1E
330
1
100
AcDbSymbolTableRecord
100
AcDbBlockTableRecord
  2
*Model_Space
340
21
  0
BLOCK_RECORD
  5
1A
330
1
100
AcDbSymbolTableRecord
100
AcDbBlockTableRecord
  2
*Paper_Space
340
1D
  0
ENDTAB
  0
ENDSEC
  0
SECTION
  2
BLOCKS
  0
BLOCK
  5
1F
330
1E
100
AcDbEntity
  8
0
100
AcDbBlockBegin
  2
*Model_Space
 70
     0
 10
0.0
 20
0.0
 30
0.0
  3
*Model_Space
  1

  0
ENDBLK
  5
20
330
1E
100
AcDbEntity
  8
0
100
AcDbBlockEnd
  0
BLOCK
  5
1B
330
1A
100
AcDbEntity
 67
     1
  8
0
100
AcDbBlockBegin
  2
*Paper_Space
 70
     0
 10
0.0
 20
0.0
 30
0.0
  3
*Paper_Space
  1

  0
ENDBLK
  5
1C
330
1A
100
AcDbEntity
 67
     1
  8
0
100
AcDbBlockEnd
  0
ENDSEC
  0
SECTION
  2
ENTITIES
  0
LINE
  5
22
330
1E
100
AcDbEntity
  8
0
100
AcDbLine
 10
-0.000000000000002
 20
1.15000000000009
 30
0.0
 11
-0.0000000000000019
 21
2.050000000000089
 31
0.0
  0
LINE
  5
23
330
1E
100
AcDbEntity
  8
0
100
AcDbLine
 10
-0.000000000000002
 20
0.7500000000000942
 30
0.0
 11
0.199999999999998
 21
0.4500000000000941
 31
0.0
  0
LINE
  5
24
330
1E
100
AcDbEntity
  8
0
100
AcDbLine
 10
-0.000000000000002
 20
0.7500000000000942
 30
0.0
 11
-0.000000000000002
 21
1.15000000000009
 31
0.0
  0
LINE
  5
25
330
1E
100
AcDbEntity
  8
0
100
AcDbLine
 10
-0.0000000000000015
 20
8.150000000000089
 30
0.0
 11
-0.0000000000000014
 21
10.75000000000009
 31
0.0
  0
LINE
  5
26
330
1E
100
AcDbEntity
  8
0
100
AcDbLine
 10
-0.0000000000000017
 20
5.750000000000089
 30
0.0
 11
-0.0000000000000015
 21
8.150000000000089
 31
0.0
  0
LINE
  5
27
330
1E
100
AcDbEntity
  8
0
100
AcDbLine
 10
-0.0000000000000018
 20
3.65000000000009
 30
0.0
 11
-0.0000000000000017
 21
5.750000000000089
 31
0.0
  0
LINE
  5
28
330
1E
100
AcDbEntity
  8
0
100
AcDbLine
 10
-0.0000000000000014
 20
10.75000000000009
 30
0.0
 11
0.0000000000000017
 21
60.25000000000011
 31
0.0
  0
LINE
  5
29
330
1E
100
AcDbEntity
  8
0
100
AcDbLine
 10
-0.0000000000000014
 20
10.75000000000009
 30
0.0
 11
0.0000000000000017
 21
60.25000000000011
 31
0.0
  0
LINE
  5
2A
330
1E
100
AcDbEntity
  8
0
100
AcDbLine
 10
-0.0000000000000019
 20
2.050000000000089
 30
0.0
 11
-0.0000000000000018
 21
3.65000000000009
 31
0.0
  0
LINE
  5
2B
330
1E
100
AcDbEntity
  8
0
100
AcDbLine
 10
-0.000000000000002
 20
0.7500000000000942
 30
0.0
 11
0.199999999999998
 21
0.4500000000000941
 31
0.0
  0
LINE
  5
2C
330
1E
100
AcDbEntity
  8
0
100
AcDbLine
 10
0.199999999999998
 20
0.4500000000000941
 30
0.0
 11
0.4999999999999981
 21
0.250000000000094
 31
0.0
  0
LINE
  5
2D
330
1E
100
AcDbEntity
  8
0
100
AcDbLine
 10
2.299999999999999
 20
0.5500000000000941
 30
0.0
 11
2.799999999999999
 21
3.25000000000009
 31
0.0
  0
LINE
  5
39
330
1E
100
AcDbEntity
  8
0
100
AcDbLine
 10
3.299999999999999
 20
10.75000000000009
 30
0.0
 11
5.0
 21
40.05000000000009
 31
0.0
  0
LINE
  5
3A
330
1E
100
AcDbEntity
  8
0
100
AcDbLine
 10
3.299999999999999
 20
10.75000000000009
 30
0.0
 11
5.0
 21
40.05000000000009
 31
0.0
  0
LINE
  5
3B
330
1E
100
AcDbEntity
  8
0
100
AcDbLine
 10
3.149979999999999
 20
8.085050000000089
 30
0.0
 11
3.299999999999999
 21
10.75000000000009
 31
0.0
  0
LINE
  5
3C
330
1E
100
AcDbEntity
  8
0
100
AcDbLine
 10
2.985129999999999
 20
5.572240000000089
 30
0.0
 11
3.149979999999999
 21
8.085050000000089
 31
0.0
  0
LINE
  5
3D
330
1E
100
AcDbEntity
  8
0
100
AcDbLine
 10
2.799999999999999
 20
3.25000000000009
 30
0.0
 11
2.985129999999999
 21
5.572240000000089
 31
0.0
  0
LINE
  5
3E
330
1E
100
AcDbEntity
  8
0
100
AcDbLine
 10
0.4999999999999981
 20
0.250000000000094
 30
0.0
 11
2.0
 21
0.250000000000094
 31
0.0
  0
LINE
  5
3F
330
1E
100
AcDbEntity
  8
0
100
AcDbLine
 10
0.0000000000000017
 20
60.25000000000011
 30
0.0
 11
0.0000000000000018
 21
62.8500000000001
 31
0.0
  0
LINE
  5
40
330
1E
100
AcDbEntity
  8
0
100
AcDbLine
 10
0.0000000000000018
 20
62.8500000000001
 30
0.0
 11
0.000000000000002
 21
65.2500000000001
 31
0.0
  0
LINE
  5
41
330
1E
100
AcDbEntity
  8
0
100
AcDbLine
 10
0.000000000000002
 20
65.2500000000001
 30
0.0
 11
0.0000000000000021
 21
67.3500000000001
 31
0.0
  0
LINE
  5
42
330
1E
100
AcDbEntity
  8
0
100
AcDbLine
 10
0.0000000000000022
 20
68.9500000000001
 30
0.0
 11
0.0000000000000023
 21
69.8500000000001
 31
0.0
  0
LINE
  5
43
330
1E
100
AcDbEntity
  8
0
100
AcDbLine
 10
0.0000000000000023
 20
70.2500000000001
 30
0.0
 11
0.200000000000002
 21
70.5500000000001
 31
0.0
  0
LINE
  5
44
330
1E
100
AcDbEntity
  8
0
100
AcDbLine
 10
0.0000000000000023
 20
69.8500000000001
 30
0.0
 11
0.0000000000000023
 21
70.2500000000001
 31
0.0
  0
LINE
  5
45
330
1E
100
AcDbEntity
  8
0
100
AcDbLine
 10
0.0000000000000021
 20
67.3500000000001
 30
0.0
 11
0.0000000000000022
 21
68.9500000000001
 31
0.0
  0
LINE
  5
48
330
1E
100
AcDbEntity
  8
0
100
AcDbLine
 10
0.0000000000000023
 20
70.2500000000001
 30
0.0
 11
0.200000000000002
 21
70.5500000000001
 31
0.0
  0
LINE
  5
49
330
1E
100
AcDbEntity
  8
0
100
AcDbLine
 10
0.200000000000002
 20
70.5500000000001
 30
0.0
 11
0.500000000000002
 21
70.75000000000009
 31
0.0
  0
LINE
  5
4A
330
1E
100
AcDbEntity
  8
0
100
AcDbLine
 10
0.500000000000002
 20
70.75000000000009
 30
0.0
 11
2.0
 21
70.75000000000009
 31
0.0
  0
LINE
  5
4E
330
1E
100
AcDbEntity
  8
0
100
AcDbLine
 10
2.0
 20
70.75000000000009
 30
0.0
 11
41.5
 21
70.75000000000009
 31
0.0
  0
LINE
  5
4F
330
1E
100
AcDbEntity
  8
0
100
AcDbLine
 10
2.0
 20
70.75000000000009
 30
0.0
 11
41.5
 21
70.75000000000009
 31
0.0
  0
LINE
  5
50
330
1E
100
AcDbEntity
  8
0
100
AcDbLine
 10
0.500000000000002
 20
70.75000000000009
 30
0.0
 11
2.0
 21
70.75000000000009
 31
0.0
  0
LINE
  5
53
330
1E
100
AcDbEntity
  8
0
100
AcDbLine
 10
45.0
 20
8.750000000000088
 30
0.0
 11
45.3
 21
8.050000000000089
 31
0.0
  0
LINE
  5
54
330
1E
100
AcDbEntity
  8
0
100
AcDbLine
 10
45.0
 20
13.75000000000009
 30
0.0
 11
45.0
 21
60.25000000000011
 31
0.0
  0
LINE
  5
57
330
1E
100
AcDbEntity
  8
0
100
AcDbLine
 10
45.0
 20
8.750000000000088
 30
0.0
 11
45.0
 21
13.75000000000009
 31
0.0
  0
LINE
  5
58
330
1E
100
AcDbEntity
  8
0
100
AcDbLine
 10
45.0
 20
13.75000000000009
 30
0.0
 11
45.0
 21
8.750000000000088
 31
0.0
  0
LINE
  5
59
330
1E
100
AcDbEntity
  8
0
100
AcDbLine
 10
45.0
 20
13.75000000000009
 30
0.0
 11
45.0
 21
60.25000000000011
 31
0.0
  0
LINE
  5
5B
330
1E
100
AcDbEntity
  8
0
100
AcDbLine
 10
43.79999999999999
 20
49.0500000000001
 30
0.0
 11
44.59999999999999
 21
48.0500000000001
 31
0.0
  0
LINE
  5
5C
330
1E
100
AcDbEntity
  8
0
100
AcDbLine
 10
44.59999999999999
 20
48.0500000000001
 30
0.0
 11
45.0
 21
46.7500000000001
 31
0.0
  0
LINE
  5
5D
330
1E
100
AcDbEntity
  8
0
100
AcDbLine
 10
15.0
 20
49.75000000000011
 30
0.0
 11
41.5
 21
49.75000000000011
 31
0.0
  0
LINE
  5
5E
330
1E
100
AcDbEntity
  8
0
100
AcDbLine
 10
41.5
 20
49.75000000000011
 30
0.0
 11
42.0
 21
49.75000000000011
 31
0.0
  0
LINE
  5
5F
330
1E
100
AcDbEntity
  8
0
100
AcDbLine
 10
42.0
 20
49.75000000000011
 30
0.0
 11
42.8
 21
49.5500000000001
 31
0.0
  0
LINE
  5
60
330
1E
100
AcDbEntity
  8
0
100
AcDbLine
 10
41.5
 20
70.75000000000009
 30
0.0
 11
42.0
 21
70.75000000000009
 31
0.0
  0
LINE
  5
61
330
1E
100
AcDbEntity
  8
0
100
AcDbLine
 10
42.8
 20
49.5500000000001
 30
0.0
 11
43.79999999999999
 21
49.0500000000001
 31
0.0
  0
LINE
  5
62
330
1E
100
AcDbEntity
  8
0
100
AcDbLine
 10
42.0
 20
70.75000000000009
 30
0.0
 11
42.8
 21
70.9500000000001
 31
0.0
  0
LINE
  5
63
330
1E
100
AcDbEntity
  8
0
100
AcDbLine
 10
42.8
 20
70.9500000000001
 30
0.0
 11
43.79999999999999
 21
71.4500000000001
 31
0.0
  0
LINE
  5
64
330
1E
100
AcDbEntity
  8
0
100
AcDbLine
 10
45.0
 20
63.7500000000001
 30
0.0
 11
45.0
 21
60.25000000000011
 31
0.0
  0
LINE
  5
65
330
1E
100
AcDbEntity
  8
0
100
AcDbLine
 10
45.0
 20
64.05000000000011
 30
0.0
 11
45.0
 21
60.25000000000011
 31
0.0
  0
LINE
  5
66
330
1E
100
AcDbEntity
  8
0
100
AcDbLine
 10
45.0
 20
66.9500000000001
 30
0.0
 11
45.0
 21
69.7500000000001
 31
0.0
  0
LINE
  5
67
330
1E
100
AcDbEntity
  8
0
100
AcDbLine
 10
45.0
 20
67.55000000000011
 30
0.0
 11
45.0
 21
70.5500000000001
 31
0.0
  0
LINE
  5
68
330
1E
100
AcDbEntity
  8
0
100
AcDbLine
 10
45.0
 20
69.7500000000001
 30
0.0
 11
45.0
 21
66.9500000000001
 31
0.0
  0
LINE
  5
69
330
1E
100
AcDbEntity
  8
0
100
AcDbLine
 10
45.0
 20
69.7500000000001
 30
0.0
 11
45.0
 21
71.9500000000001
 31
0.0
  0
LINE
  5
6A
330
1E
100
AcDbEntity
  8
0
100
AcDbLine
 10
45.0
 20
70.5500000000001
 30
0.0
 11
45.0
 21
67.55000000000011
 31
0.0
  0
LINE
  5
6B
330
1E
100
AcDbEntity
  8
0
100
AcDbLine
 10
45.0
 20
70.5500000000001
 30
0.0
 11
45.0
 21
72.9500000000001
 31
0.0
  0
LINE
  5
6C
330
1E
100
AcDbEntity
  8
0
100
AcDbLine
 10
45.0
 20
71.9500000000001
 30
0.0
 11
45.0
 21
73.25000000000009
 31
0.0
  0
LINE
  5
6D
330
1E
100
AcDbEntity
  8
0
100
AcDbLine
 10
45.0
 20
71.9500000000001
 30
0.0
 11
45.0
 21
69.7500000000001
 31
0.0
  0
LINE
  5
6E
330
1E
100
AcDbEntity
  8
0
100
AcDbLine
 10
45.0
 20
71.5500000000001
 30
0.0
 11
45.0
 21
68.25000000000009
 31
0.0
  0
LINE
  5
6F
330
1E
100
AcDbEntity
  8
0
100
AcDbLine
 10
45.0
 20
68.25000000000009
 30
0.0
 11
45.0
 21
64.35000000000011
 31
0.0
  0
LINE
  5
70
330
1E
100
AcDbEntity
  8
0
100
AcDbLine
 10
45.0
 20
68.25000000000009
 30
0.0
 11
45.0
 21
71.5500000000001
 31
0.0
  0
LINE
  5
71
330
1E
100
AcDbEntity
  8
0
100
AcDbLine
 10
45.0
 20
64.35000000000011
 30
0.0
 11
45.0
 21
60.25000000000011
 31
0.0
  0
LINE
  5
72
330
1E
100
AcDbEntity
  8
0
100
AcDbLine
 10
45.0
 20
64.35000000000011
 30
0.0
 11
45.0
 21
68.25000000000009
 31
0.0
  0
LINE
  5
73
330
1E
100
AcDbEntity
  8
0
100
AcDbLine
 10
45.0
 20
67.4500000000001
 30
0.0
 11
45.0
 21
74.15000000000009
 31
0.0
  0
LINE
  5
74
330
1E
100
AcDbEntity
  8
0
100
AcDbLine
 10
45.0
 20
67.4500000000001
 30
0.0
 11
45.0
 21
60.25000000000011
 31
0.0
  0
LINE
  5
75
330
1E
100
AcDbEntity
  8
0
100
AcDbLine
 10
45.0
 20
60.25000000000011
 30
0.0
 11
45.0
 21
67.4500000000001
 31
0.0
  0
LINE
  5
76
330
1E
100
AcDbEntity
  8
0
100
AcDbLine
 10
45.0
 20
60.25000000000011
 30
0.0
 11
45.0
 21
64.35000000000011
 31
0.0
  0
LINE
  5
77
330
1E
100
AcDbEntity
  8
0
100
AcDbLine
 10
45.0
 20
60.25000000000011
 30
0.0
 11
45.0
 21
64.05000000000011
 31
0.0
  0
LINE
  5
78
330
1E
100
AcDbEntity
  8
0
100
AcDbLine
 10
45.0
 20
60.25000000000011
 30
0.0
 11
45.0
 21
106.75
 31
0.0
  0
LINE
  5
79
330
1E
100
AcDbEntity
  8
0
100
AcDbLine
 10
45.0
 20
60.25000000000011
 30
0.0
 11
45.0
 21
63.7500000000001
 31
0.0
  0
LINE
  5
7A
330
1E
100
AcDbEntity
  8
0
100
AcDbLine
 10
43.79999999999999
 20
71.4500000000001
 30
0.0
 11
44.59999999999999
 21
72.4500000000001
 31
0.0
  0
LINE
  5
7B
330
1E
100
AcDbEntity
  8
0
100
AcDbLine
 10
45.0
 20
72.9500000000001
 30
0.0
 11
45.0
 21
70.5500000000001
 31
0.0
  0
LINE
  5
7C
330
1E
100
AcDbEntity
  8
0
100
AcDbLine
 10
45.0
 20
72.9500000000001
 30
0.0
 11
45.0
 21
74.35000000000009
 31
0.0
  0
LINE
  5
7D
330
1E
100
AcDbEntity
  8
0
100
AcDbLine
 10
45.0
 20
73.25000000000009
 30
0.0
 11
45.0
 21
73.7500000000001
 31
0.0
  0
LINE
  5
7E
330
1E
100
AcDbEntity
  8
0
100
AcDbLine
 10
45.0
 20
73.25000000000009
 30
0.0
 11
45.0
 21
71.9500000000001
 31
0.0
  0
LINE
  5
7F
330
1E
100
AcDbEntity
  8
0
100
AcDbLine
 10
44.59999999999999
 20
72.4500000000001
 30
0.0
 11
45.0
 21
73.7500000000001
 31
0.0
  0
LINE
  5
80
330
1E
100
AcDbEntity
  8
0
100
AcDbLine
 10
14.0
 20
49.6500000000001
 30
0.0
 11
15.0
 21
49.75000000000011
 31
0.0
  0
LINE
  5
81
330
1E
100
AcDbEntity
  8
0
100
AcDbLine
 10
12.09999999999999
 20
49.25000000000011
 30
0.0
 11
14.0
 21
49.6500000000001
 31
0.0
  0
LINE
  5
82
330
1E
100
AcDbEntity
  8
0
100
AcDbLine
 10
10.1
 20
48.4500000000001
 30
0.0
 11
12.09999999999999
 21
49.25000000000011
 31
0.0
  0
LINE
  5
83
330
1E
100
AcDbEntity
  8
0
100
AcDbLine
 10
8.0
 20
46.9500000000001
 30
0.0
 11
10.1
 21
48.4500000000001
 31
0.0
  0
LINE
  5
84
330
1E
100
AcDbEntity
  8
0
100
AcDbLine
 10
6.299999999999999
 20
44.8500000000001
 30
0.0
 11
8.0
 21
46.9500000000001
 31
0.0
  0
LINE
  5
85
330
1E
100
AcDbEntity
  8
0
100
AcDbLine
 10
5.4
 20
42.4500000000001
 30
0.0
 11
6.299999999999999
 21
44.8500000000001
 31
0.0
  0
LINE
  5
86
330
1E
100
AcDbEntity
  8
0
100
AcDbLine
 10
5.0
 20
40.05000000000009
 30
0.0
 11
5.4
 21
42.4500000000001
 31
0.0
  0
LINE
  5
87
330
1E
100
AcDbEntity
  8
0
100
AcDbLine
 10
45.0
 20
74.35000000000009
 30
0.0
 11
45.0
 21
72.9500000000001
 31
0.0
  0
LINE
  5
88
330
1E
100
AcDbEntity
  8
0
100
AcDbLine
 10
45.0
 20
74.35000000000009
 30
0.0
 11
45.0
 21
74.8500000000001
 31
0.0
  0
LINE
  5
89
330
1E
100
AcDbEntity
  8
0
100
AcDbLine
 10
45.0
 20
74.8500000000001
 30
0.0
 11
45.0
 21
74.35000000000009
 31
0.0
  0
LINE
  5
8A
330
1E
100
AcDbEntity
  8
0
100
AcDbLine
 10
45.0
 20
75.65000000000009
 30
0.0
 11
45.0
 21
74.15000000000009
 31
0.0
  0
LINE
  5
8B
330
1E
100
AcDbEntity
  8
0
100
AcDbLine
 10
45.0
 20
80.05000000000009
 30
0.0
 11
45.0
 21
74.15000000000009
 31
0.0
  0
LINE
  5
8C
330
1E
100
AcDbEntity
  8
0
100
AcDbLine
 10
45.0
 20
74.15000000000009
 30
0.0
 11
45.0
 21
73.7500000000001
 31
0.0
  0
LINE
  5
8D
330
1E
100
AcDbEntity
  8
0
100
AcDbLine
 10
45.0
 20
74.15000000000009
 30
0.0
 11
45.0
 21
80.05000000000009
 31
0.0
  0
LINE
  5
8E
330
1E
100
AcDbEntity
  8
0
100
AcDbLine
 10
45.0
 20
74.15000000000009
 30
0.0
 11
45.0
 21
67.4500000000001
 31
0.0
  0
LINE
  5
8F
330
1E
100
AcDbEntity
  8
0
100
AcDbLine
 10
45.0
 20
74.15000000000009
 30
0.0
 11
45.0
 21
75.65000000000009
 31
0.0
  0
LINE
  5
90
330
1E
100
AcDbEntity
  8
0
100
AcDbLine
 10
45.0
 20
79.0500000000001
 30
0.0
 11
45.0
 21
83.25000000000009
 31
0.0
  0
LINE
  5
91
330
1E
100
AcDbEntity
  8
0
100
AcDbLine
 10
45.0
 20
86.85000000000009
 30
0.0
 11
45.0
 21
85.85000000000009
 31
0.0
  0
LINE
  5
92
330
1E
100
AcDbEntity
  8
0
100
AcDbLine
 10
45.0
 20
83.25000000000009
 30
0.0
 11
45.0
 21
85.85000000000009
 31
0.0
  0
LINE
  5
93
330
1E
100
AcDbEntity
  8
0
100
AcDbLine
 10
45.0
 20
83.25000000000009
 30
0.0
 11
45.0
 21
79.0500000000001
 31
0.0
  0
LINE
  5
94
330
1E
100
AcDbEntity
  8
0
100
AcDbLine
 10
45.0
 20
85.85000000000009
 30
0.0
 11
45.0
 21
86.85000000000009
 31
0.0
  0
LINE
  5
95
330
1E
100
AcDbEntity
  8
0
100
AcDbLine
 10
45.0
 20
85.85000000000009
 30
0.0
 11
45.0
 21
83.25000000000009
 31
0.0
  0
LINE
  5
96
330
1E
100
AcDbEntity
  8
0
100
AcDbLine
 10
45.0
 20
73.7500000000001
 30
0.0
 11
45.0
 21
74.15000000000009
 31
0.0
  0
LINE
  5
97
330
1E
100
AcDbEntity
  8
0
100
AcDbLine
 10
45.0
 20
73.7500000000001
 30
0.0
 11
45.0
 21
73.25000000000009
 31
0.0
  0
LINE
  5
98
330
1E
100
AcDbEntity
  8
0
100
AcDbLine
 10
45.0
 20
84.5500000000001
 30
0.0
 11
45.0
 21
87.2500000000001
 31
0.0
  0
LINE
  5
99
330
1E
100
AcDbEntity
  8
0
100
AcDbLine
 10
45.0
 20
109.25
 30
0.0
 11
45.0
 21
110.25
 31
0.0
  0
LINE
  5
9A
330
1E
100
AcDbEntity
  8
0
100
AcDbLine
 10
45.0
 20
106.75
 30
0.0
 11
45.0
 21
109.25
 31
0.0
  0
LINE
  5
9B
330
1E
100
AcDbEntity
  8
0
100
AcDbLine
 10
45.0
 20
106.75
 30
0.0
 11
45.0
 21
60.25000000000011
 31
0.0
  0
LINE
  5
9C
330
1E
100
AcDbEntity
  8
0
100
AcDbLine
 10
45.0
 20
88.25000000000009
 30
0.0
 11
45.0
 21
87.2500000000001
 31
0.0
  0
LINE
  5
9D
330
1E
100
AcDbEntity
  8
0
100
AcDbLine
 10
45.0
 20
109.25
 30
0.0
 11
45.0
 21
106.75
 31
0.0
  0
LINE
  5
9E
330
1E
100
AcDbEntity
  8
0
100
AcDbLine
 10
45.0
 20
111.5499999999999
 30
0.0
 11
45.0
 21
111.7499999999999
 31
0.0
  0
LINE
  5
9F
330
1E
100
AcDbEntity
  8
0
100
AcDbLine
 10
45.0
 20
111.5499999999999
 30
0.0
 11
45.0
 21
111.05
 31
0.0
  0
LINE
  5
A0
330
1E
100
AcDbEntity
  8
0
100
AcDbLine
 10
45.0
 20
110.25
 30
0.0
 11
45.0
 21
109.25
 31
0.0
  0
LINE
  5
A1
330
1E
100
AcDbEntity
  8
0
100
AcDbLine
 10
45.0
 20
110.25
 30
0.0
 11
45.0
 21
111.05
 31
0.0
  0
LINE
  5
A2
330
1E
100
AcDbEntity
  8
0
100
AcDbLine
 10
45.0
 20
111.05
 30
0.0
 11
45.0
 21
110.25
 31
0.0
  0
LINE
  5
A3
330
1E
100
AcDbEntity
  8
0
100
AcDbLine
 10
45.0
 20
111.05
 30
0.0
 11
45.0
 21
111.5499999999999
 31
0.0
  0
LINE
  5
A4
330
1E
100
AcDbEntity
  8
0
100
AcDbLine
 10
45.0
 20
87.2500000000001
 30
0.0
 11
45.0
 21
88.25000000000009
 31
0.0
  0
LINE
  5
A5
330
1E
100
AcDbEntity
  8
0
100
AcDbLine
 10
45.0
 20
87.2500000000001
 30
0.0
 11
45.0
 21
84.5500000000001
 31
0.0
  0
LINE
  5
A6
330
1E
100
AcDbEntity
  8
0
100
AcDbLine
 10
45.3
 20
10.9500000000001
 30
0.0
 11
45.3
 21
9.750000000000088
 31
0.0
  0
LINE
  5
A7
330
1E
100
AcDbEntity
  8
0
100
AcDbLine
 10
45.3
 20
10.9500000000001
 30
0.0
 11
45.3
 21
12.2500000000001
 31
0.0
  0
LINE
  5
A8
330
1E
100
AcDbEntity
  8
0
100
AcDbLine
 10
45.3
 20
12.2500000000001
 30
0.0
 11
45.3
 21
10.9500000000001
 31
0.0
  0
LINE
  5
A9
330
1E
100
AcDbEntity
  8
0
100
AcDbLine
 10
45.3
 20
12.2500000000001
 30
0.0
 11
45.3
 21
13.75000000000009
 31
0.0
  0
LINE
  5
AA
330
1E
100
AcDbEntity
  8
0
100
AcDbLine
 10
45.3
 20
13.75000000000009
 30
0.0
 11
45.3
 21
12.2500000000001
 31
0.0
  0
LINE
  5
AB
330
1E
100
AcDbEntity
  8
0
100
AcDbLine
 10
45.3
 20
13.75000000000009
 30
0.0
 11
45.3
 21
60.25000000000011
 31
0.0
  0
LINE
  5
AC
330
1E
100
AcDbEntity
  8
0
100
AcDbLine
 10
45.3
 20
13.75000000000009
 30
0.0
 11
45.3
 21
60.25000000000011
 31
0.0
  0
LINE
  5
AD
330
1E
100
AcDbEntity
  8
0
100
AcDbLine
 10
45.3
 20
9.750000000000088
 30
0.0
 11
45.3
 21
8.85000000000009
 31
0.0
  0
LINE
  5
AE
330
1E
100
AcDbEntity
  8
0
100
AcDbLine
 10
45.3
 20
9.750000000000088
 30
0.0
 11
45.3
 21
10.9500000000001
 31
0.0
  0
LINE
  5
AF
330
1E
100
AcDbEntity
  8
0
100
AcDbLine
 10
45.3
 20
60.25000000000011
 30
0.0
 11
45.3
 21
106.75
 31
0.0
  0
LINE
  5
B0
330
1E
100
AcDbEntity
  8
0
100
AcDbLine
 10
45.3
 20
109.5499999999999
 30
0.0
 11
45.3
 21
108.25
 31
0.0
  0
LINE
  5
B1
330
1E
100
AcDbEntity
  8
0
100
AcDbLine
 10
45.3
 20
109.5499999999999
 30
0.0
 11
45.3
 21
110.7499999999999
 31
0.0
  0
LINE
  5
B2
330
1E
100
AcDbEntity
  8
0
100
AcDbLine
 10
45.3
 20
108.25
 30
0.0
 11
45.3
 21
106.75
 31
0.0
  0
LINE
  5
B3
330
1E
100
AcDbEntity
  8
0
100
AcDbLine
 10
45.3
 20
108.25
 30
0.0
 11
45.3
 21
109.5499999999999
 31
0.0
  0
LINE
  5
B4
330
1E
100
AcDbEntity
  8
0
100
AcDbLine
 10
45.3
 20
106.75
 30
0.0
 11
45.3
 21
60.25000000000011
 31
0.0
  0
LINE
  5
B5
330
1E
100
AcDbEntity
  8
0
100
AcDbLine
 10
45.3
 20
106.75
 30
0.0
 11
45.3
 21
108.25
 31
0.0
  0
LINE
  5
B6
330
1E
100
AcDbEntity
  8
0
100
AcDbLine
 10
45.3
 20
8.85000000000009
 30
0.0
 11
45.3
 21
8.250000000000088
 31
0.0
  0
LINE
  5
B7
330
1E
100
AcDbEntity
  8
0
100
AcDbLine
 10
45.3
 20
8.85000000000009
 30
0.0
 11
45.3
 21
9.750000000000088
 31
0.0
  0
LINE
  5
B8
330
1E
100
AcDbEntity
  8
0
100
AcDbLine
 10
45.3
 20
8.250000000000088
 30
0.0
 11
45.3
 21
8.050000000000089
 31
0.0
  0
LINE
  5
B9
330
1E
100
AcDbEntity
  8
0
100
AcDbLine
 10
45.3
 20
8.250000000000088
 30
0.0
 11
45.3
 21
8.85000000000009
 31
0.0
  0
LINE
  5
BA
330
1E
100
AcDbEntity
  8
0
100
AcDbLine
 10
45.3
 20
110.7499999999999
 30
0.0
 11
45.3
 21
111.65
 31
0.0
  0
LINE
  5
BB
330
1E
100
AcDbEntity
  8
0
100
AcDbLine
 10
45.3
 20
110.7499999999999
 30
0.0
 11
45.3
 21
109.5499999999999
 31
0.0
  0
LINE
  5
BC
330
1E
100
AcDbEntity
  8
0
100
AcDbLine
 10
45.3
 20
111.65
 30
0.0
 11
45.3
 21
110.7499999999999
 31
0.0
  0
LINE
  5
BD
330
1E
100
AcDbEntity
  8
0
100
AcDbLine
 10
45.3
 20
111.65
 30
0.0
 11
45.3
 21
112.25
 31
0.0
  0
LINE
  5
BE
330
1E
100
AcDbEntity
  8
0
100
AcDbLine
 10
45.3
 20
112.25
 30
0.0
 11
45.3
 21
111.65
 31
0.0
  0
LINE
  5
BF
330
1E
100
AcDbEntity
  8
0
100
AcDbLine
 10
45.3
 20
112.25
 30
0.0
 11
45.3
 21
112.45
 31
0.0
  0
LINE
  5
C0
330
1E
100
AcDbEntity
  8
0
100
AcDbLine
 10
45.3
 20
8.050000000000089
 30
0.0
 11
46.0
 21
7.750000000000089
 31
0.0
  0
LINE
  5
C1
330
1E
100
AcDbEntity
  8
0
100
AcDbLine
 10
45.3
 20
8.050000000000089
 30
0.0
 11
45.3
 21
8.250000000000088
 31
0.0
  0
LINE
  5
C2
330
1E
100
AcDbEntity
  8
0
100
AcDbLine
 10
56.0
 20
13.75000000000009
 30
0.0
 11
56.0
 21
12.2500000000001
 31
0.0
  0
LINE
  5
C3
330
1E
100
AcDbEntity
  8
0
100
AcDbLine
 10
56.0
 20
13.75000000000009
 30
0.0
 11
56.0
 21
60.25000000000011
 31
0.0
  0
LINE
  5
C4
330
1E
100
AcDbEntity
  8
0
100
AcDbLine
 10
56.0
 20
12.2500000000001
 30
0.0
 11
56.0
 21
10.75000000000009
 31
0.0
  0
LINE
  5
C5
330
1E
100
AcDbEntity
  8
0
100
AcDbLine
 10
56.0
 20
12.2500000000001
 30
0.0
 11
56.0
 21
13.75000000000009
 31
0.0
  0
LINE
  5
C6
330
1E
100
AcDbEntity
  8
0
100
AcDbLine
 10
56.0
 20
10.75000000000009
 30
0.0
 11
56.0
 21
9.550000000000089
 31
0.0
  0
LINE
  5
C7
330
1E
100
AcDbEntity
  8
0
100
AcDbLine
 10
56.0
 20
10.75000000000009
 30
0.0
 11
56.0
 21
12.2500000000001
 31
0.0
  0
LINE
  5
C8
330
1E
100
AcDbEntity
  8
0
100
AcDbLine
 10
56.0
 20
9.550000000000089
 30
0.0
 11
56.0
 21
8.550000000000089
 31
0.0
  0
LINE
  5
C9
330
1E
100
AcDbEntity
  8
0
100
AcDbLine
 10
56.0
 20
9.550000000000089
 30
0.0
 11
56.0
 21
10.75000000000009
 31
0.0
  0
LINE
  5
CA
330
1E
100
AcDbEntity
  8
0
100
AcDbLine
 10
56.0
 20
8.550000000000089
 30
0.0
 11
56.0
 21
9.550000000000089
 31
0.0
  0
LINE
  5
CB
330
1E
100
AcDbEntity
  8
0
100
AcDbLine
 10
56.0
 20
8.550000000000089
 30
0.0
 11
56.0
 21
7.950000000000088
 31
0.0
  0
LINE
  5
CC
330
1E
100
AcDbEntity
  8
0
100
AcDbLine
 10
56.0
 20
48.5380000000001
 30
0.0
 11
56.18
 21
48.2500000000001
 31
0.0
  0
LINE
  5
CD
330
1E
100
AcDbEntity
  8
0
100
AcDbLine
 10
56.0
 20
71.96200000000009
 30
0.0
 11
56.18
 21
72.2500000000001
 31
0.0
  0
LINE
  5
CE
330
1E
100
AcDbEntity
  8
0
100
AcDbLine
 10
56.0
 20
60.25000000000011
 30
0.0
 11
56.0
 21
106.75
 31
0.0
  0
LINE
  5
CF
330
1E
100
AcDbEntity
  8
0
100
AcDbLine
 10
56.0
 20
7.950000000000088
 30
0.0
 11
56.0
 21
8.550000000000089
 31
0.0
  0
LINE
  5
D0
330
1E
100
AcDbEntity
  8
0
100
AcDbLine
 10
56.0
 20
7.950000000000088
 30
0.0
 11
56.0
 21
7.750000000000089
 31
0.0
  0
LINE
  5
D1
330
1E
100
AcDbEntity
  8
0
100
AcDbLine
 10
46.0
 20
7.750000000000089
 30
0.0
 11
56.0
 21
7.750000000000089
 31
0.0
  0
LINE
  5
D2
330
1E
100
AcDbEntity
  8
0
100
AcDbLine
 10
56.0
 20
106.75
 30
0.0
 11
56.0
 21
60.25000000000011
 31
0.0
  0
LINE
  5
D3
330
1E
100
AcDbEntity
  8
0
100
AcDbLine
 10
56.0
 20
106.75
 30
0.0
 11
56.0
 21
108.25
 31
0.0
  0
LINE
  5
D4
330
1E
100
AcDbEntity
  8
0
100
AcDbLine
 10
56.0
 20
108.25
 30
0.0
 11
56.0
 21
106.75
 31
0.0
  0
LINE
  5
D5
330
1E
100
AcDbEntity
  8
0
100
AcDbLine
 10
56.0
 20
108.25
 30
0.0
 11
56.0
 21
109.7499999999999
 31
0.0
  0
LINE
  5
D6
330
1E
100
AcDbEntity
  8
0
100
AcDbLine
 10
56.0
 20
109.7499999999999
 30
0.0
 11
56.0
 21
108.25
 31
0.0
  0
LINE
  5
D7
330
1E
100
AcDbEntity
  8
0
100
AcDbLine
 10
56.0
 20
109.7499999999999
 30
0.0
 11
56.0
 21
110.95
 31
0.0
  0
LINE
  5
D8
330
1E
100
AcDbEntity
  8
0
100
AcDbLine
 10
56.0
 20
110.95
 30
0.0
 11
56.0
 21
109.7499999999999
 31
0.0
  0
LINE
  5
D9
330
1E
100
AcDbEntity
  8
0
100
AcDbLine
 10
56.0
 20
110.95
 30
0.0
 11
56.0
 21
111.95
 31
0.0
  0
LINE
  5
DA
330
1E
100
AcDbEntity
  8
0
100
AcDbLine
 10
56.0
 20
111.95
 30
0.0
 11
56.0
 21
110.95
 31
0.0
  0
LINE
  5
DB
330
1E
100
AcDbEntity
  8
0
100
AcDbLine
 10
56.0
 20
111.95
 30
0.0
 11
56.0
 21
112.5499999999999
 31
0.0
  0
LINE
  5
DC
330
1E
100
AcDbEntity
  8
0
100
AcDbLine
 10
56.0
 20
112.5499999999999
 30
0.0
 11
56.0
 21
111.95
 31
0.0
  0
LINE
  5
DD
330
1E
100
AcDbEntity
  8
0
100
AcDbLine
 10
56.0
 20
112.5499999999999
 30
0.0
 11
56.0
 21
112.7499999999999
 31
0.0
  0
LINE
  5
DE
330
1E
100
AcDbEntity
  8
0
100
AcDbLine
 10
76.2105
 20
25.2500000000001
 30
0.0
 11
78.3474
 21
25.2500000000001
 31
0.0
  0
LINE
  5
DF
330
1E
100
AcDbEntity
  8
0
100
AcDbLine
 10
74.88420000000001
 20
25.2500000000001
 30
0.0
 11
76.2105
 21
25.2500000000001
 31
0.0
  0
LINE
  5
E0
330
1E
100
AcDbEntity
  8
0
100
AcDbLine
 10
77.30800000000001
 20
25.2500000000001
 30
0.0
 11
78.2348
 21
25.2500000000001
 31
0.0
  0
LINE
  5
E1
330
1E
100
AcDbEntity
  8
0
100
AcDbLine
 10
78.2348
 20
25.2500000000001
 30
0.0
 11
79.94629999999999
 21
25.2500000000001
 31
0.0
  0
LINE
  5
E2
330
1E
100
AcDbEntity
  8
0
100
AcDbLine
 10
77.337
 20
25.2500000000001
 30
0.0
 11
78.17969999999999
 21
25.2500000000001
 31
0.0
  0
LINE
  5
E3
330
1E
100
AcDbEntity
  8
0
100
AcDbLine
 10
78.17969999999999
 20
25.2500000000001
 30
0.0
 11
79.97530000000001
 21
25.2500000000001
 31
0.0
  0
LINE
  5
E4
330
1E
100
AcDbEntity
  8
0
100
AcDbLine
 10
79.94629999999999
 20
25.2500000000001
 30
0.0
 11
82.29219999999999
 21
25.2500000000001
 31
0.0
  0
LINE
  5
E5
330
1E
100
AcDbEntity
  8
0
100
AcDbLine
 10
82.29219999999999
 20
25.2500000000001
 30
0.0
 11
85.0725
 21
25.2500000000001
 31
0.0
  0
LINE
  5
E6
330
1E
100
AcDbEntity
  8
0
100
AcDbLine
 10
78.3474
 20
25.2500000000001
 30
0.0
 11
81.22110000000001
 21
25.2500000000001
 31
0.0
  0
LINE
  5
E8
330
1E
100
AcDbEntity
  8
0
100
AcDbLine
 10
79.97530000000001
 20
25.2500000000001
 30
0.0
 11
82.40799999999998
 21
25.2500000000001
 31
0.0
  0
LINE
  5
E9
330
1E
100
AcDbEntity
  8
0
100
AcDbLine
 10
88.0236
 20
25.2500000000001
 30
0.0
 11
90.9777
 21
25.2500000000001
 31
0.0
  0
LINE
  5
EA
330
1E
100
AcDbEntity
  8
0
100
AcDbLine
 10
90.9862
 20
25.2500000000001
 30
0.0
 11
93.6796
 21
25.2500000000001
 31
0.0
  0
LINE
  5
EB
330
1E
100
AcDbEntity
  8
0
100
AcDbLine
 10
90.9777
 20
25.2500000000001
 30
0.0
 11
93.7
 21
25.2500000000001
 31
0.0
  0
LINE
  5
EC
330
1E
100
AcDbEntity
  8
0
100
AcDbLine
 10
88.2003
 20
25.2500000000001
 30
0.0
 11
90.9862
 21
25.2500000000001
 31
0.0
  0
LINE
  5
ED
330
1E
100
AcDbEntity
  8
0
100
AcDbLine
 10
88.0
 20
25.2500000000001
 30
0.0
 11
91.53679999999999
 21
25.2500000000001
 31
0.0
  0
LINE
  5
EF
330
1E
100
AcDbEntity
  8
0
100
AcDbLine
 10
91.53679999999999
 20
25.2500000000001
 30
0.0
 11
94.7789
 21
25.2500000000001
 31
0.0
  0
LINE
  5
F0
330
1E
100
AcDbEntity
  8
0
100
AcDbLine
 10
85.0725
 20
25.2500000000001
 30
0.0
 11
88.2003
 21
25.2500000000001
 31
0.0
  0
LINE
  5
F1
330
1E
100
AcDbEntity
  8
0
100
AcDbLine
 10
84.4632
 20
25.2500000000001
 30
0.0
 11
88.0
 21
25.2500000000001
 31
0.0
  0
LINE
  5
F2
330
1E
100
AcDbEntity
  8
0
100
AcDbLine
 10
84.95369999999999
 20
25.2500000000001
 30
0.0
 11
88.0236
 21
25.2500000000001
 31
0.0
  0
LINE
  5
F3
330
1E
100
AcDbEntity
  8
0
100
AcDbLine
 10
82.40799999999998
 20
25.2500000000001
 30
0.0
 11
84.95369999999999
 21
25.2500000000001
 31
0.0
  0
LINE
  5
F4
330
1E
100
AcDbEntity
  8
0
100
AcDbLine
 10
81.22110000000001
 20
25.2500000000001
 30
0.0
 11
84.4632
 21
25.2500000000001
 31
0.0
  0
LINE
  5
F6
330
1E
100
AcDbEntity
  8
0
100
AcDbLine
 10
77.0474
 20
25.2500000000001
 30
0.0
 11
77.337
 21
25.2500000000001
 31
0.0
  0
LINE
  5
F7
330
1E
100
AcDbEntity
  8
0
100
AcDbLine
 10
77.0474
 20
25.2500000000001
 30
0.0
 11
77.30800000000001
 21
25.2500000000001
 31
0.0
  0
LINE
  5
F8
330
1E
100
AcDbEntity
  8
0
100
AcDbLine
 10
80.8736
 20
25.3654880000001
 30
0.0
 11
84.19209999999999
 21
25.4892000000001
 31
0.0
  0
LINE
  5
FA
330
1E
100
AcDbEntity
  8
0
100
AcDbLine
 10
74.3684
 20
25.2500000000001
 30
0.0
 11
74.88420000000001
 21
25.2500000000001
 31
0.0
  0
LINE
  5
FB
330
1E
100
AcDbEntity
  8
0
100
AcDbLine
 10
74.0
 20
25.3071440000001
 30
0.0
 11
74.0
 21
25.3871440000001
 31
0.0
  0
LINE
  5
FC
330
1E
100
AcDbEntity
  8
0
100
AcDbLine
 10
74.0
 20
25.3071440000001
 30
0.0
 11
74.3684
 21
25.2500000000001
 31
0.0
  0
LINE
  5
FD
330
1E
100
AcDbEntity
  8
0
100
AcDbLine
 10
74.0
 20
32.6785700000001
 30
0.0
 11
74.0
 21
32.1071400000001
 31
0.0
  0
LINE
  5
FE
330
1E
100
AcDbEntity
  8
0
100
AcDbLine
 10
74.0
 20
32.6785700000001
 30
0.0
 11
74.0
 21
33.11286000000009
 31
0.0
  0
LINE
  5
FF
330
1E
100
AcDbEntity
  8
0
100
AcDbLine
 10
74.0
 20
32.6785700000001
 30
0.0
 11
74.29470000000001
 21
32.6785700000001
 31
0.0
  0
LINE
  5
100
330
1E
100
AcDbEntity
  8
0
100
AcDbLine
 10
74.0
 20
32.1071400000001
 30
0.0
 11
74.0
 21
26.3928600000001
 31
0.0
  0
LINE
  5
101
330
1E
100
AcDbEntity
  8
0
100
AcDbLine
 10
74.0
 20
32.1071400000001
 30
0.0
 11
74.0
 21
32.6785700000001
 31
0.0
  0
LINE
  5
102
330
1E
100
AcDbEntity
  8
0
100
AcDbLine
 10
74.0
 20
26.3928600000001
 30
0.0
 11
74.0
 21
25.8214320000001
 31
0.0
  0
LINE
  5
103
330
1E
100
AcDbEntity
  8
0
100
AcDbLine
 10
74.0
 20
26.3928600000001
 30
0.0
 11
74.0
 21
32.1071400000001
 31
0.0
  0
LINE
  5
106
330
1E
100
AcDbEntity
  8
0
100
AcDbLine
 10
74.0
 20
26.3928600000001
 30
0.0
 11
75.19989999999999
 21
25.8214320000001
 31
0.0
  0
LINE
  5
107
330
1E
100
AcDbEntity
  8
0
100
AcDbLine
 10
74.0
 20
33.11286000000009
 30
0.0
 11
74.0
 21
32.6785700000001
 31
0.0
  0
LINE
  5
108
330
1E
100
AcDbEntity
  8
0
100
AcDbLine
 10
74.0
 20
33.11286000000009
 30
0.0
 11
74.0
 21
33.1928600000001
 31
0.0
  0
LINE
  5
109
330
1E
100
AcDbEntity
  8
0
100
AcDbLine
 10
74.0
 20
25.8214320000001
 30
0.0
 11
74.0
 21
25.3871440000001
 31
0.0
  0
LINE
  5
10A
330
1E
100
AcDbEntity
  8
0
100
AcDbLine
 10
74.0
 20
25.8214320000001
 30
0.0
 11
74.0
 21
26.3928600000001
 31
0.0
  0
LINE
  5
110
330
1E
100
AcDbEntity
  8
0
100
AcDbLine
 10
74.29470000000001
 20
32.6785700000001
 30
0.0
 11
75.19989999999999
 21
32.6785700000001
 31
0.0
  0
LINE
  5
116
330
1E
100
AcDbEntity
  8
0
100
AcDbLine
 10
89.73029999999999
 20
25.8214320000001
 30
0.0
 11
91.8079
 21
25.4892000000001
 31
0.0
  0
LINE
  5
117
330
1E
100
AcDbEntity
  8
0
100
AcDbLine
 10
88.0
 20
25.8214320000001
 30
0.0
 11
89.73029999999999
 21
25.8214320000001
 31
0.0
  0
LINE
  5
11B
330
1E
100
AcDbEntity
  8
0
100
AcDbLine
 10
86.2697
 20
25.8214320000001
 30
0.0
 11
88.0
 21
25.8214320000001
 31
0.0
  0
LINE
  5
11C
330
1E
100
AcDbEntity
  8
0
100
AcDbLine
 10
84.19209999999999
 20
25.4892000000001
 30
0.0
 11
86.2697
 21
25.8214320000001
 31
0.0
  0
LINE
  5
120
330
1E
100
AcDbEntity
  8
0
100
AcDbLine
 10
77.5368
 20
25.4577680000001
 30
0.0
 11
80.8736
 21
25.3654880000001
 31
0.0
  0
LINE
  5
122
330
1E
100
AcDbEntity
  8
0
100
AcDbLine
 10
89.73029999999999
 20
32.6785700000001
 30
0.0
 11
91.8079
 21
33.0107900000001
 31
0.0
  0
LINE
  5
126
330
1E
100
AcDbEntity
  8
0
100
AcDbLine
 10
88.0
 20
32.6785700000001
 30
0.0
 11
89.73029999999999
 21
32.6785700000001
 31
0.0
  0
LINE
  5
129
330
1E
100
AcDbEntity
  8
0
100
AcDbLine
 10
86.2697
 20
32.6785700000001
 30
0.0
 11
88.0
 21
32.6785700000001
 31
0.0
  0
LINE
  5
12A
330
1E
100
AcDbEntity
  8
0
100
AcDbLine
 10
84.19209999999999
 20
33.0107900000001
 30
0.0
 11
86.2697
 21
32.6785700000001
 31
0.0
  0
LINE
  5
12E
330
1E
100
AcDbEntity
  8
0
100
AcDbLine
 10
91.53679999999999
 20
33.25000000000009
 30
0.0
 11
94.7789
 21
33.25000000000009
 31
0.0
  0
LINE
  5
134
330
1E
100
AcDbEntity
  8
0
100
AcDbLine
 10
80.8736
 20
33.1345000000001
 30
0.0
 11
84.19209999999999
 21
33.0107900000001
 31
0.0
  0
LINE
  5
137
330
1E
100
AcDbEntity
  8
0
100
AcDbLine
 10
77.5368
 20
33.04221000000009
 30
0.0
 11
80.8736
 21
33.1345000000001
 31
0.0
  0
LINE
  5
138
330
1E
100
AcDbEntity
  8
0
100
AcDbLine
 10
75.19989999999999
 20
32.6785700000001
 30
0.0
 11
77.5368
 21
33.04221000000009
 31
0.0
  0
LINE
  5
13A
330
1E
100
AcDbEntity
  8
0
100
AcDbLine
 10
75.19989999999999
 20
25.8214320000001
 30
0.0
 11
77.5368
 21
25.4577680000001
 31
0.0
  0
LINE
  5
13C
330
1E
100
AcDbEntity
  8
0
100
AcDbLine
 10
84.4632
 20
33.25000000000009
 30
0.0
 11
88.0
 21
33.25000000000009
 31
0.0
  0
LINE
  5
13D
330
1E
100
AcDbEntity
  8
0
100
AcDbLine
 10
74.0
 20
33.1928600000001
 30
0.0
 11
74.0
 21
33.11286000000009
 31
0.0
  0
LINE
  5
13E
330
1E
100
AcDbEntity
  8
0
100
AcDbLine
 10
74.0
 20
33.1928600000001
 30
0.0
 11
74.3684
 21
33.25000000000009
 31
0.0
  0
LINE
  5
13F
330
1E
100
AcDbEntity
  8
0
100
AcDbLine
 10
74.0
 20
25.3871440000001
 30
0.0
 11
74.0
 21
25.3071440000001
 31
0.0
  0
LINE
  5
140
330
1E
100
AcDbEntity
  8
0
100
AcDbLine
 10
74.0
 20
25.3871440000001
 30
0.0
 11
74.0
 21
25.8214320000001
 31
0.0
  0
LINE
  5
144
330
1E
100
AcDbEntity
  8
0
100
AcDbLine
 10
93.7
 20
25.2500000000001
 30
0.0
 11
96.05440000000001
 21
25.2500000000001
 31
0.0
  0
LINE
  5
145
330
1E
100
AcDbEntity
  8
0
100
AcDbLine
 10
97.73420000000001
 20
25.2500000000001
 30
0.0
 11
98.6899
 21
25.2500000000001
 31
0.0
  0
LINE
  5
146
330
1E
100
AcDbEntity
  8
0
100
AcDbLine
 10
96.05440000000001
 20
25.2500000000001
 30
0.0
 11
97.7921
 21
25.2500000000001
 31
0.0
  0
LINE
  5
147
330
1E
100
AcDbEntity
  8
0
100
AcDbLine
 10
97.7921
 20
25.2500000000001
 30
0.0
 11
98.632
 21
25.2500000000001
 31
0.0
  0
LINE
  5
148
330
1E
100
AcDbEntity
  8
0
100
AcDbLine
 10
96.0834
 20
25.2500000000001
 30
0.0
 11
97.73420000000001
 21
25.2500000000001
 31
0.0
  0
LINE
  5
149
330
1E
100
AcDbEntity
  8
0
100
AcDbLine
 10
94.7789
 20
25.2500000000001
 30
0.0
 11
97.65260000000001
 21
25.2500000000001
 31
0.0
  0
LINE
  5
14C
330
1E
100
AcDbEntity
  8
0
100
AcDbLine
 10
97.65260000000001
 20
25.2500000000001
 30
0.0
 11
99.78950000000001
 21
25.2500000000001
 31
0.0
  0
LINE
  5
14D
330
1E
100
AcDbEntity
  8
0
100
AcDbLine
 10
93.6796
 20
25.2500000000001
 30
0.0
 11
96.0834
 21
25.2500000000001
 31
0.0
  0
LINE
  5
14E
330
1E
100
AcDbEntity
  8
0
100
AcDbLine
 10
94.7789
 20
33.25000000000009
 30
0.0
 11
97.65260000000001
 21
33.25000000000009
 31
0.0
  0
LINE
  5
14F
330
1E
100
AcDbEntity
  8
0
100
AcDbLine
 10
91.8079
 20
33.0107900000001
 30
0.0
 11
95.12640000000001
 21
33.1345000000001
 31
0.0
  0
LINE
  5
150
330
1E
100
AcDbEntity
  8
0
100
AcDbLine
 10
91.8079
 20
25.4892000000001
 30
0.0
 11
95.12640000000001
 21
25.3654880000001
 31
0.0
  0
LINE
  5
152
330
1E
100
AcDbEntity
  8
0
100
AcDbLine
 10
97.65260000000001
 20
33.25000000000009
 30
0.0
 11
99.78950000000001
 21
33.25000000000009
 31
0.0
  0
LINE
  5
153
330
1E
100
AcDbEntity
  8
0
100
AcDbLine
 10
95.12640000000001
 20
33.1345000000001
 30
0.0
 11
98.4632
 21
33.04221000000009
 31
0.0
  0
LINE
  5
154
330
1E
100
AcDbEntity
  8
0
100
AcDbLine
 10
95.12640000000001
 20
25.3654880000001
 30
0.0
 11
98.4632
 21
25.4577680000001
 31
0.0
  0
LINE
  5
156
330
1E
100
AcDbEntity
  8
0
100
AcDbLine
 10
98.632
 20
25.2500000000001
 30
0.0
 11
99.0085
 21
25.2500000000001
 31
0.0
  0
LINE
  5
157
330
1E
100
AcDbEntity
  8
0
100
AcDbLine
 10
98.6899
 20
25.2500000000001
 30
0.0
 11
99.0085
 21
25.2500000000001
 31
0.0
  0
LINE
  5
159
330
1E
100
AcDbEntity
  8
0
100
AcDbLine
 10
101.1158
 20
25.2500000000001
 30
0.0
 11
101.6315999999999
 21
25.2500000000001
 31
0.0
  0
LINE
  5
15B
330
1E
100
AcDbEntity
  8
0
100
AcDbLine
 10
99.78950000000001
 20
25.2500000000001
 30
0.0
 11
101.1158
 21
25.2500000000001
 31
0.0
  0
LINE
  5
15D
330
1E
100
AcDbEntity
  8
0
100
AcDbLine
 10
98.4632
 20
25.4577680000001
 30
0.0
 11
100.8000999999999
 21
25.8214320000001
 31
0.0
  0
LINE
  5
160
330
1E
100
AcDbEntity
  8
0
100
AcDbLine
 10
99.78950000000001
 20
33.25000000000009
 30
0.0
 11
101.1158
 21
33.25000000000009
 31
0.0
  0
LINE
  5
163
330
1E
100
AcDbEntity
  8
0
100
AcDbLine
 10
98.4632
 20
33.04221000000009
 30
0.0
 11
100.8000999999999
 21
32.6785700000001
 31
0.0
  0
LINE
  5
164
330
1E
100
AcDbEntity
  8
0
100
AcDbLine
 10
101.1158
 20
33.25000000000009
 30
0.0
 11
101.6315999999999
 21
33.25000000000009
 31
0.0
  0
LINE
  5
165
330
1E
100
AcDbEntity
  8
0
100
AcDbLine
 10
100.8000999999999
 20
32.6785700000001
 30
0.0
 11
102.0
 21
32.1071400000001
 31
0.0
  0
LINE
  5
169
330
1E
100
AcDbEntity
  8
0
100
AcDbLine
 10
100.8000999999999
 20
25.8214320000001
 30
0.0
 11
102.0
 21
26.3928600000001
 31
0.0
  0
LINE
  5
16A
330
1E
100
AcDbEntity
  8
0
100
AcDbLine
 10
101.6315999999999
 20
25.2500000000001
 30
0.0
 11
102.0
 21
25.3071440000001
 31
0.0
  0
LINE
  5
16B
330
1E
100
AcDbEntity
  8
0
100
AcDbLine
 10
101.496
 20
33.25000000000009
 30
0.0
 11
102.0
 21
33.25000000000009
 31
0.0
  0
LINE
  5
16C
330
1E
100
AcDbEntity
  8
0
100
AcDbLine
 10
100.1519999999999
 20
33.25000000000009
 30
0.0
 11
101.496
 21
33.25000000000009
 31
0.0
  0
LINE
  5
16D
330
1E
100
AcDbEntity
  8
0
100
AcDbLine
 10
97.91200000000001
 20
33.25000000000009
 30
0.0
 11
100.1519999999999
 21
33.25000000000009
 31
0.0
  0
LINE
  5
16E
330
1E
100
AcDbEntity
  8
0
100
AcDbLine
 10
94.944
 20
33.25000000000009
 30
0.0
 11
97.91200000000001
 21
33.25000000000009
 31
0.0
  0
LINE
  5
16F
330
1E
100
AcDbEntity
  8
0
100
AcDbLine
 10
91.584
 20
33.25000000000009
 30
0.0
 11
94.944
 21
33.25000000000009
 31
0.0
  0
LINE
  5
170
330
1E
100
AcDbEntity
  8
0
100
AcDbLine
 10
88.0
 20
33.25000000000009
 30
0.0
 11
91.584
 21
33.25000000000009
 31
0.0
  0
LINE
  5
172
330
1E
100
AcDbEntity
  8
0
100
AcDbLine
 10
88.0
 20
33.25000000000009
 30
0.0
 11
91.53679999999999
 21
33.25000000000009
 31
0.0
  0
LINE
  5
175
330
1E
100
AcDbEntity
  8
0
100
AcDbLine
 10
102.0
 20
25.3071440000001
 30
0.0
 11
102.0
 21
25.3871440000001
 31
0.0
  0
LINE
  5
176
330
1E
100
AcDbEntity
  8
0
100
AcDbLine
 10
102.0
 20
32.1071400000001
 30
0.0
 11
102.0
 21
26.3928600000001
 31
0.0
  0
LINE
  5
177
330
1E
100
AcDbEntity
  8
0
100
AcDbLine
 10
102.0
 20
32.1071400000001
 30
0.0
 11
102.0
 21
32.6785700000001
 31
0.0
  0
LINE
  5
178
330
1E
100
AcDbEntity
  8
0
100
AcDbLine
 10
102.0
 20
26.3928600000001
 30
0.0
 11
102.0
 21
25.8214320000001
 31
0.0
  0
LINE
  5
179
330
1E
100
AcDbEntity
  8
0
100
AcDbLine
 10
102.0
 20
26.3928600000001
 30
0.0
 11
102.0
 21
32.1071400000001
 31
0.0
  0
LINE
  5
17A
330
1E
100
AcDbEntity
  8
0
100
AcDbLine
 10
102.0
 20
33.11286000000009
 30
0.0
 11
102.0
 21
32.6785700000001
 31
0.0
  0
LINE
  5
17B
330
1E
100
AcDbEntity
  8
0
100
AcDbLine
 10
102.0
 20
33.11286000000009
 30
0.0
 11
102.0
 21
33.1928600000001
 31
0.0
  0
LINE
  5
17C
330
1E
100
AcDbEntity
  8
0
100
AcDbLine
 10
102.0
 20
25.8214320000001
 30
0.0
 11
102.0
 21
25.3871440000001
 31
0.0
  0
LINE
  5
17D
330
1E
100
AcDbEntity
  8
0
100
AcDbLine
 10
102.0
 20
25.8214320000001
 30
0.0
 11
102.0
 21
26.3928600000001
 31
0.0
  0
LINE
  5
17E
330
1E
100
AcDbEntity
  8
0
100
AcDbLine
 10
102.0
 20
33.1928600000001
 30
0.0
 11
102.0
 21
33.11286000000009
 31
0.0
  0
LINE
  5
17F
330
1E
100
AcDbEntity
  8
0
100
AcDbLine
 10
102.0
 20
32.6785700000001
 30
0.0
 11
102.0
 21
33.11286000000009
 31
0.0
  0
LINE
  5
180
330
1E
100
AcDbEntity
  8
0
100
AcDbLine
 10
102.0
 20
32.6785700000001
 30
0.0
 11
102.0
 21
32.1071400000001
 31
0.0
  0
LINE
  5
181
330
1E
100
AcDbEntity
  8
0
100
AcDbLine
 10
102.0
 20
25.3871440000001
 30
0.0
 11
102.0
 21
25.8214320000001
 31
0.0
  0
LINE
  5
182
330
1E
100
AcDbEntity
  8
0
100
AcDbLine
 10
102.0
 20
25.3871440000001
 30
0.0
 11
102.0
 21
25.3071440000001
 31
0.0
  0
LINE
  5
185
330
1E
100
AcDbEntity
  8
0
100
AcDbLine
 10
102.0
 20
33.25000000000009
 30
0.0
 11
102.0
 21
86.2500000000001
 31
0.0
  0
LINE
  5
186
330
1E
100
AcDbEntity
  8
0
100
AcDbLine
 10
101.6315999999999
 20
33.25000000000009
 30
0.0
 11
102.0
 21
33.25000000000009
 31
0.0
  0
LINE
  5
187
330
1E
100
AcDbEntity
  8
0
100
AcDbLine
 10
101.6315999999999
 20
33.25000000000009
 30
0.0
 11
102.0
 21
33.1928600000001
 31
0.0
  0
LINE
  5
188
330
1E
100
AcDbEntity
  8
0
100
AcDbLine
 10
74.3684
 20
33.25000000000009
 30
0.0
 11
74.88420000000001
 21
33.25000000000009
 31
0.0
  0
LINE
  5
189
330
1E
100
AcDbEntity
  8
0
100
AcDbLine
 10
74.0
 20
33.25000000000009
 30
0.0
 11
74.50399999999999
 21
33.25000000000009
 31
0.0
  0
LINE
  5
18A
330
1E
100
AcDbEntity
  8
0
100
AcDbLine
 10
74.0
 20
33.25000000000009
 30
0.0
 11
74.0
 21
43.6331775700936
 31
0.0
  0
LINE
  5
18B
330
1E
100
AcDbEntity
  8
0
100
AcDbLine
 10
74.0
 20
33.25000000000009
 30
0.0
 11
74.3684
 21
33.25000000000009
 31
0.0
  0
LINE
  5
18C
330
1E
100
AcDbEntity
  8
0
100
AcDbLine
 10
76.2105
 20
33.25000000000009
 30
0.0
 11
78.3474
 21
33.25000000000009
 31
0.0
  0
LINE
  5
18D
330
1E
100
AcDbEntity
  8
0
100
AcDbLine
 10
74.88420000000001
 20
33.25000000000009
 30
0.0
 11
76.2105
 21
33.25000000000009
 31
0.0
  0
LINE
  5
18E
330
1E
100
AcDbEntity
  8
0
100
AcDbLine
 10
74.50399999999999
 20
33.25000000000009
 30
0.0
 11
75.848
 21
33.25000000000009
 31
0.0
  0
LINE
  5
18F
330
1E
100
AcDbEntity
  8
0
100
AcDbLine
 10
75.848
 20
33.25000000000009
 30
0.0
 11
78.08800000000001
 21
33.25000000000009
 31
0.0
  0
LINE
  5
190
330
1E
100
AcDbEntity
  8
0
100
AcDbLine
 10
78.3474
 20
33.25000000000009
 30
0.0
 11
81.056
 21
33.25000000000009
 31
0.0
  0
LINE
  5
192
330
1E
100
AcDbEntity
  8
0
100
AcDbLine
 10
78.08800000000001
 20
33.25000000000009
 30
0.0
 11
81.056
 21
33.25000000000009
 31
0.0
  0
LINE
  5
193
330
1E
100
AcDbEntity
  8
0
100
AcDbLine
 10
66.6
 20
42.8980000000001
 30
0.0
 11
66.6
 21
42.2500000000001
 31
0.0
  0
LINE
  5
194
330
1E
100
AcDbEntity
  8
0
100
AcDbLine
 10
66.6
 20
42.8980000000001
 30
0.0
 11
66.6
 21
44.6260000000001
 31
0.0
  0
LINE
  5
195
330
1E
100
AcDbEntity
  8
0
100
AcDbLine
 10
66.0
 20
42.68200000000009
 30
0.0
 11
66.0
 21
43.3300000000001
 31
0.0
  0
LINE
  5
196
330
1E
100
AcDbEntity
  8
0
100
AcDbLine
 10
66.0
 20
42.68200000000009
 30
0.0
 11
66.6
 21
42.2500000000001
 31
0.0
  0
LINE
  5
197
330
1E
100
AcDbEntity
  8
0
100
AcDbLine
 10
66.0
 20
43.3300000000001
 30
0.0
 11
66.0
 21
44.2500000000001
 31
0.0
  0
LINE
  5
198
330
1E
100
AcDbEntity
  8
0
100
AcDbLine
 10
66.0
 20
43.3300000000001
 30
0.0
 11
66.0
 21
42.68200000000009
 31
0.0
  0
LINE
  5
199
330
1E
100
AcDbEntity
  8
0
100
AcDbLine
 10
66.0
 20
43.3300000000001
 30
0.0
 11
66.0
 21
45.0580000000001
 31
0.0
  0
LINE
  5
19A
330
1E
100
AcDbEntity
  8
0
100
AcDbLine
 10
66.6
 20
42.2500000000001
 30
0.0
 11
74.0
 21
43.6331775700936
 31
0.0
  0
LINE
  5
19B
330
1E
100
AcDbEntity
  8
0
100
AcDbLine
 10
66.6
 20
42.2500000000001
 30
0.0
 11
66.6
 21
42.8980000000001
 31
0.0
  0
LINE
  5
19C
330
1E
100
AcDbEntity
  8
0
100
AcDbLine
 10
61.29999999999999
 20
44.2500000000001
 30
0.0
 11
61.29999999999999
 21
44.82600000000011
 31
0.0
  0
LINE
  5
19D
330
1E
100
AcDbEntity
  8
0
100
AcDbLine
 10
61.29999999999999
 20
44.2500000000001
 30
0.0
 11
66.0
 21
44.2500000000001
 31
0.0
  0
LINE
  5
19E
330
1E
100
AcDbEntity
  8
0
100
AcDbLine
 10
61.0
 20
44.6340000000001
 30
0.0
 11
61.29999999999999
 21
44.2500000000001
 31
0.0
  0
LINE
  5
19F
330
1E
100
AcDbEntity
  8
0
100
AcDbLine
 10
61.0
 20
44.6340000000001
 30
0.0
 11
61.0
 21
45.2100000000001
 31
0.0
  0
LINE
  5
1A0
330
1E
100
AcDbEntity
  8
0
100
AcDbLine
 10
61.29999999999999
 20
44.82600000000011
 30
0.0
 11
61.29999999999999
 21
46.3620000000001
 31
0.0
  0
LINE
  5
1A1
330
1E
100
AcDbEntity
  8
0
100
AcDbLine
 10
61.29999999999999
 20
44.82600000000011
 30
0.0
 11
61.29999999999999
 21
44.2500000000001
 31
0.0
  0
LINE
  5
1A2
330
1E
100
AcDbEntity
  8
0
100
AcDbLine
 10
66.0
 20
44.82600000000011
 30
0.0
 11
66.0
 21
44.2500000000001
 31
0.0
  0
LINE
  5
1A3
330
1E
100
AcDbEntity
  8
0
100
AcDbLine
 10
58.18
 20
46.2500000000001
 30
0.0
 11
58.18
 21
46.7540000000001
 31
0.0
  0
LINE
  5
1A4
330
1E
100
AcDbEntity
  8
0
100
AcDbLine
 10
58.18
 20
46.2500000000001
 30
0.0
 11
61.0
 21
46.2500000000001
 31
0.0
  0
LINE
  5
1A5
330
1E
100
AcDbEntity
  8
0
100
AcDbLine
 10
61.0
 20
46.2500000000001
 30
0.0
 11
61.0
 21
45.2100000000001
 31
0.0
  0
LINE
  5
1A6
330
1E
100
AcDbEntity
  8
0
100
AcDbLine
 10
61.0
 20
45.2100000000001
 30
0.0
 11
61.0
 21
46.7460000000001
 31
0.0
  0
LINE
  5
1A7
330
1E
100
AcDbEntity
  8
0
100
AcDbLine
 10
61.0
 20
45.2100000000001
 30
0.0
 11
61.0
 21
44.6340000000001
 31
0.0
  0
LINE
  5
1A8
330
1E
100
AcDbEntity
  8
0
100
AcDbLine
 10
61.0
 20
45.2100000000001
 30
0.0
 11
61.0
 21
46.2500000000001
 31
0.0
  0
LINE
  5
1A9
330
1E
100
AcDbEntity
  8
0
100
AcDbLine
 10
58.0
 20
46.5860000000001
 30
0.0
 11
58.18
 21
46.2500000000001
 31
0.0
  0
LINE
  5
1AA
330
1E
100
AcDbEntity
  8
0
100
AcDbLine
 10
58.0
 20
46.5860000000001
 30
0.0
 11
58.0
 21
47.0900000000001
 31
0.0
  0
LINE
  5
1AB
330
1E
100
AcDbEntity
  8
0
100
AcDbLine
 10
58.18
 20
46.7540000000001
 30
0.0
 11
58.18
 21
48.0980000000001
 31
0.0
  0
LINE
  5
1AC
330
1E
100
AcDbEntity
  8
0
100
AcDbLine
 10
58.18
 20
46.7540000000001
 30
0.0
 11
58.18
 21
46.2500000000001
 31
0.0
  0
LINE
  5
1AD
330
1E
100
AcDbEntity
  8
0
100
AcDbLine
 10
58.0
 20
47.0900000000001
 30
0.0
 11
58.0
 21
48.4340000000001
 31
0.0
  0
LINE
  5
1AE
330
1E
100
AcDbEntity
  8
0
100
AcDbLine
 10
58.0
 20
47.0900000000001
 30
0.0
 11
58.0
 21
46.5860000000001
 31
0.0
  0
LINE
  5
1AF
330
1E
100
AcDbEntity
  8
0
100
AcDbLine
 10
61.0
 20
46.7540000000001
 30
0.0
 11
61.0
 21
46.2500000000001
 31
0.0
  0
LINE
  5
1B0
330
1E
100
AcDbEntity
  8
0
100
AcDbLine
 10
61.0
 20
46.7460000000001
 30
0.0
 11
61.0
 21
49.2420000000001
 31
0.0
  0
LINE
  5
1B1
330
1E
100
AcDbEntity
  8
0
100
AcDbLine
 10
61.0
 20
46.7460000000001
 30
0.0
 11
61.0
 21
45.2100000000001
 31
0.0
  0
LINE
  5
1B2
330
1E
100
AcDbEntity
  8
0
100
AcDbLine
 10
61.29999999999999
 20
46.3620000000001
 30
0.0
 11
61.29999999999999
 21
48.9220000000001
 31
0.0
  0
LINE
  5
1B3
330
1E
100
AcDbEntity
  8
0
100
AcDbLine
 10
61.29999999999999
 20
46.3620000000001
 30
0.0
 11
61.29999999999999
 21
44.82600000000011
 31
0.0
  0
LINE
  5
1B4
330
1E
100
AcDbEntity
  8
0
100
AcDbLine
 10
66.0
 20
46.3620000000001
 30
0.0
 11
66.0
 21
44.82600000000011
 31
0.0
  0
LINE
  5
1B5
330
1E
100
AcDbEntity
  8
0
100
AcDbLine
 10
66.0
 20
45.0580000000001
 30
0.0
 11
66.0
 21
43.3300000000001
 31
0.0
  0
LINE
  5
1B6
330
1E
100
AcDbEntity
  8
0
100
AcDbLine
 10
66.0
 20
45.0580000000001
 30
0.0
 11
66.0
 21
47.8660000000001
 31
0.0
  0
LINE
  5
1B7
330
1E
100
AcDbEntity
  8
0
100
AcDbLine
 10
66.6
 20
44.6260000000001
 30
0.0
 11
66.6
 21
42.8980000000001
 31
0.0
  0
LINE
  5
1B8
330
1E
100
AcDbEntity
  8
0
100
AcDbLine
 10
66.6
 20
44.6260000000001
 30
0.0
 11
66.6
 21
47.50600000000011
 31
0.0
  0
LINE
  5
1B9
330
1E
100
AcDbEntity
  8
0
100
AcDbLine
 10
56.18
 20
48.6820000000001
 30
0.0
 11
56.18
 21
49.8340000000001
 31
0.0
  0
LINE
  5
1BA
330
1E
100
AcDbEntity
  8
0
100
AcDbLine
 10
56.18
 20
48.6820000000001
 30
0.0
 11
56.18
 21
48.2500000000001
 31
0.0
  0
LINE
  5
1BB
330
1E
100
AcDbEntity
  8
0
100
AcDbLine
 10
56.18
 20
48.2500000000001
 30
0.0
 11
56.18
 21
48.6820000000001
 31
0.0
  0
LINE
  5
1BC
330
1E
100
AcDbEntity
  8
0
100
AcDbLine
 10
56.18
 20
48.2500000000001
 30
0.0
 11
58.0
 21
48.2500000000001
 31
0.0
  0
LINE
  5
1BD
330
1E
100
AcDbEntity
  8
0
100
AcDbLine
 10
58.0
 20
48.6820000000001
 30
0.0
 11
58.0
 21
48.2500000000001
 31
0.0
  0
LINE
  5
1BE
330
1E
100
AcDbEntity
  8
0
100
AcDbLine
 10
58.0
 20
48.4340000000001
 30
0.0
 11
58.0
 21
50.6180000000001
 31
0.0
  0
LINE
  5
1BF
330
1E
100
AcDbEntity
  8
0
100
AcDbLine
 10
58.0
 20
48.4340000000001
 30
0.0
 11
58.0
 21
47.0900000000001
 31
0.0
  0
LINE
  5
1C0
330
1E
100
AcDbEntity
  8
0
100
AcDbLine
 10
58.18
 20
48.0980000000001
 30
0.0
 11
58.18
 21
50.3380000000001
 31
0.0
  0
LINE
  5
1C1
330
1E
100
AcDbEntity
  8
0
100
AcDbLine
 10
58.18
 20
48.0980000000001
 30
0.0
 11
58.18
 21
46.7540000000001
 31
0.0
  0
LINE
  5
1C2
330
1E
100
AcDbEntity
  8
0
100
AcDbLine
 10
61.0
 20
48.0980000000001
 30
0.0
 11
61.0
 21
46.7540000000001
 31
0.0
  0
LINE
  5
1C3
330
1E
100
AcDbEntity
  8
0
100
AcDbLine
 10
56.18
 20
49.8340000000001
 30
0.0
 11
56.18
 21
51.7540000000001
 31
0.0
  0
LINE
  5
1C4
330
1E
100
AcDbEntity
  8
0
100
AcDbLine
 10
56.18
 20
49.8340000000001
 30
0.0
 11
56.18
 21
48.6820000000001
 31
0.0
  0
LINE
  5
1C5
330
1E
100
AcDbEntity
  8
0
100
AcDbLine
 10
58.0
 20
49.8340000000001
 30
0.0
 11
58.0
 21
48.6820000000001
 31
0.0
  0
LINE
  5
1C6
330
1E
100
AcDbEntity
  8
0
100
AcDbLine
 10
58.18
 20
50.3380000000001
 30
0.0
 11
58.18
 21
53.30600000000011
 31
0.0
  0
LINE
  5
1C7
330
1E
100
AcDbEntity
  8
0
100
AcDbLine
 10
58.18
 20
50.3380000000001
 30
0.0
 11
58.18
 21
48.0980000000001
 31
0.0
  0
LINE
  5
1C8
330
1E
100
AcDbEntity
  8
0
100
AcDbLine
 10
56.18
 20
51.7540000000001
 30
0.0
 11
56.18
 21
54.2980000000001
 31
0.0
  0
LINE
  5
1C9
330
1E
100
AcDbEntity
  8
0
100
AcDbLine
 10
56.18
 20
51.7540000000001
 30
0.0
 11
56.18
 21
49.8340000000001
 31
0.0
  0
LINE
  5
1CA
330
1E
100
AcDbEntity
  8
0
100
AcDbLine
 10
58.0
 20
51.7540000000001
 30
0.0
 11
58.0
 21
49.8340000000001
 31
0.0
  0
LINE
  5
1CB
330
1E
100
AcDbEntity
  8
0
100
AcDbLine
 10
58.0
 20
50.6180000000001
 30
0.0
 11
58.0
 21
53.47400000000011
 31
0.0
  0
LINE
  5
1CC
330
1E
100
AcDbEntity
  8
0
100
AcDbLine
 10
58.0
 20
50.6180000000001
 30
0.0
 11
58.0
 21
48.4340000000001
 31
0.0
  0
LINE
  5
1CD
330
1E
100
AcDbEntity
  8
0
100
AcDbLine
 10
61.0
 20
50.3380000000001
 30
0.0
 11
61.0
 21
48.0980000000001
 31
0.0
  0
LINE
  5
1CE
330
1E
100
AcDbEntity
  8
0
100
AcDbLine
 10
61.0
 20
49.2420000000001
 30
0.0
 11
61.0
 21
52.50600000000011
 31
0.0
  0
LINE
  5
1CF
330
1E
100
AcDbEntity
  8
0
100
AcDbLine
 10
61.0
 20
49.2420000000001
 30
0.0
 11
61.0
 21
46.7460000000001
 31
0.0
  0
LINE
  5
1D0
330
1E
100
AcDbEntity
  8
0
100
AcDbLine
 10
58.18
 20
53.30600000000011
 30
0.0
 11
58.18
 21
56.6660000000001
 31
0.0
  0
LINE
  5
1D1
330
1E
100
AcDbEntity
  8
0
100
AcDbLine
 10
58.18
 20
53.30600000000011
 30
0.0
 11
58.18
 21
50.3380000000001
 31
0.0
  0
LINE
  5
1D2
330
1E
100
AcDbEntity
  8
0
100
AcDbLine
 10
56.18
 20
54.2980000000001
 30
0.0
 11
56.18
 21
57.17800000000011
 31
0.0
  0
LINE
  5
1D3
330
1E
100
AcDbEntity
  8
0
100
AcDbLine
 10
56.18
 20
54.2980000000001
 30
0.0
 11
56.18
 21
51.7540000000001
 31
0.0
  0
LINE
  5
1D4
330
1E
100
AcDbEntity
  8
0
100
AcDbLine
 10
58.0
 20
54.2980000000001
 30
0.0
 11
58.0
 21
51.7540000000001
 31
0.0
  0
LINE
  5
1D5
330
1E
100
AcDbEntity
  8
0
100
AcDbLine
 10
58.0
 20
53.47400000000011
 30
0.0
 11
58.0
 21
56.7220000000001
 31
0.0
  0
LINE
  5
1D6
330
1E
100
AcDbEntity
  8
0
100
AcDbLine
 10
58.0
 20
53.47400000000011
 30
0.0
 11
58.0
 21
50.6180000000001
 31
0.0
  0
LINE
  5
1D7
330
1E
100
AcDbEntity
  8
0
100
AcDbLine
 10
61.0
 20
53.30600000000011
 30
0.0
 11
61.0
 21
50.3380000000001
 31
0.0
  0
LINE
  5
1D8
330
1E
100
AcDbEntity
  8
0
100
AcDbLine
 10
61.0
 20
52.50600000000011
 30
0.0
 11
61.0
 21
56.21800000000011
 31
0.0
  0
LINE
  5
1D9
330
1E
100
AcDbEntity
  8
0
100
AcDbLine
 10
61.0
 20
52.50600000000011
 30
0.0
 11
61.0
 21
49.2420000000001
 31
0.0
  0
LINE
  5
1DA
330
1E
100
AcDbEntity
  8
0
100
AcDbLine
 10
61.29999999999999
 20
52.31400000000011
 30
0.0
 11
61.29999999999999
 21
56.1540000000001
 31
0.0
  0
LINE
  5
1DB
330
1E
100
AcDbEntity
  8
0
100
AcDbLine
 10
61.29999999999999
 20
52.31400000000011
 30
0.0
 11
61.29999999999999
 21
48.9220000000001
 31
0.0
  0
LINE
  5
1DC
330
1E
100
AcDbEntity
  8
0
100
AcDbLine
 10
66.0
 20
52.31400000000011
 30
0.0
 11
66.0
 21
48.9220000000001
 31
0.0
  0
LINE
  5
1DD
330
1E
100
AcDbEntity
  8
0
100
AcDbLine
 10
61.29999999999999
 20
48.9220000000001
 30
0.0
 11
61.29999999999999
 21
52.31400000000011
 31
0.0
  0
LINE
  5
1DE
330
1E
100
AcDbEntity
  8
0
100
AcDbLine
 10
61.29999999999999
 20
48.9220000000001
 30
0.0
 11
61.29999999999999
 21
46.3620000000001
 31
0.0
  0
LINE
  5
1DF
330
1E
100
AcDbEntity
  8
0
100
AcDbLine
 10
66.0
 20
48.9220000000001
 30
0.0
 11
66.0
 21
46.3620000000001
 31
0.0
  0
LINE
  5
1E0
330
1E
100
AcDbEntity
  8
0
100
AcDbLine
 10
66.0
 20
47.8660000000001
 30
0.0
 11
66.0
 21
45.0580000000001
 31
0.0
  0
LINE
  5
1E1
330
1E
100
AcDbEntity
  8
0
100
AcDbLine
 10
66.0
 20
47.8660000000001
 30
0.0
 11
66.0
 21
51.53800000000011
 31
0.0
  0
LINE
  5
1E2
330
1E
100
AcDbEntity
  8
0
100
AcDbLine
 10
66.0
 20
51.53800000000011
 30
0.0
 11
66.0
 21
47.8660000000001
 31
0.0
  0
LINE
  5
1E3
330
1E
100
AcDbEntity
  8
0
100
AcDbLine
 10
66.0
 20
51.53800000000011
 30
0.0
 11
66.0
 21
55.71400000000011
 31
0.0
  0
LINE
  5
1E4
330
1E
100
AcDbEntity
  8
0
100
AcDbLine
 10
66.6
 20
47.50600000000011
 30
0.0
 11
66.6
 21
44.6260000000001
 31
0.0
  0
LINE
  5
1E5
330
1E
100
AcDbEntity
  8
0
100
AcDbLine
 10
66.6
 20
47.50600000000011
 30
0.0
 11
66.6
 21
51.3220000000001
 31
0.0
  0
LINE
  5
1E6
330
1E
100
AcDbEntity
  8
0
100
AcDbLine
 10
66.6
 20
51.3220000000001
 30
0.0
 11
66.6
 21
47.50600000000011
 31
0.0
  0
LINE
  5
1E7
330
1E
100
AcDbEntity
  8
0
100
AcDbLine
 10
66.6
 20
51.3220000000001
 30
0.0
 11
66.6
 21
55.6420000000001
 31
0.0
  0
LINE
  5
1E8
330
1E
100
AcDbEntity
  8
0
100
AcDbLine
 10
61.29999999999999
 20
56.1540000000001
 30
0.0
 11
61.29999999999999
 21
60.25000000000011
 31
0.0
  0
LINE
  5
1E9
330
1E
100
AcDbEntity
  8
0
100
AcDbLine
 10
61.29999999999999
 20
56.1540000000001
 30
0.0
 11
61.29999999999999
 21
52.31400000000011
 31
0.0
  0
LINE
  5
1EA
330
1E
100
AcDbEntity
  8
0
100
AcDbLine
 10
56.18
 20
57.17800000000011
 30
0.0
 11
56.18
 21
60.25000000000011
 31
0.0
  0
LINE
  5
1EB
330
1E
100
AcDbEntity
  8
0
100
AcDbLine
 10
56.18
 20
57.17800000000011
 30
0.0
 11
56.18
 21
54.2980000000001
 31
0.0
  0
LINE
  5
1EC
330
1E
100
AcDbEntity
  8
0
100
AcDbLine
 10
58.0
 20
63.3220000000001
 30
0.0
 11
58.0
 21
60.25000000000011
 31
0.0
  0
LINE
  5
1ED
330
1E
100
AcDbEntity
  8
0
100
AcDbLine
 10
56.18
 20
63.3220000000001
 30
0.0
 11
56.18
 21
66.20200000000011
 31
0.0
  0
LINE
  5
1EE
330
1E
100
AcDbEntity
  8
0
100
AcDbLine
 10
56.18
 20
63.3220000000001
 30
0.0
 11
56.18
 21
60.25000000000011
 31
0.0
  0
LINE
  5
1EF
330
1E
100
AcDbEntity
  8
0
100
AcDbLine
 10
56.18
 20
60.25000000000011
 30
0.0
 11
56.18
 21
57.17800000000011
 31
0.0
  0
LINE
  5
1F0
330
1E
100
AcDbEntity
  8
0
100
AcDbLine
 10
56.18
 20
60.25000000000011
 30
0.0
 11
56.18
 21
63.3220000000001
 31
0.0
  0
LINE
  5
1F1
330
1E
100
AcDbEntity
  8
0
100
AcDbLine
 10
58.0
 20
60.25000000000011
 30
0.0
 11
58.0
 21
57.17800000000011
 31
0.0
  0
LINE
  5
1F2
330
1E
100
AcDbEntity
  8
0
100
AcDbLine
 10
58.0
 20
57.17800000000011
 30
0.0
 11
58.0
 21
54.2980000000001
 31
0.0
  0
LINE
  5
1F3
330
1E
100
AcDbEntity
  8
0
100
AcDbLine
 10
58.18
 20
63.8340000000001
 30
0.0
 11
58.18
 21
67.1940000000001
 31
0.0
  0
LINE
  5
1F4
330
1E
100
AcDbEntity
  8
0
100
AcDbLine
 10
58.18
 20
63.8340000000001
 30
0.0
 11
58.18
 21
60.25000000000011
 31
0.0
  0
LINE
  5
1F5
330
1E
100
AcDbEntity
  8
0
100
AcDbLine
 10
58.0
 20
56.7220000000001
 30
0.0
 11
58.0
 21
53.47400000000011
 31
0.0
  0
LINE
  5
1F6
330
1E
100
AcDbEntity
  8
0
100
AcDbLine
 10
61.0
 20
63.8340000000001
 30
0.0
 11
61.0
 21
60.25000000000011
 31
0.0
  0
LINE
  5
1F7
330
1E
100
AcDbEntity
  8
0
100
AcDbLine
 10
58.18
 20
60.25000000000011
 30
0.0
 11
58.18
 21
56.6660000000001
 31
0.0
  0
LINE
  5
1F8
330
1E
100
AcDbEntity
  8
0
100
AcDbLine
 10
58.18
 20
60.25000000000011
 30
0.0
 11
58.18
 21
63.8340000000001
 31
0.0
  0
LINE
  5
1F9
330
1E
100
AcDbEntity
  8
0
100
AcDbLine
 10
58.18
 20
56.6660000000001
 30
0.0
 11
58.18
 21
60.25000000000011
 31
0.0
  0
LINE
  5
1FA
330
1E
100
AcDbEntity
  8
0
100
AcDbLine
 10
58.18
 20
56.6660000000001
 30
0.0
 11
58.18
 21
53.30600000000011
 31
0.0
  0
LINE
  5
1FB
330
1E
100
AcDbEntity
  8
0
100
AcDbLine
 10
61.0
 20
56.6660000000001
 30
0.0
 11
61.0
 21
53.30600000000011
 31
0.0
  0
LINE
  5
1FC
330
1E
100
AcDbEntity
  8
0
100
AcDbLine
 10
58.0
 20
66.20200000000011
 30
0.0
 11
58.0
 21
63.3220000000001
 31
0.0
  0
LINE
  5
1FD
330
1E
100
AcDbEntity
  8
0
100
AcDbLine
 10
56.18
 20
66.20200000000011
 30
0.0
 11
56.18
 21
68.74600000000011
 31
0.0
  0
LINE
  5
1FE
330
1E
100
AcDbEntity
  8
0
100
AcDbLine
 10
56.18
 20
66.20200000000011
 30
0.0
 11
56.18
 21
63.3220000000001
 31
0.0
  0
LINE
  5
1FF
330
1E
100
AcDbEntity
  8
0
100
AcDbLine
 10
56.18
 20
68.74600000000011
 30
0.0
 11
56.18
 21
70.66600000000009
 31
0.0
  0
LINE
  5
200
330
1E
100
AcDbEntity
  8
0
100
AcDbLine
 10
56.18
 20
68.74600000000011
 30
0.0
 11
56.18
 21
66.20200000000011
 31
0.0
  0
LINE
  5
201
330
1E
100
AcDbEntity
  8
0
100
AcDbLine
 10
58.0
 20
68.74600000000011
 30
0.0
 11
58.0
 21
66.20200000000011
 31
0.0
  0
LINE
  5
202
330
1E
100
AcDbEntity
  8
0
100
AcDbLine
 10
58.0
 20
70.66600000000009
 30
0.0
 11
58.0
 21
68.74600000000011
 31
0.0
  0
LINE
  5
203
330
1E
100
AcDbEntity
  8
0
100
AcDbLine
 10
56.18
 20
70.66600000000009
 30
0.0
 11
56.18
 21
71.81800000000009
 31
0.0
  0
LINE
  5
204
330
1E
100
AcDbEntity
  8
0
100
AcDbLine
 10
56.18
 20
70.66600000000009
 30
0.0
 11
56.18
 21
68.74600000000011
 31
0.0
  0
LINE
  5
205
330
1E
100
AcDbEntity
  8
0
100
AcDbLine
 10
58.18
 20
67.1940000000001
 30
0.0
 11
58.18
 21
70.16200000000011
 31
0.0
  0
LINE
  5
206
330
1E
100
AcDbEntity
  8
0
100
AcDbLine
 10
58.18
 20
67.1940000000001
 30
0.0
 11
58.18
 21
63.8340000000001
 31
0.0
  0
LINE
  5
207
330
1E
100
AcDbEntity
  8
0
100
AcDbLine
 10
61.0
 20
67.1940000000001
 30
0.0
 11
61.0
 21
63.8340000000001
 31
0.0
  0
LINE
  5
208
330
1E
100
AcDbEntity
  8
0
100
AcDbLine
 10
61.0
 20
70.16200000000011
 30
0.0
 11
61.0
 21
67.1940000000001
 31
0.0
  0
LINE
  5
209
330
1E
100
AcDbEntity
  8
0
100
AcDbLine
 10
58.18
 20
70.16200000000011
 30
0.0
 11
58.18
 21
72.4020000000001
 31
0.0
  0
LINE
  5
20A
330
1E
100
AcDbEntity
  8
0
100
AcDbLine
 10
58.18
 20
70.16200000000011
 30
0.0
 11
58.18
 21
67.1940000000001
 31
0.0
  0
LINE
  5
20B
330
1E
100
AcDbEntity
  8
0
100
AcDbLine
 10
61.0
 20
64.28200000000011
 30
0.0
 11
61.0
 21
67.9940000000001
 31
0.0
  0
LINE
  5
20C
330
1E
100
AcDbEntity
  8
0
100
AcDbLine
 10
61.0
 20
64.28200000000011
 30
0.0
 11
61.0
 21
60.25000000000011
 31
0.0
  0
LINE
  5
20D
330
1E
100
AcDbEntity
  8
0
100
AcDbLine
 10
61.0
 20
67.9940000000001
 30
0.0
 11
61.0
 21
71.25800000000009
 31
0.0
  0
LINE
  5
20E
330
1E
100
AcDbEntity
  8
0
100
AcDbLine
 10
61.0
 20
67.9940000000001
 30
0.0
 11
61.0
 21
64.28200000000011
 31
0.0
  0
LINE
  5
20F
330
1E
100
AcDbEntity
  8
0
100
AcDbLine
 10
58.0
 20
71.81800000000009
 30
0.0
 11
58.0
 21
70.66600000000009
 31
0.0
  0
LINE
  5
210
330
1E
100
AcDbEntity
  8
0
100
AcDbLine
 10
56.18
 20
71.81800000000009
 30
0.0
 11
56.18
 21
72.2500000000001
 31
0.0
  0
LINE
  5
211
330
1E
100
AcDbEntity
  8
0
100
AcDbLine
 10
56.18
 20
71.81800000000009
 30
0.0
 11
56.18
 21
70.66600000000009
 31
0.0
  0
LINE
  5
212
330
1E
100
AcDbEntity
  8
0
100
AcDbLine
 10
56.18
 20
72.2500000000001
 30
0.0
 11
58.0
 21
72.2500000000001
 31
0.0
  0
LINE
  5
213
330
1E
100
AcDbEntity
  8
0
100
AcDbLine
 10
56.18
 20
72.2500000000001
 30
0.0
 11
56.18
 21
71.81800000000009
 31
0.0
  0
LINE
  5
214
330
1E
100
AcDbEntity
  8
0
100
AcDbLine
 10
58.0
 20
72.2500000000001
 30
0.0
 11
58.0
 21
71.81800000000009
 31
0.0
  0
LINE
  5
215
330
1E
100
AcDbEntity
  8
0
100
AcDbLine
 10
58.0
 20
73.41000000000009
 30
0.0
 11
58.0
 21
72.0660000000001
 31
0.0
  0
LINE
  5
216
330
1E
100
AcDbEntity
  8
0
100
AcDbLine
 10
58.0
 20
73.41000000000009
 30
0.0
 11
58.0
 21
73.9140000000001
 31
0.0
  0
LINE
  5
217
330
1E
100
AcDbEntity
  8
0
100
AcDbLine
 10
58.0
 20
72.0660000000001
 30
0.0
 11
58.0
 21
73.41000000000009
 31
0.0
  0
LINE
  5
218
330
1E
100
AcDbEntity
  8
0
100
AcDbLine
 10
61.0
 20
72.4020000000001
 30
0.0
 11
61.0
 21
70.16200000000011
 31
0.0
  0
LINE
  5
219
330
1E
100
AcDbEntity
  8
0
100
AcDbLine
 10
61.0
 20
73.74600000000009
 30
0.0
 11
61.0
 21
72.4020000000001
 31
0.0
  0
LINE
  5
21A
330
1E
100
AcDbEntity
  8
0
100
AcDbLine
 10
58.18
 20
72.4020000000001
 30
0.0
 11
58.18
 21
73.74600000000009
 31
0.0
  0
LINE
  5
21B
330
1E
100
AcDbEntity
  8
0
100
AcDbLine
 10
58.18
 20
72.4020000000001
 30
0.0
 11
58.18
 21
70.16200000000011
 31
0.0
  0
LINE
  5
21C
330
1E
100
AcDbEntity
  8
0
100
AcDbLine
 10
58.0
 20
73.9140000000001
 30
0.0
 11
58.18
 21
74.2500000000001
 31
0.0
  0
LINE
  5
21D
330
1E
100
AcDbEntity
  8
0
100
AcDbLine
 10
58.0
 20
73.9140000000001
 30
0.0
 11
58.0
 21
73.41000000000009
 31
0.0
  0
LINE
  5
21E
330
1E
100
AcDbEntity
  8
0
100
AcDbLine
 10
58.18
 20
74.2500000000001
 30
0.0
 11
61.0
 21
74.2500000000001
 31
0.0
  0
LINE
  5
21F
330
1E
100
AcDbEntity
  8
0
100
AcDbLine
 10
58.18
 20
74.2500000000001
 30
0.0
 11
58.18
 21
73.74600000000009
 31
0.0
  0
LINE
  5
220
330
1E
100
AcDbEntity
  8
0
100
AcDbLine
 10
58.18
 20
73.74600000000009
 30
0.0
 11
58.18
 21
74.2500000000001
 31
0.0
  0
LINE
  5
221
330
1E
100
AcDbEntity
  8
0
100
AcDbLine
 10
58.18
 20
73.74600000000009
 30
0.0
 11
58.18
 21
72.4020000000001
 31
0.0
  0
LINE
  5
222
330
1E
100
AcDbEntity
  8
0
100
AcDbLine
 10
61.0
 20
74.2500000000001
 30
0.0
 11
61.0
 21
75.29000000000009
 31
0.0
  0
LINE
  5
223
330
1E
100
AcDbEntity
  8
0
100
AcDbLine
 10
61.0
 20
74.2500000000001
 30
0.0
 11
61.0
 21
73.74600000000009
 31
0.0
  0
LINE
  5
224
330
1E
100
AcDbEntity
  8
0
100
AcDbLine
 10
61.0
 20
71.25800000000009
 30
0.0
 11
61.0
 21
73.75400000000009
 31
0.0
  0
LINE
  5
225
330
1E
100
AcDbEntity
  8
0
100
AcDbLine
 10
61.0
 20
71.25800000000009
 30
0.0
 11
61.0
 21
67.9940000000001
 31
0.0
  0
LINE
  5
226
330
1E
100
AcDbEntity
  8
0
100
AcDbLine
 10
61.0
 20
73.75400000000009
 30
0.0
 11
61.0
 21
75.29000000000009
 31
0.0
  0
LINE
  5
227
330
1E
100
AcDbEntity
  8
0
100
AcDbLine
 10
61.0
 20
73.75400000000009
 30
0.0
 11
61.0
 21
71.25800000000009
 31
0.0
  0
LINE
  5
228
330
1E
100
AcDbEntity
  8
0
100
AcDbLine
 10
61.0
 20
75.8660000000001
 30
0.0
 11
61.29999999999999
 21
76.2500000000001
 31
0.0
  0
LINE
  5
229
330
1E
100
AcDbEntity
  8
0
100
AcDbLine
 10
61.0
 20
75.8660000000001
 30
0.0
 11
61.0
 21
75.29000000000009
 31
0.0
  0
LINE
  5
22A
330
1E
100
AcDbEntity
  8
0
100
AcDbLine
 10
61.0
 20
75.29000000000009
 30
0.0
 11
61.0
 21
75.8660000000001
 31
0.0
  0
LINE
  5
22B
330
1E
100
AcDbEntity
  8
0
100
AcDbLine
 10
61.0
 20
75.29000000000009
 30
0.0
 11
61.0
 21
73.75400000000009
 31
0.0
  0
LINE
  5
22C
330
1E
100
AcDbEntity
  8
0
100
AcDbLine
 10
61.0
 20
75.29000000000009
 30
0.0
 11
61.0
 21
74.2500000000001
 31
0.0
  0
LINE
  5
22D
330
1E
100
AcDbEntity
  8
0
100
AcDbLine
 10
61.29999999999999
 20
64.3460000000001
 30
0.0
 11
61.29999999999999
 21
68.1860000000001
 31
0.0
  0
LINE
  5
22E
330
1E
100
AcDbEntity
  8
0
100
AcDbLine
 10
61.29999999999999
 20
64.3460000000001
 30
0.0
 11
61.29999999999999
 21
60.25000000000011
 31
0.0
  0
LINE
  5
22F
330
1E
100
AcDbEntity
  8
0
100
AcDbLine
 10
61.29999999999999
 20
68.1860000000001
 30
0.0
 11
61.29999999999999
 21
71.5780000000001
 31
0.0
  0
LINE
  5
230
330
1E
100
AcDbEntity
  8
0
100
AcDbLine
 10
61.29999999999999
 20
68.1860000000001
 30
0.0
 11
61.29999999999999
 21
64.3460000000001
 31
0.0
  0
LINE
  5
231
330
1E
100
AcDbEntity
  8
0
100
AcDbLine
 10
61.29999999999999
 20
71.5780000000001
 30
0.0
 11
61.29999999999999
 21
74.13800000000009
 31
0.0
  0
LINE
  5
232
330
1E
100
AcDbEntity
  8
0
100
AcDbLine
 10
61.29999999999999
 20
71.5780000000001
 30
0.0
 11
61.29999999999999
 21
68.1860000000001
 31
0.0
  0
LINE
  5
233
330
1E
100
AcDbEntity
  8
0
100
AcDbLine
 10
61.29999999999999
 20
74.13800000000009
 30
0.0
 11
61.29999999999999
 21
75.67400000000009
 31
0.0
  0
LINE
  5
234
330
1E
100
AcDbEntity
  8
0
100
AcDbLine
 10
61.29999999999999
 20
74.13800000000009
 30
0.0
 11
61.29999999999999
 21
71.5780000000001
 31
0.0
  0
LINE
  5
235
330
1E
100
AcDbEntity
  8
0
100
AcDbLine
 10
61.29999999999999
 20
76.2500000000001
 30
0.0
 11
66.0
 21
76.2500000000001
 31
0.0
  0
LINE
  5
236
330
1E
100
AcDbEntity
  8
0
100
AcDbLine
 10
61.29999999999999
 20
76.2500000000001
 30
0.0
 11
61.29999999999999
 21
75.67400000000009
 31
0.0
  0
LINE
  5
237
330
1E
100
AcDbEntity
  8
0
100
AcDbLine
 10
61.29999999999999
 20
75.67400000000009
 30
0.0
 11
61.29999999999999
 21
76.2500000000001
 31
0.0
  0
LINE
  5
238
330
1E
100
AcDbEntity
  8
0
100
AcDbLine
 10
61.29999999999999
 20
75.67400000000009
 30
0.0
 11
61.29999999999999
 21
74.13800000000009
 31
0.0
  0
LINE
  5
239
330
1E
100
AcDbEntity
  8
0
100
AcDbLine
 10
61.0
 20
60.25000000000011
 30
0.0
 11
61.0
 21
56.21800000000011
 31
0.0
  0
LINE
  5
23A
330
1E
100
AcDbEntity
  8
0
100
AcDbLine
 10
61.0
 20
60.25000000000011
 30
0.0
 11
61.0
 21
64.28200000000011
 31
0.0
  0
LINE
  5
23B
330
1E
100
AcDbEntity
  8
0
100
AcDbLine
 10
61.0
 20
60.25000000000011
 30
0.0
 11
61.0
 21
56.6660000000001
 31
0.0
  0
LINE
  5
23C
330
1E
100
AcDbEntity
  8
0
100
AcDbLine
 10
61.0
 20
56.21800000000011
 30
0.0
 11
61.0
 21
60.25000000000011
 31
0.0
  0
LINE
  5
23D
330
1E
100
AcDbEntity
  8
0
100
AcDbLine
 10
61.0
 20
56.21800000000011
 30
0.0
 11
61.0
 21
52.50600000000011
 31
0.0
  0
LINE
  5
23E
330
1E
100
AcDbEntity
  8
0
100
AcDbLine
 10
61.29999999999999
 20
60.25000000000011
 30
0.0
 11
61.29999999999999
 21
56.1540000000001
 31
0.0
  0
LINE
  5
23F
330
1E
100
AcDbEntity
  8
0
100
AcDbLine
 10
61.29999999999999
 20
60.25000000000011
 30
0.0
 11
61.29999999999999
 21
64.3460000000001
 31
0.0
  0
LINE
  5
240
330
1E
100
AcDbEntity
  8
0
100
AcDbLine
 10
66.0
 20
56.1540000000001
 30
0.0
 11
66.0
 21
52.31400000000011
 31
0.0
  0
LINE
  5
241
330
1E
100
AcDbEntity
  8
0
100
AcDbLine
 10
66.0
 20
64.3460000000001
 30
0.0
 11
66.0
 21
60.25000000000011
 31
0.0
  0
LINE
  5
242
330
1E
100
AcDbEntity
  8
0
100
AcDbLine
 10
66.0
 20
60.25000000000011
 30
0.0
 11
66.0
 21
64.7860000000001
 31
0.0
  0
LINE
  5
243
330
1E
100
AcDbEntity
  8
0
100
AcDbLine
 10
66.0
 20
64.7860000000001
 30
0.0
 11
66.0
 21
60.25000000000011
 31
0.0
  0
LINE
  5
244
330
1E
100
AcDbEntity
  8
0
100
AcDbLine
 10
66.0
 20
64.7860000000001
 30
0.0
 11
66.0
 21
68.9620000000001
 31
0.0
  0
LINE
  5
245
330
1E
100
AcDbEntity
  8
0
100
AcDbLine
 10
66.0
 20
68.1860000000001
 30
0.0
 11
66.0
 21
64.3460000000001
 31
0.0
  0
LINE
  5
246
330
1E
100
AcDbEntity
  8
0
100
AcDbLine
 10
66.0
 20
71.5780000000001
 30
0.0
 11
66.0
 21
68.1860000000001
 31
0.0
  0
LINE
  5
247
330
1E
100
AcDbEntity
  8
0
100
AcDbLine
 10
66.0
 20
72.6340000000001
 30
0.0
 11
66.0
 21
68.9620000000001
 31
0.0
  0
LINE
  5
248
330
1E
100
AcDbEntity
  8
0
100
AcDbLine
 10
66.0
 20
72.6340000000001
 30
0.0
 11
66.0
 21
75.44200000000009
 31
0.0
  0
LINE
  5
249
330
1E
100
AcDbEntity
  8
0
100
AcDbLine
 10
66.0
 20
68.9620000000001
 30
0.0
 11
66.0
 21
64.7860000000001
 31
0.0
  0
LINE
  5
24A
330
1E
100
AcDbEntity
  8
0
100
AcDbLine
 10
66.0
 20
68.9620000000001
 30
0.0
 11
66.0
 21
72.6340000000001
 31
0.0
  0
LINE
  5
24B
330
1E
100
AcDbEntity
  8
0
100
AcDbLine
 10
66.0
 20
74.13800000000009
 30
0.0
 11
66.0
 21
71.5780000000001
 31
0.0
  0
LINE
  5
24C
330
1E
100
AcDbEntity
  8
0
100
AcDbLine
 10
66.0
 20
75.67400000000009
 30
0.0
 11
66.0
 21
74.13800000000009
 31
0.0
  0
LINE
  5
24D
330
1E
100
AcDbEntity
  8
0
100
AcDbLine
 10
66.0
 20
75.44200000000009
 30
0.0
 11
66.0
 21
72.6340000000001
 31
0.0
  0
LINE
  5
24E
330
1E
100
AcDbEntity
  8
0
100
AcDbLine
 10
66.0
 20
75.44200000000009
 30
0.0
 11
66.0
 21
77.1700000000001
 31
0.0
  0
LINE
  5
24F
330
1E
100
AcDbEntity
  8
0
100
AcDbLine
 10
66.6
 20
75.87400000000009
 30
0.0
 11
66.6
 21
72.9940000000001
 31
0.0
  0
LINE
  5
250
330
1E
100
AcDbEntity
  8
0
100
AcDbLine
 10
66.6
 20
75.87400000000009
 30
0.0
 11
66.6
 21
77.60200000000009
 31
0.0
  0
LINE
  5
251
330
1E
100
AcDbEntity
  8
0
100
AcDbLine
 10
66.6
 20
72.9940000000001
 30
0.0
 11
66.6
 21
69.17800000000011
 31
0.0
  0
LINE
  5
252
330
1E
100
AcDbEntity
  8
0
100
AcDbLine
 10
66.6
 20
72.9940000000001
 30
0.0
 11
66.6
 21
75.87400000000009
 31
0.0
  0
LINE
  5
253
330
1E
100
AcDbEntity
  8
0
100
AcDbLine
 10
66.6
 20
69.17800000000011
 30
0.0
 11
66.6
 21
64.8580000000001
 31
0.0
  0
LINE
  5
254
330
1E
100
AcDbEntity
  8
0
100
AcDbLine
 10
66.6
 20
69.17800000000011
 30
0.0
 11
66.6
 21
72.9940000000001
 31
0.0
  0
LINE
  5
255
330
1E
100
AcDbEntity
  8
0
100
AcDbLine
 10
66.6
 20
64.8580000000001
 30
0.0
 11
66.6
 21
60.25000000000011
 31
0.0
  0
LINE
  5
256
330
1E
100
AcDbEntity
  8
0
100
AcDbLine
 10
66.6
 20
64.8580000000001
 30
0.0
 11
66.6
 21
69.17800000000011
 31
0.0
  0
LINE
  5
257
330
1E
100
AcDbEntity
  8
0
100
AcDbLine
 10
66.0
 20
55.71400000000011
 30
0.0
 11
66.0
 21
60.25000000000011
 31
0.0
  0
LINE
  5
258
330
1E
100
AcDbEntity
  8
0
100
AcDbLine
 10
66.0
 20
55.71400000000011
 30
0.0
 11
66.0
 21
51.53800000000011
 31
0.0
  0
LINE
  5
259
330
1E
100
AcDbEntity
  8
0
100
AcDbLine
 10
66.6
 20
55.6420000000001
 30
0.0
 11
66.6
 21
51.3220000000001
 31
0.0
  0
LINE
  5
25A
330
1E
100
AcDbEntity
  8
0
100
AcDbLine
 10
66.6
 20
55.6420000000001
 30
0.0
 11
66.6
 21
60.25000000000011
 31
0.0
  0
LINE
  5
25B
330
1E
100
AcDbEntity
  8
0
100
AcDbLine
 10
66.6
 20
60.25000000000011
 30
0.0
 11
66.6
 21
55.6420000000001
 31
0.0
  0
LINE
  5
25C
330
1E
100
AcDbEntity
  8
0
100
AcDbLine
 10
66.6
 20
60.25000000000011
 30
0.0
 11
66.6
 21
64.8580000000001
 31
0.0
  0
LINE
  5
25D
330
1E
100
AcDbEntity
  8
0
100
AcDbLine
 10
66.0
 20
77.1700000000001
 30
0.0
 11
66.0
 21
77.8180000000001
 31
0.0
  0
LINE
  5
25E
330
1E
100
AcDbEntity
  8
0
100
AcDbLine
 10
66.0
 20
77.1700000000001
 30
0.0
 11
66.0
 21
76.2500000000001
 31
0.0
  0
LINE
  5
25F
330
1E
100
AcDbEntity
  8
0
100
AcDbLine
 10
66.0
 20
77.1700000000001
 30
0.0
 11
66.0
 21
75.44200000000009
 31
0.0
  0
LINE
  5
260
330
1E
100
AcDbEntity
  8
0
100
AcDbLine
 10
66.6
 20
77.60200000000009
 30
0.0
 11
66.6
 21
75.87400000000009
 31
0.0
  0
LINE
  5
261
330
1E
100
AcDbEntity
  8
0
100
AcDbLine
 10
66.6
 20
77.60200000000009
 30
0.0
 11
66.6
 21
78.25000000000009
 31
0.0
  0
LINE
  5
262
330
1E
100
AcDbEntity
  8
0
100
AcDbLine
 10
66.0
 20
77.8180000000001
 30
0.0
 11
66.6
 21
78.25000000000009
 31
0.0
  0
LINE
  5
263
330
1E
100
AcDbEntity
  8
0
100
AcDbLine
 10
66.0
 20
77.8180000000001
 30
0.0
 11
66.0
 21
77.1700000000001
 31
0.0
  0
LINE
  5
264
330
1E
100
AcDbEntity
  8
0
100
AcDbLine
 10
66.0
 20
76.2500000000001
 30
0.0
 11
66.0
 21
77.1700000000001
 31
0.0
  0
LINE
  5
265
330
1E
100
AcDbEntity
  8
0
100
AcDbLine
 10
66.0
 20
76.2500000000001
 30
0.0
 11
66.0
 21
75.67400000000009
 31
0.0
  0
LINE
  5
26A
330
1E
100
AcDbEntity
  8
0
100
AcDbLine
 10
66.961789488322
 20
78.1738551469439
 30
0.0
 11
74.0
 21
85.9905586898545
 31
0.0
  0
LINE
  5
26B
330
1E
100
AcDbEntity
  8
0
100
AcDbLine
 10
66.6
 20
78.25000000000009
 30
0.0
 11
66.97908064426361
 21
78.1791438048106
 31
0.0
  0
LINE
  5
26C
330
1E
100
AcDbEntity
  8
0
100
AcDbLine
 10
66.6
 20
78.25000000000009
 30
0.0
 11
66.6
 21
77.60200000000009
 31
0.0
  0
LINE
  5
26D
330
1E
100
AcDbEntity
  8
0
100
AcDbLine
 10
66.0
 20
44.2500000000001
 30
0.0
 11
66.0
 21
43.3300000000001
 31
0.0
  0
LINE
  5
26E
330
1E
100
AcDbEntity
  8
0
100
AcDbLine
 10
74.0
 20
85.9905586898545
 30
0.0
 11
74.0
 21
86.2500000000001
 31
0.0
  0
LINE
  5
26F
330
1E
100
AcDbEntity
  8
0
100
AcDbLine
 10
74.0
 20
43.6331775700936
 30
0.0
 11
74.0
 21
33.25000000000009
 31
0.0
  0
LINE
  5
270
330
1E
100
AcDbEntity
  8
0
100
AcDbLine
 10
74.0
 20
86.2500000000001
 30
0.0
 11
74.0
 21
85.9905586898545
 31
0.0
  0
LINE
  5
271
330
1E
100
AcDbEntity
  8
0
100
AcDbLine
 10
74.0
 20
86.2500000000001
 30
0.0
 11
74.50399999999999
 21
86.2500000000001
 31
0.0
  0
LINE
  5
272
330
1E
100
AcDbEntity
  8
0
100
AcDbLine
 10
74.50399999999999
 20
86.2500000000001
 30
0.0
 11
75.848
 21
86.2500000000001
 31
0.0
  0
LINE
  5
274
330
1E
100
AcDbEntity
  8
0
100
AcDbLine
 10
75.848
 20
86.2500000000001
 30
0.0
 11
78.08800000000001
 21
86.2500000000001
 31
0.0
  0
LINE
  5
275
330
1E
100
AcDbEntity
  8
0
100
AcDbLine
 10
74.0
 20
86.30710000000009
 30
0.0
 11
74.0
 21
86.38710000000008
 31
0.0
  0
LINE
  5
276
330
1E
100
AcDbEntity
  8
0
100
AcDbLine
 10
74.0
 20
86.30710000000009
 30
0.0
 11
74.3684
 21
86.2500000000001
 31
0.0
  0
LINE
  5
277
330
1E
100
AcDbEntity
  8
0
100
AcDbLine
 10
74.0
 20
93.6786000000001
 30
0.0
 11
74.0
 21
93.1071000000001
 31
0.0
  0
LINE
  5
278
330
1E
100
AcDbEntity
  8
0
100
AcDbLine
 10
74.0
 20
93.6786000000001
 30
0.0
 11
74.0
 21
94.11290000000009
 31
0.0
  0
LINE
  5
27A
330
1E
100
AcDbEntity
  8
0
100
AcDbLine
 10
74.0
 20
93.1071000000001
 30
0.0
 11
74.0
 21
87.39290000000009
 31
0.0
  0
LINE
  5
27B
330
1E
100
AcDbEntity
  8
0
100
AcDbLine
 10
74.0
 20
93.1071000000001
 30
0.0
 11
74.0
 21
93.6786000000001
 31
0.0
  0
LINE
  5
27C
330
1E
100
AcDbEntity
  8
0
100
AcDbLine
 10
74.0
 20
87.39290000000009
 30
0.0
 11
74.0
 21
86.82140000000009
 31
0.0
  0
LINE
  5
27D
330
1E
100
AcDbEntity
  8
0
100
AcDbLine
 10
74.0
 20
87.39290000000009
 30
0.0
 11
74.0
 21
93.1071000000001
 31
0.0
  0
LINE
  5
280
330
1E
100
AcDbEntity
  8
0
100
AcDbLine
 10
74.0
 20
87.39290000000009
 30
0.0
 11
75.19989999999999
 21
86.82140000000009
 31
0.0
  0
LINE
  5
281
330
1E
100
AcDbEntity
  8
0
100
AcDbLine
 10
74.0
 20
94.11290000000009
 30
0.0
 11
74.0
 21
93.6786000000001
 31
0.0
  0
LINE
  5
282
330
1E
100
AcDbEntity
  8
0
100
AcDbLine
 10
74.0
 20
94.11290000000009
 30
0.0
 11
74.0
 21
94.19290000000009
 31
0.0
  0
LINE
  5
283
330
1E
100
AcDbEntity
  8
0
100
AcDbLine
 10
74.0
 20
86.82140000000009
 30
0.0
 11
74.0
 21
86.38710000000008
 31
0.0
  0
LINE
  5
284
330
1E
100
AcDbEntity
  8
0
100
AcDbLine
 10
74.0
 20
86.82140000000009
 30
0.0
 11
74.0
 21
87.39290000000009
 31
0.0
  0
LINE
  5
286
330
1E
100
AcDbEntity
  8
0
100
AcDbLine
 10
74.0
 20
94.19290000000009
 30
0.0
 11
74.0
 21
94.11290000000009
 31
0.0
  0
LINE
  5
287
330
1E
100
AcDbEntity
  8
0
100
AcDbLine
 10
74.0
 20
94.19290000000009
 30
0.0
 11
74.3684
 21
94.25000000000009
 31
0.0
  0
LINE
  5
28D
330
1E
100
AcDbEntity
  8
0
100
AcDbLine
 10
80.8736
 20
86.3655000000001
 30
0.0
 11
84.19209999999999
 21
86.48920000000009
 31
0.0
  0
LINE
  5
28F
330
1E
100
AcDbEntity
  8
0
100
AcDbLine
 10
77.5368
 20
86.45780000000009
 30
0.0
 11
80.8736
 21
86.3655000000001
 31
0.0
  0
LINE
  5
291
330
1E
100
AcDbEntity
  8
0
100
AcDbLine
 10
75.19989999999999
 20
86.82140000000009
 30
0.0
 11
77.5368
 21
86.45780000000009
 31
0.0
  0
LINE
  5
294
330
1E
100
AcDbEntity
  8
0
100
AcDbLine
 10
74.3684
 20
94.25000000000009
 30
0.0
 11
74.88420000000001
 21
94.25000000000009
 31
0.0
  0
LINE
  5
295
330
1E
100
AcDbEntity
  8
0
100
AcDbLine
 10
76.2105
 20
94.25000000000009
 30
0.0
 11
78.3474
 21
94.25000000000009
 31
0.0
  0
LINE
  5
296
330
1E
100
AcDbEntity
  8
0
100
AcDbLine
 10
74.88420000000001
 20
94.25000000000009
 30
0.0
 11
76.2105
 21
94.25000000000009
 31
0.0
  0
LINE
  5
297
330
1E
100
AcDbEntity
  8
0
100
AcDbLine
 10
78.3474
 20
94.25000000000009
 30
0.0
 11
81.22110000000001
 21
94.25000000000009
 31
0.0
  0
LINE
  5
299
330
1E
100
AcDbEntity
  8
0
100
AcDbLine
 10
80.8736
 20
94.13450000000009
 30
0.0
 11
84.19209999999999
 21
94.01080000000009
 31
0.0
  0
LINE
  5
29C
330
1E
100
AcDbEntity
  8
0
100
AcDbLine
 10
77.5368
 20
94.04220000000009
 30
0.0
 11
80.8736
 21
94.13450000000009
 31
0.0
  0
LINE
  5
29D
330
1E
100
AcDbEntity
  8
0
100
AcDbLine
 10
75.19989999999999
 20
93.6786000000001
 30
0.0
 11
77.5368
 21
94.04220000000009
 31
0.0
  0
LINE
  5
29F
330
1E
100
AcDbEntity
  8
0
100
AcDbLine
 10
74.0
 20
93.1071000000001
 30
0.0
 11
75.19989999999999
 21
93.6786000000001
 31
0.0
  0
LINE
  5
2A1
330
1E
100
AcDbEntity
  8
0
100
AcDbLine
 10
74.0
 20
86.38710000000008
 30
0.0
 11
74.0
 21
86.30710000000009
 31
0.0
  0
LINE
  5
2A2
330
1E
100
AcDbEntity
  8
0
100
AcDbLine
 10
74.0
 20
86.38710000000008
 30
0.0
 11
74.0
 21
86.82140000000009
 31
0.0
  0
LINE
  5
2A6
330
1E
100
AcDbEntity
  8
0
100
AcDbLine
 10
78.08800000000001
 20
86.2500000000001
 30
0.0
 11
81.056
 21
86.2500000000001
 31
0.0
  0
LINE
  5
2A8
330
1E
100
AcDbEntity
  8
0
100
AcDbLine
 10
81.22110000000001
 20
94.25000000000009
 30
0.0
 11
84.4632
 21
94.25000000000009
 31
0.0
  0
LINE
  5
2A9
330
1E
100
AcDbEntity
  8
0
100
AcDbLine
 10
84.19209999999999
 20
94.01080000000009
 30
0.0
 11
86.2697
 21
93.6786000000001
 31
0.0
  0
LINE
  5
2AC
330
1E
100
AcDbEntity
  8
0
100
AcDbLine
 10
84.19209999999999
 20
86.48920000000009
 30
0.0
 11
86.2697
 21
86.82140000000009
 31
0.0
  0
LINE
  5
2B0
330
1E
100
AcDbEntity
  8
0
100
AcDbLine
 10
81.056
 20
86.2500000000001
 30
0.0
 11
84.41599999999999
 21
86.2500000000001
 31
0.0
  0
LINE
  5
2B1
330
1E
100
AcDbEntity
  8
0
100
AcDbLine
 10
81.056
 20
33.25000000000009
 30
0.0
 11
84.41599999999999
 21
33.25000000000009
 31
0.0
  0
LINE
  5
2B6
330
1E
100
AcDbEntity
  8
0
100
AcDbLine
 10
101.6315999999999
 20
86.2500000000001
 30
0.0
 11
102.0
 21
86.30710000000009
 31
0.0
  0
LINE
  5
2B8
330
1E
100
AcDbEntity
  8
0
100
AcDbLine
 10
101.496
 20
86.2500000000001
 30
0.0
 11
102.0
 21
86.2500000000001
 31
0.0
  0
LINE
  5
2B9
330
1E
100
AcDbEntity
  8
0
100
AcDbLine
 10
100.1519999999999
 20
86.2500000000001
 30
0.0
 11
101.496
 21
86.2500000000001
 31
0.0
  0
LINE
  5
2BA
330
1E
100
AcDbEntity
  8
0
100
AcDbLine
 10
97.91200000000001
 20
86.2500000000001
 30
0.0
 11
100.1519999999999
 21
86.2500000000001
 31
0.0
  0
LINE
  5
2BB
330
1E
100
AcDbEntity
  8
0
100
AcDbLine
 10
94.944
 20
86.2500000000001
 30
0.0
 11
97.91200000000001
 21
86.2500000000001
 31
0.0
  0
LINE
  5
2BC
330
1E
100
AcDbEntity
  8
0
100
AcDbLine
 10
91.584
 20
86.2500000000001
 30
0.0
 11
94.944
 21
86.2500000000001
 31
0.0
  0
LINE
  5
2BD
330
1E
100
AcDbEntity
  8
0
100
AcDbLine
 10
88.0
 20
86.2500000000001
 30
0.0
 11
91.584
 21
86.2500000000001
 31
0.0
  0
LINE
  5
2BE
330
1E
100
AcDbEntity
  8
0
100
AcDbLine
 10
88.0
 20
86.82140000000009
 30
0.0
 11
89.73029999999999
 21
86.82140000000009
 31
0.0
  0
LINE
  5
2C2
330
1E
100
AcDbEntity
  8
0
100
AcDbLine
 10
95.12640000000001
 20
86.3655000000001
 30
0.0
 11
98.4632
 21
86.45780000000009
 31
0.0
  0
LINE
  5
2C4
330
1E
100
AcDbEntity
  8
0
100
AcDbLine
 10
91.8079
 20
86.48920000000009
 30
0.0
 11
95.12640000000001
 21
86.3655000000001
 31
0.0
  0
LINE
  5
2C6
330
1E
100
AcDbEntity
  8
0
100
AcDbLine
 10
98.4632
 20
86.45780000000009
 30
0.0
 11
100.8000999999999
 21
86.82140000000009
 31
0.0
  0
LINE
  5
2C9
330
1E
100
AcDbEntity
  8
0
100
AcDbLine
 10
102.0
 20
86.30710000000009
 30
0.0
 11
102.0
 21
86.38710000000008
 31
0.0
  0
LINE
  5
2CA
330
1E
100
AcDbEntity
  8
0
100
AcDbLine
 10
102.0
 20
86.82140000000009
 30
0.0
 11
102.0
 21
86.38710000000008
 31
0.0
  0
LINE
  5
2CB
330
1E
100
AcDbEntity
  8
0
100
AcDbLine
 10
102.0
 20
86.82140000000009
 30
0.0
 11
102.0
 21
87.39290000000009
 31
0.0
  0
LINE
  5
2CC
330
1E
100
AcDbEntity
  8
0
100
AcDbLine
 10
102.0
 20
86.38710000000008
 30
0.0
 11
102.0
 21
86.82140000000009
 31
0.0
  0
LINE
  5
2CD
330
1E
100
AcDbEntity
  8
0
100
AcDbLine
 10
102.0
 20
86.38710000000008
 30
0.0
 11
102.0
 21
86.30710000000009
 31
0.0
  0
LINE
  5
2D2
330
1E
100
AcDbEntity
  8
0
100
AcDbLine
 10
100.8000999999999
 20
86.82140000000009
 30
0.0
 11
102.0
 21
87.39290000000009
 31
0.0
  0
LINE
  5
2D3
330
1E
100
AcDbEntity
  8
0
100
AcDbLine
 10
89.73029999999999
 20
86.82140000000009
 30
0.0
 11
91.8079
 21
86.48920000000009
 31
0.0
  0
LINE
  5
2D8
330
1E
100
AcDbEntity
  8
0
100
AcDbLine
 10
102.0
 20
93.1071000000001
 30
0.0
 11
102.0
 21
87.39290000000009
 31
0.0
  0
LINE
  5
2D9
330
1E
100
AcDbEntity
  8
0
100
AcDbLine
 10
102.0
 20
93.1071000000001
 30
0.0
 11
102.0
 21
93.6786000000001
 31
0.0
  0
LINE
  5
2DA
330
1E
100
AcDbEntity
  8
0
100
AcDbLine
 10
102.0
 20
87.39290000000009
 30
0.0
 11
102.0
 21
86.82140000000009
 31
0.0
  0
LINE
  5
2DB
330
1E
100
AcDbEntity
  8
0
100
AcDbLine
 10
102.0
 20
87.39290000000009
 30
0.0
 11
102.0
 21
93.1071000000001
 31
0.0
  0
LINE
  5
2DC
330
1E
100
AcDbEntity
  8
0
100
AcDbLine
 10
102.0
 20
93.6786000000001
 30
0.0
 11
102.0
 21
94.11290000000009
 31
0.0
  0
LINE
  5
2DD
330
1E
100
AcDbEntity
  8
0
100
AcDbLine
 10
102.0
 20
93.6786000000001
 30
0.0
 11
102.0
 21
93.1071000000001
 31
0.0
  0
LINE
  5
2DF
330
1E
100
AcDbEntity
  8
0
100
AcDbLine
 10
100.8000999999999
 20
93.6786000000001
 30
0.0
 11
102.0
 21
93.1071000000001
 31
0.0
  0
LINE
  5
2E1
330
1E
100
AcDbEntity
  8
0
100
AcDbLine
 10
89.73029999999999
 20
93.6786000000001
 30
0.0
 11
91.8079
 21
94.01080000000009
 31
0.0
  0
LINE
  5
2E3
330
1E
100
AcDbEntity
  8
0
100
AcDbLine
 10
88.0
 20
94.25000000000009
 30
0.0
 11
88.0
 21
94.0786000000001
 31
0.0
  0
LINE
  5
2E4
330
1E
100
AcDbEntity
  8
0
100
AcDbLine
 10
88.0
 20
94.25000000000009
 30
0.0
 11
91.53679999999999
 21
94.25000000000009
 31
0.0
  0
LINE
  5
2E5
330
1E
100
AcDbEntity
  8
0
100
AcDbLine
 10
91.8079
 20
94.01080000000009
 30
0.0
 11
95.12640000000001
 21
94.13450000000009
 31
0.0
  0
LINE
  5
2E6
330
1E
100
AcDbEntity
  8
0
100
AcDbLine
 10
94.7789
 20
94.25000000000009
 30
0.0
 11
97.65260000000001
 21
94.25000000000009
 31
0.0
  0
LINE
  5
2E7
330
1E
100
AcDbEntity
  8
0
100
AcDbLine
 10
97.65260000000001
 20
94.25000000000009
 30
0.0
 11
99.78950000000001
 21
94.25000000000009
 31
0.0
  0
LINE
  5
2E8
330
1E
100
AcDbEntity
  8
0
100
AcDbLine
 10
95.12640000000001
 20
94.13450000000009
 30
0.0
 11
98.4632
 21
94.04220000000009
 31
0.0
  0
LINE
  5
2E9
330
1E
100
AcDbEntity
  8
0
100
AcDbLine
 10
99.78950000000001
 20
94.25000000000009
 30
0.0
 11
101.1158
 21
94.25000000000009
 31
0.0
  0
LINE
  5
2EA
330
1E
100
AcDbEntity
  8
0
100
AcDbLine
 10
101.6315999999999
 20
94.25000000000009
 30
0.0
 11
102.0
 21
94.19290000000009
 31
0.0
  0
LINE
  5
2EB
330
1E
100
AcDbEntity
  8
0
100
AcDbLine
 10
101.1158
 20
94.25000000000009
 30
0.0
 11
101.6315999999999
 21
94.25000000000009
 31
0.0
  0
LINE
  5
2EC
330
1E
100
AcDbEntity
  8
0
100
AcDbLine
 10
102.0
 20
94.11290000000009
 30
0.0
 11
102.0
 21
93.6786000000001
 31
0.0
  0
LINE
  5
2ED
330
1E
100
AcDbEntity
  8
0
100
AcDbLine
 10
102.0
 20
94.11290000000009
 30
0.0
 11
102.0
 21
94.19290000000009
 31
0.0
  0
LINE
  5
2EE
330
1E
100
AcDbEntity
  8
0
100
AcDbLine
 10
102.0
 20
94.19290000000009
 30
0.0
 11
102.0
 21
94.11290000000009
 31
0.0
  0
LINE
  5
2F1
330
1E
100
AcDbEntity
  8
0
100
AcDbLine
 10
98.4632
 20
94.04220000000009
 30
0.0
 11
100.8000999999999
 21
93.6786000000001
 31
0.0
  0
LINE
  5
2F3
330
1E
100
AcDbEntity
  8
0
100
AcDbLine
 10
91.53679999999999
 20
94.25000000000009
 30
0.0
 11
94.7789
 21
94.25000000000009
 31
0.0
  0
LINE
  5
2F5
330
1E
100
AcDbEntity
  8
0
100
AcDbLine
 10
88.0
 20
94.0786000000001
 30
0.0
 11
88.0
 21
94.25000000000009
 31
0.0
  0
LINE
  5
2F8
330
1E
100
AcDbEntity
  8
0
100
AcDbLine
 10
88.0
 20
94.0786000000001
 30
0.0
 11
88.0
 21
93.6786000000001
 31
0.0
  0
LINE
  5
2F9
330
1E
100
AcDbEntity
  8
0
100
AcDbLine
 10
88.0
 20
93.6786000000001
 30
0.0
 11
88.0
 21
94.0786000000001
 31
0.0
  0
LINE
  5
2FA
330
1E
100
AcDbEntity
  8
0
100
AcDbLine
 10
88.0
 20
93.6786000000001
 30
0.0
 11
89.73029999999999
 21
93.6786000000001
 31
0.0
  0
LINE
  5
2FD
330
1E
100
AcDbEntity
  8
0
100
AcDbLine
 10
86.2697
 20
93.6786000000001
 30
0.0
 11
88.0
 21
93.6786000000001
 31
0.0
  0
LINE
  5
2FF
330
1E
100
AcDbEntity
  8
0
100
AcDbLine
 10
86.2697
 20
86.82140000000009
 30
0.0
 11
88.0
 21
86.82140000000009
 31
0.0
  0
LINE
  5
300
330
1E
100
AcDbEntity
  8
0
100
AcDbLine
 10
84.4632
 20
94.25000000000009
 30
0.0
 11
88.0
 21
94.25000000000009
 31
0.0
  0
LINE
  5
301
330
1E
100
AcDbEntity
  8
0
100
AcDbLine
 10
102.0
 20
86.2500000000001
 30
0.0
 11
102.0
 21
33.25000000000009
 31
0.0
  0
LINE
  5
302
330
1E
100
AcDbEntity
  8
0
100
AcDbLine
 10
84.41599999999999
 20
86.2500000000001
 30
0.0
 11
88.0
 21
86.2500000000001
 31
0.0
  0
LINE
  5
303
330
1E
100
AcDbEntity
  8
0
100
AcDbLine
 10
84.41599999999999
 20
33.25000000000009
 30
0.0
 11
88.0
 21
33.25000000000009
 31
0.0
  0
LINE
  5
304
330
1E
100
AcDbEntity
  8
0
100
AcDbLine
 10
84.41599999999999
 20
33.25000000000009
 30
0.0
 11
85.2462
 21
33.25000000000009
 31
0.0
  0
LINE
  5
305
330
1E
100
AcDbEntity
  8
0
100
AcDbLine
 10
56.0
 20
112.7499999999999
 30
0.0
 11
56.0
 21
112.5499999999999
 31
0.0
  0
LINE
  5
306
330
1E
100
AcDbEntity
  8
0
100
AcDbLine
 10
56.0
 20
7.750000000000089
 30
0.0
 11
56.0
 21
7.950000000000088
 31
0.0
  0
LINE
  5
307
330
1E
100
AcDbEntity
  8
0
100
AcDbLine
 10
45.3
 20
112.45
 30
0.0
 11
45.3
 21
112.25
 31
0.0
  0
LINE
  5
308
330
1E
100
AcDbEntity
  8
0
100
AcDbLine
 10
46.0
 20
112.7499999999999
 30
0.0
 11
56.0
 21
112.7499999999999
 31
0.0
  0
LINE
  5
309
330
1E
100
AcDbEntity
  8
0
100
AcDbLine
 10
45.0
 20
111.7499999999999
 30
0.0
 11
45.3
 21
112.45
 31
0.0
  0
LINE
  5
30A
330
1E
100
AcDbEntity
  8
0
100
AcDbLine
 10
45.0
 20
111.7499999999999
 30
0.0
 11
45.0
 21
111.5499999999999
 31
0.0
  0
LINE
  5
30F
330
1E
100
AcDbEntity
  8
0
100
AcDbLine
 10
88.0
 20
93.6786000000001
 30
0.0
 11
88.0
 21
86.82140000000009
 31
0.0
  0
LINE
  5
310
330
1E
100
AcDbEntity
  8
0
100
AcDbLine
 10
46.0
 20
112.7499999999999
 30
0.0
 11
45.3
 21
112.45
 31
0.0
  0
LINE
  5
311
330
1E
100
AcDbEntity
  8
0
100
AcDbLine
 10
2.0
 20
0.250000000000094
 30
0.0
 11
2.299999999999999
 21
0.5500000000000941
 31
0.0
  0
LINE
  5
312
330
1E
100
AcDbEntity
  8
0
100
AcDbLine
 10
88.0
 20
32.6785700000001
 30
0.0
 11
88.0
 21
25.8214320000001
 31
0.0
  0
ENDSEC
  0
SECTION
  2
OBJECTS
  0
DICTIONARY
  5
C
330
0
100
AcDbDictionary
281
     1
  3
ACAD_GROUP
350
D
  3
ACAD_LAYOUT
350
19
  3
ACAD_MLINESTYLE
350
16
  3
ACAD_PLOTSETTINGS
350
18
  3
ACAD_PLOTSTYLENAME
350
E
  3
AcDbVariableDictionary
350
313
  0
DICTIONARY
  5
D
102
{ACAD_REACTORS
330
C
102
}
330
C
100
AcDbDictionary
281
     1
  0
DICTIONARY
  5
19
102
{ACAD_REACTORS
330
C
102
}
330
C
100
AcDbDictionary
281
     1
  3
Layout1
350
1D
  3
Model
350
21
  0
DICTIONARY
  5
16
102
{ACAD_REACTORS
330
C
102
}
330
C
100
AcDbDictionary
281
     1
  3
Standard
350
17
  0
DICTIONARY
  5
18
102
{ACAD_REACTORS
330
C
102
}
330
C
100
AcDbDictionary
281
     1
  0
ACDBDICTIONARYWDFLT
  5
E
102
{ACAD_REACTORS
330
C
102
}
330
C
100
AcDbDictionary
281
     1
  3
Normal
350
F
100
AcDbDictionaryWithDefault
340
F
  0
DICTIONARY
  5
313
102
{ACAD_REACTORS
330
C
102
}
330
C
100
AcDbDictionary
281
     1
  3
DIMASSOC
350
314
  0
LAYOUT
  5
1D
102
{ACAD_REACTORS
330
19
102
}
330
19
100
AcDbPlotSettings
  1

  2
hp deskjet 980c series
  4

  6

 40
0.0
 41
0.0
 42
0.0
 43
0.0
 44
0.0
 45
0.0
 46
0.0
 47
0.0
 48
0.0
 49
0.0
140
0.0
141
0.0
142
1.0
143
1.0
 70
   688
 72
     0
 73
     0
 74
     5
  7

 75
    16
147
1.0
148
0.0
149
0.0
100
AcDbLayout
  1
Layout1
 70
     1
 71
     1
 10
0.0
 20
0.0
 11
12.0
 21
9.0
 12
0.0
 22
0.0
 32
0.0
 14
1.000000000000000E+20
 24
1.000000000000000E+20
 34
1.000000000000000E+20
 15
-1.000000000000000E+20
 25
-1.000000000000000E+20
 35
-1.000000000000000E+20
146
0.0
 13
0.0
 23
0.0
 33
0.0
 16
1.0
 26
0.0
 36
0.0
 17
0.0
 27
1.0
 37
0.0
 76
     0
330
1A
  0
LAYOUT
  5
21
102
{ACAD_REACTORS
330
19
102
}
330
19
100
AcDbPlotSettings
  1

  2
hp deskjet 980c series
  4

  6

 40
0.0
 41
0.0
 42
0.0
 43
0.0
 44
0.0
 45
0.0
 46
0.0
 47
0.0
 48
0.0
 49
0.0
140
0.0
141
0.0
142
1.0
143
1.0
 70
  1712
 72
     0
 73
     0
 74
     0
  7

 75
     0
147
1.0
148
0.0
149
0.0
100
AcDbLayout
  1
Model
 70
     1
 71
     0
 10
0.0
 20
0.0
 11
12.0
 21
9.0
 12
0.0
 22
0.0
 32
0.0
 14
0.0
 24
0.0
 34
0.0
 15
0.0
 25
0.0
 35
0.0
146
0.0
 13
0.0
 23
0.0
 33
0.0
 16
1.0
 26
0.0
 36
0.0
 17
0.0
 27
1.0
 37
0.0
 76
     0
330
1E
  0
MLINESTYLE
  5
17
102
{ACAD_REACTORS
330
16
102
}
330
16
100
AcDbMlineStyle
  2
STANDARD
 70
     0
  3

 62
   256
 51
90.0
 52
90.0
 71
     2
 49
0.5
 62
   256
  6
BYLAYER
 49
-0.5
 62
   256
  6
BYLAYER
  0
ACDBPLACEHOLDER
  5
F
102
{ACAD_REACTORS
330
E
102
}
330
E
  0
DICTIONARYVAR
  5
314
102
{ACAD_REACTORS
330
313
102
}
330
313
100
DictionaryVariables
280
     0
  1
1
  0
ENDSEC
  0
EOF
