  0
SECTION
  2
HEADER
  9
$ACADVER
  1
AC1015
  9
$ACADMAINTVER
 70
    13
  9
$DWGCODEPAGE
  3
ANSI_1252
  9
$INSBASE
 10
0.0
 20
0.0
 30
0.0
  9
$EXTMIN
 10
-0.0000000000000047
 20
0.0
 30
0.0
  9
$EXTMAX
 10
105.0
 20
110.0
 30
0.0
  9
$LIMMIN
 10
0.0
 20
0.0
  9
$LIMMAX
 10
12.0
 20
9.0
  9
$ORTHOMODE
 70
     0
  9
$REGENMODE
 70
     1
  9
$FILLMODE
 70
     1
  9
$QTEXTMODE
 70
     0
  9
$MIRRTEXT
 70
     1
  9
$LTSCALE
 40
1.0
  9
$ATTMODE
 70
     1
  9
$TEXTSIZE
 40
0.2
  9
$TRACEWID
 40
0.05
  9
$TEXTSTYLE
  7
Standard
  9
$CLAYER
  8
0
  9
$CELTYPE
  6
Continuous
  9
$CECOLOR
 62
   256
  9
$CELTSCALE
 40
1.0
  9
$DISPSILH
 70
     0
  9
$DIMSCALE
 40
1.0
  9
$DIMASZ
 40
0.18
  9
$DIMEXO
 40
0.0625
  9
$DIMDLI
 40
0.38
  9
$DIMRND
 40
0.0
  9
$DIMDLE
 40
0.0
  9
$DIMEXE
 40
0.18
  9
$DIMTP
 40
0.0
  9
$DIMTM
 40
0.0
  9
$DIMTXT
 40
0.18
  9
$DIMCEN
 40
0.09
  9
$DIMTSZ
 40
0.0
  9
$DIMTOL
 70
     0
  9
$DIMLIM
 70
     0
  9
$DIMTIH
 70
     1
  9
$DIMTOH
 70
     1
  9
$DIMSE1
 70
     0
  9
$DIMSE2
 70
     0
  9
$DIMTAD
 70
     0
  9
$DIMZIN
 70
     0
  9
$DIMBLK
  1

  9
$DIMASO
 70
     1
  9
$DIMSHO
 70
     1
  9
$DIMPOST
  1

  9
$DIMAPOST
  1

  9
$DIMALT
 70
     0
  9
$DIMALTD
 70
     2
  9
$DIMALTF
 40
25.4
  9
$DIMLFAC
 40
1.0
  9
$DIMTOFL
 70
     0
  9
$DIMTVP
 40
0.0
  9
$DIMTIX
 70
     0
  9
$DIMSOXD
 70
     0
  9
$DIMSAH
 70
     0
  9
$DIMBLK1
  1

  9
$DIMBLK2
  1

  9
$DIMSTYLE
  2
Standard
  9
$DIMCLRD
 70
     0
  9
$DIMCLRE
 70
     0
  9
$DIMCLRT
 70
     0
  9
$DIMTFAC
 40
1.0
  9
$DIMGAP
 40
0.09
  9
$DIMJUST
 70
     0
  9
$DIMSD1
 70
     0
  9
$DIMSD2
 70
     0
  9
$DIMTOLJ
 70
     1
  9
$DIMTZIN
 70
     0
  9
$DIMALTZ
 70
     0
  9
$DIMALTTZ
 70
     0
  9
$DIMUPT
 70
     0
  9
$DIMDEC
 70
     4
  9
$DIMTDEC
 70
     4
  9
$DIMALTU
 70
     2
  9
$DIMALTTD
 70
     2
  9
$DIMTXSTY
  7
Standard
  9
$DIMAUNIT
 70
     0
  9
$DIMADEC
 70
     0
  9
$DIMALTRND
 40
0.0
  9
$DIMAZIN
 70
     0
  9
$DIMDSEP
 70
    46
  9
$DIMATFIT
 70
     3
  9
$DIMFRAC
 70
     0
  9
$DIMLDRBLK
  1

  9
$DIMLUNIT
 70
     2
  9
$DIMLWD
 70
    -2
  9
$DIMLWE
 70
    -2
  9
$DIMTMOVE
 70
     0
  9
$LUNITS
 70
     2
  9
$LUPREC
 70
     4
  9
$SKETCHINC
 40
0.1
  9
$FILLETRAD
 40
0.0
  9
$AUNITS
 70
     0
  9
$AUPREC
 70
     0
  9
$MENU
  1
.
  9
$ELEVATION
 40
0.0
  9
$PELEVATION
 40
0.0
  9
$THICKNESS
 40
0.0
  9
$LIMCHECK
 70
     0
  9
$CHAMFERA
 40
0.0
  9
$CHAMFERB
 40
0.0
  9
$CHAMFERC
 40
0.0
  9
$CHAMFERD
 40
0.0
  9
$SKPOLY
 70
     0
  9
$TDCREATE
 40
2454637.823809826
  9
$TDUCREATE
 40
2454637.740476493
  9
$TDUPDATE
 40
2454637.825150254
  9
$TDUUPDATE
 40
2454637.741816921
  9
$TDINDWG
 40
0.0013404282
  9
$TDUSRTIMER
 40
0.0013404282
  9
$USRTIMER
 70
     1
  9
$ANGBASE
 50
0.0
  9
$ANGDIR
 70
     0
  9
$PDMODE
 70
     0
  9
$PDSIZE
 40
0.0
  9
$PLINEWID
 40
0.0
  9
$SPLFRAME
 70
     0
  9
$SPLINETYPE
 70
     6
  9
$SPLINESEGS
 70
     8
  9
$HANDSEED
  5
239
  9
$SURFTAB1
 70
     6
  9
$SURFTAB2
 70
     6
  9
$SURFTYPE
 70
     6
  9
$SURFU
 70
     6
  9
$SURFV
 70
     6
  9
$UCSBASE
  2

  9
$UCSNAME
  2

  9
$UCSORG
 10
0.0
 20
0.0
 30
0.0
  9
$UCSXDIR
 10
1.0
 20
0.0
 30
0.0
  9
$UCSYDIR
 10
0.0
 20
1.0
 30
0.0
  9
$UCSORTHOREF
  2

  9
$UCSORTHOVIEW
 70
     1
  9
$UCSORGTOP
 10
0.0
 20
0.0
 30
0.0
  9
$UCSORGBOTTOM
 10
0.0
 20
0.0
 30
0.0
  9
$UCSORGLEFT
 10
0.0
 20
0.0
 30
0.0
  9
$UCSORGRIGHT
 10
0.0
 20
0.0
 30
0.0
  9
$UCSORGFRONT
 10
0.0
 20
0.0
 30
0.0
  9
$UCSORGBACK
 10
0.0
 20
0.0
 30
0.0
  9
$PUCSBASE
  2

  9
$PUCSNAME
  2

  9
$PUCSORG
 10
0.0
 20
0.0
 30
0.0
  9
$PUCSXDIR
 10
1.0
 20
0.0
 30
0.0
  9
$PUCSYDIR
 10
0.0
 20
1.0
 30
0.0
  9
$PUCSORTHOREF
  2

  9
$PUCSORTHOVIEW
 70
     0
  9
$PUCSORGTOP
 10
0.0
 20
0.0
 30
0.0
  9
$PUCSORGBOTTOM
 10
0.0
 20
0.0
 30
0.0
  9
$PUCSORGLEFT
 10
0.0
 20
0.0
 30
0.0
  9
$PUCSORGRIGHT
 10
0.0
 20
0.0
 30
0.0
  9
$PUCSORGFRONT
 10
0.0
 20
0.0
 30
0.0
  9
$PUCSORGBACK
 10
0.0
 20
0.0
 30
0.0
  9
$USERI1
 70
     0
  9
$USERI2
 70
     0
  9
$USERI3
 70
     0
  9
$USERI4
 70
     0
  9
$USERI5
 70
     0
  9
$USERR1
 40
0.0
  9
$USERR2
 40
0.0
  9
$USERR3
 40
0.0
  9
$USERR4
 40
0.0
  9
$USERR5
 40
0.0
  9
$WORLDVIEW
 70
     1
  9
$SHADEDGE
 70
     3
  9
$SHADEDIF
 70
    70
  9
$TILEMODE
 70
     1
  9
$MAXACTVP
 70
    64
  9
$PINSBASE
 10
0.0
 20
0.0
 30
0.0
  9
$PLIMCHECK
 70
     0
  9
$PEXTMIN
 10
1.000000000000000E+20
 20
1.000000000000000E+20
 30
1.000000000000000E+20
  9
$PEXTMAX
 10
-1.000000000000000E+20
 20
-1.000000000000000E+20
 30
-1.000000000000000E+20
  9
$PLIMMIN
 10
0.0
 20
0.0
  9
$PLIMMAX
 10
12.0
 20
9.0
  9
$UNITMODE
 70
     0
  9
$VISRETAIN
 70
     1
  9
$PLINEGEN
 70
     0
  9
$PSLTSCALE
 70
     1
  9
$TREEDEPTH
 70
  3020
  9
$CMLSTYLE
  2
Standard
  9
$CMLJUST
 70
     0
  9
$CMLSCALE
 40
1.0
  9
$PROXYGRAPHICS
 70
     1
  9
$MEASUREMENT
 70
     0
  9
$CELWEIGHT
370
    -1
  9
$ENDCAPS
280
     0
  9
$JOINSTYLE
280
     0
  9
$LWDISPLAY
290
     0
  9
$INSUNITS
 70
     0
  9
$HYPERLINKBASE
  1

  9
$STYLESHEET
  1

  9
$XEDIT
290
     1
  9
$CEPSNTYPE
380
     0
  9
$PSTYLEMODE
290
     1
  9
$FINGERPRINTGUID
  2
{87C60953-1C07-4839-8270-1150EE2BFBE2}
  9
$VERSIONGUID
  2
{88BE760F-2D59-4F2C-A4A8-E3667A20F7EC}
  9
$EXTNAMES
290
     1
  9
$PSVPSCALE
 40
0.0
  9
$OLESTARTUP
290
     0
  0
ENDSEC
  0
SECTION
  2
CLASSES
  0
CLASS
  1
ACDBDICTIONARYWDFLT
  2
AcDbDictionaryWithDefault
  3
AutoCAD 2000
 90
        0
280
     0
281
     0
  0
CLASS
  1
ACDBPLACEHOLDER
  2
AcDbPlaceHolder
  3
AutoCAD 2000
 90
        0
280
     0
281
     0
  0
CLASS
  1
LAYOUT
  2
AcDbLayout
  3
AutoCAD 2000
 90
        0
280
     0
281
     0
  0
CLASS
  1
DICTIONARYVAR
  2
AcDbDictionaryVar
  3
AutoCAD 2000
 90
        0
280
     0
281
     0
  0
ENDSEC
  0
SECTION
  2
TABLES
  0
TABLE
  2
VPORT
  5
8
330
0
100
AcDbSymbolTable
 70
     2
  0
VPORT
  5
238
330
8
100
AcDbSymbolTableRecord
100
AcDbViewportTableRecord
  2
*Active
 70
     0
 10
0.0
 20
0.0
 11
1.0
 21
1.0
 12
52.5
 22
55.0
 13
0.0
 23
0.0
 14
1.0
 24
1.0
 15
0.0
 25
0.0
 16
0.0
 26
0.0
 36
1.0
 17
0.0
 27
0.0
 37
0.0
 40
110.8439897698209
 41
2.043533930857874
 42
50.0
 43
0.0
 44
0.0
 50
0.0
 51
0.0
 71
     0
 72
   100
 73
     1
 74
     3
 75
     0
 76
     0
 77
     0
 78
     0
281
     0
 65
     1
110
0.0
120
0.0
130
0.0
111
1.0
121
0.0
131
0.0
112
0.0
122
1.0
132
0.0
 79
     1
146
0.0
  0
ENDTAB
  0
TABLE
  2
LTYPE
  5
5
330
0
100
AcDbSymbolTable
 70
     1
  0
LTYPE
  5
13
330
5
100
AcDbSymbolTableRecord
100
AcDbLinetypeTableRecord
  2
ByBlock
 70
     0
  3

 72
    65
 73
     0
 40
0.0
  0
LTYPE
  5
14
330
5
100
AcDbSymbolTableRecord
100
AcDbLinetypeTableRecord
  2
ByLayer
 70
     0
  3

 72
    65
 73
     0
 40
0.0
  0
LTYPE
  5
15
330
5
100
AcDbSymbolTableRecord
100
AcDbLinetypeTableRecord
  2
Continuous
 70
     0
  3
Solid line
 72
    65
 73
     0
 40
0.0
  0
ENDTAB
  0
TABLE
  2
LAYER
  5
2
330
0
100
AcDbSymbolTable
 70
     1
  0
LAYER
  5
10
330
2
100
AcDbSymbolTableRecord
100
AcDbLayerTableRecord
  2
0
 70
     0
 62
     7
  6
Continuous
370
    -3
390
F
  0
ENDTAB
  0
TABLE
  2
STYLE
  5
3
330
0
100
AcDbSymbolTable
 70
     1
  0
STYLE
  5
11
330
3
100
AcDbSymbolTableRecord
100
AcDbTextStyleTableRecord
  2
Standard
 70
     0
 40
0.0
 41
1.0
 50
0.0
 71
     0
 42
0.2
  3
txt
  4

  0
ENDTAB
  0
TABLE
  2
VIEW
  5
6
330
0
100
AcDbSymbolTable
 70
     0
  0
ENDTAB
  0
TABLE
  2
UCS
  5
7
330
0
100
AcDbSymbolTable
 70
     0
  0
ENDTAB
  0
TABLE
  2
APPID
  5
9
330
0
100
AcDbSymbolTable
 70
     1
  0
APPID
  5
12
330
9
100
AcDbSymbolTableRecord
100
AcDbRegAppTableRecord
  2
ACAD
 70
     0
  0
ENDTAB
  0
TABLE
  2
DIMSTYLE
  5
A
330
0
100
AcDbSymbolTable
 70
     1
100
AcDbDimStyleTable
 71
     0
  0
DIMSTYLE
105
206
330
A
100
AcDbSymbolTableRecord
100
AcDbDimStyleTableRecord
  2
Standard
 70
     0
340
11
  0
ENDTAB
  0
TABLE
  2
BLOCK_RECORD
  5
1
330
0
100
AcDbSymbolTable
 70
     0
  0
BLOCK_RECORD
  5
1E
330
1
100
AcDbSymbolTableRecord
100
AcDbBlockTableRecord
  2
*Model_Space
340
21
  0
BLOCK_RECORD
  5
1A
330
1
100
AcDbSymbolTableRecord
100
AcDbBlockTableRecord
  2
*Paper_Space
340
1D
  0
ENDTAB
  0
ENDSEC
  0
SECTION
  2
BLOCKS
  0
BLOCK
  5
1F
330
1E
100
AcDbEntity
  8
0
100
AcDbBlockBegin
  2
*Model_Space
 70
     0
 10
0.0
 20
0.0
 30
0.0
  3
*Model_Space
  1

  0
ENDBLK
  5
20
330
1E
100
AcDbEntity
  8
0
100
AcDbBlockEnd
  0
BLOCK
  5
1B
330
1A
100
AcDbEntity
 67
     1
  8
0
100
AcDbBlockBegin
  2
*Paper_Space
 70
     0
 10
0.0
 20
0.0
 30
0.0
  3
*Paper_Space
  1

  0
ENDBLK
  5
1C
330
1A
100
AcDbEntity
 67
     1
  8
0
100
AcDbBlockEnd
  0
ENDSEC
  0
SECTION
  2
ENTITIES
  0
LINE
  5
22
330
1E
100
AcDbEntity
  8
0
100
AcDbLine
 10
0.999999999999996
 20
45.0
 30
0.0
 11
1.199999999999999
 21
45.0
 31
0.0
  0
LINE
  5
23
330
1E
100
AcDbEntity
  8
0
100
AcDbLine
 10
1.199999999999999
 20
45.0
 30
0.0
 11
1.7
 21
45.0
 31
0.0
  0
LINE
  5
24
330
1E
100
AcDbEntity
  8
0
100
AcDbLine
 10
1.7
 20
45.0
 30
0.0
 11
2.5
 21
45.0
 31
0.0
  0
LINE
  5
25
330
1E
100
AcDbEntity
  8
0
100
AcDbLine
 10
2.5
 20
45.0
 30
0.0
 11
3.5
 21
45.0
 31
0.0
  0
LINE
  5
26
330
1E
100
AcDbEntity
  8
0
100
AcDbLine
 10
6.0
 20
45.0
 30
0.0
 11
39.0
 21
45.0
 31
0.0
  0
LINE
  5
27
330
1E
100
AcDbEntity
  8
0
100
AcDbLine
 10
3.5
 20
45.0
 30
0.0
 11
4.7
 21
45.0
 31
0.0
  0
LINE
  5
28
330
1E
100
AcDbEntity
  8
0
100
AcDbLine
 10
4.7
 20
45.0
 30
0.0
 11
6.0
 21
45.0
 31
0.0
  0
LINE
  5
29
330
1E
100
AcDbEntity
  8
0
100
AcDbLine
 10
6.0
 20
45.0
 30
0.0
 11
39.0
 21
45.0
 31
0.0
  0
LINE
  5
2A
330
1E
100
AcDbEntity
  8
0
100
AcDbLine
 10
24.5
 20
45.0
 30
0.0
 11
25.5
 21
45.0
 31
0.0
  0
LINE
  5
2B
330
1E
100
AcDbEntity
  8
0
100
AcDbLine
 10
29.5
 20
45.0
 30
0.0
 11
33.7
 21
45.0
 31
0.0
  0
LINE
  5
2C
330
1E
100
AcDbEntity
  8
0
100
AcDbLine
 10
26.89999999999999
 20
45.0
 30
0.0
 11
29.5
 21
45.0
 31
0.0
  0
LINE
  5
2D
330
1E
100
AcDbEntity
  8
0
100
AcDbLine
 10
25.89999999999999
 20
45.0
 30
0.0
 11
26.89999999999999
 21
45.0
 31
0.0
  0
LINE
  5
2E
330
1E
100
AcDbEntity
  8
0
100
AcDbLine
 10
25.5
 20
45.0
 30
0.0
 11
28.2
 21
45.0
 31
0.0
  0
LINE
  5
2F
330
1E
100
AcDbEntity
  8
0
100
AcDbLine
 10
28.2
 20
45.0
 30
0.0
 11
32.7
 21
45.0
 31
0.0
  0
LINE
  5
30
330
1E
100
AcDbEntity
  8
0
100
AcDbLine
 10
33.7
 20
45.0
 30
0.0
 11
39.0
 21
45.0
 31
0.0
  0
LINE
  5
31
330
1E
100
AcDbEntity
  8
0
100
AcDbLine
 10
38.39999999999999
 20
45.0
 30
0.0
 11
39.0
 21
45.0
 31
0.0
  0
LINE
  5
32
330
1E
100
AcDbEntity
  8
0
100
AcDbLine
 10
37.9
 20
45.0
 30
0.0
 11
38.39999999999999
 21
45.0
 31
0.0
  0
LINE
  5
33
330
1E
100
AcDbEntity
  8
0
100
AcDbLine
 10
40.3
 20
44.59999999999999
 30
0.0
 11
41.29999999999999
 21
43.79999999999999
 31
0.0
  0
LINE
  5
34
330
1E
100
AcDbEntity
  8
0
100
AcDbLine
 10
39.0
 20
45.0
 30
0.0
 11
40.3
 21
44.59999999999999
 31
0.0
  0
LINE
  5
35
330
1E
100
AcDbEntity
  8
0
100
AcDbLine
 10
37.1
 20
45.0
 30
0.0
 11
38.6
 21
45.0
 31
0.0
  0
LINE
  5
36
330
1E
100
AcDbEntity
  8
0
100
AcDbLine
 10
36.5
 20
45.0
 30
0.0
 11
37.1
 21
45.0
 31
0.0
  0
LINE
  5
37
330
1E
100
AcDbEntity
  8
0
100
AcDbLine
 10
42.0
 20
0.500000000000004
 30
0.0
 11
42.0
 21
2.2
 31
0.0
  0
LINE
  5
38
330
1E
100
AcDbEntity
  8
0
100
AcDbLine
 10
42.0
 20
2.2
 30
0.0
 11
42.0
 21
0.500000000000004
 31
0.0
  0
LINE
  5
39
330
1E
100
AcDbEntity
  8
0
100
AcDbLine
 10
42.0
 20
2.2
 30
0.0
 11
42.0
 21
2.9
 31
0.0
  0
LINE
  5
3A
330
1E
100
AcDbEntity
  8
0
100
AcDbLine
 10
42.0
 20
15.0
 30
0.0
 11
42.0
 21
12.6
 31
0.0
  0
LINE
  5
3B
330
1E
100
AcDbEntity
  8
0
100
AcDbLine
 10
42.0
 20
15.0
 30
0.0
 11
42.0
 21
41.5
 31
0.0
  0
LINE
  5
3C
330
1E
100
AcDbEntity
  8
0
100
AcDbLine
 10
42.0
 20
12.6
 30
0.0
 11
42.0
 21
9.599999999999999
 31
0.0
  0
LINE
  5
3D
330
1E
100
AcDbEntity
  8
0
100
AcDbLine
 10
42.0
 20
12.6
 30
0.0
 11
42.0
 21
15.0
 31
0.0
  0
LINE
  5
3E
330
1E
100
AcDbEntity
  8
0
100
AcDbLine
 10
42.0
 20
9.599999999999999
 30
0.0
 11
42.0
 21
6.799999999999999
 31
0.0
  0
LINE
  5
3F
330
1E
100
AcDbEntity
  8
0
100
AcDbLine
 10
42.0
 20
9.599999999999999
 30
0.0
 11
42.0
 21
12.6
 31
0.0
  0
LINE
  5
40
330
1E
100
AcDbEntity
  8
0
100
AcDbLine
 10
42.0
 20
6.799999999999999
 30
0.0
 11
42.0
 21
4.299999999999999
 31
0.0
  0
LINE
  5
41
330
1E
100
AcDbEntity
  8
0
100
AcDbLine
 10
42.0
 20
6.799999999999999
 30
0.0
 11
42.0
 21
9.599999999999999
 31
0.0
  0
LINE
  5
42
330
1E
100
AcDbEntity
  8
0
100
AcDbLine
 10
42.0
 20
4.299999999999999
 30
0.0
 11
42.0
 21
2.9
 31
0.0
  0
LINE
  5
43
330
1E
100
AcDbEntity
  8
0
100
AcDbLine
 10
42.0
 20
4.299999999999999
 30
0.0
 11
42.0
 21
6.799999999999999
 31
0.0
  0
LINE
  5
44
330
1E
100
AcDbEntity
  8
0
100
AcDbLine
 10
42.0
 20
2.9
 30
0.0
 11
42.0
 21
2.2
 31
0.0
  0
LINE
  5
45
330
1E
100
AcDbEntity
  8
0
100
AcDbLine
 10
42.0
 20
2.9
 30
0.0
 11
42.0
 21
4.299999999999999
 31
0.0
  0
LINE
  5
46
330
1E
100
AcDbEntity
  8
0
100
AcDbLine
 10
43.79999999999999
 20
0.0000000000000039
 30
0.0
 11
45.4
 21
0.0000000000000041
 31
0.0
  0
LINE
  5
47
330
1E
100
AcDbEntity
  8
0
100
AcDbLine
 10
42.5
 20
0.0000000000000006
 30
0.0
 11
42.9
 21
0.0000000000000004
 31
0.0
  0
LINE
  5
48
330
1E
100
AcDbEntity
  8
0
100
AcDbLine
 10
42.9
 20
0.0000000000000004
 30
0.0
 11
43.79999999999999
 21
0.0000000000000003
 31
0.0
  0
LINE
  5
49
330
1E
100
AcDbEntity
  8
0
100
AcDbLine
 10
43.79999999999999
 20
0.0000000000000003
 30
0.0
 11
45.4
 21
0.0000000000000002
 31
0.0
  0
LINE
  5
4A
330
1E
100
AcDbEntity
  8
0
100
AcDbLine
 10
42.0
 20
0.500000000000004
 30
0.0
 11
45.0
 21
0.500000000000004
 31
0.0
  0
LINE
  5
4B
330
1E
100
AcDbEntity
  8
0
100
AcDbLine
 10
45.0
 20
0.500000000000004
 30
0.0
 11
57.7
 21
0.500000000000004
 31
0.0
  0
LINE
  5
4C
330
1E
100
AcDbEntity
  8
0
100
AcDbLine
 10
42.2
 20
0.200000000000001
 30
0.0
 11
42.5
 21
0.0000000000000006
 31
0.0
  0
LINE
  5
4D
330
1E
100
AcDbEntity
  8
0
100
AcDbLine
 10
42.2
 20
0.200000000000001
 30
0.0
 11
42.5
 21
0.0000000000000006
 31
0.0
  0
LINE
  5
4E
330
1E
100
AcDbEntity
  8
0
100
AcDbLine
 10
42.0
 20
41.5
 30
0.0
 11
42.0
 21
42.0
 31
0.0
  0
LINE
  5
4F
330
1E
100
AcDbEntity
  8
0
100
AcDbLine
 10
42.0
 20
41.5
 30
0.0
 11
42.0
 21
15.0
 31
0.0
  0
LINE
  5
50
330
1E
100
AcDbEntity
  8
0
100
AcDbLine
 10
42.0
 20
42.0
 30
0.0
 11
42.0
 21
41.5
 31
0.0
  0
LINE
  5
51
330
1E
100
AcDbEntity
  8
0
100
AcDbLine
 10
41.79999999999999
 20
42.8
 30
0.0
 11
42.0
 21
42.0
 31
0.0
  0
LINE
  5
52
330
1E
100
AcDbEntity
  8
0
100
AcDbLine
 10
41.29999999999999
 20
43.79999999999999
 30
0.0
 11
41.79999999999999
 21
42.8
 31
0.0
  0
LINE
  5
53
330
1E
100
AcDbEntity
  8
0
100
AcDbLine
 10
41.2
 20
45.0
 30
0.0
 11
44.5
 21
45.0
 31
0.0
  0
LINE
  5
54
330
1E
100
AcDbEntity
  8
0
100
AcDbLine
 10
44.5
 20
45.0
 30
0.0
 11
48.39999999999999
 21
45.0
 31
0.0
  0
LINE
  5
55
330
1E
100
AcDbEntity
  8
0
100
AcDbLine
 10
32.7
 20
45.0
 30
0.0
 11
38.6
 21
45.0
 31
0.0
  0
LINE
  5
56
330
1E
100
AcDbEntity
  8
0
100
AcDbLine
 10
-0.0000000000000047
 20
46.0
 30
0.0
 11
0.299999999999995
 21
45.3
 31
0.0
  0
LINE
  5
57
330
1E
100
AcDbEntity
  8
0
100
AcDbLine
 10
-0.0000000000000047
 20
46.0
 30
0.0
 11
-0.0000000000000047
 21
56.0
 31
0.0
  0
LINE
  5
58
330
1E
100
AcDbEntity
  8
0
100
AcDbLine
 10
0.4999999999999951
 20
45.3
 30
0.0
 11
1.1
 21
45.3
 31
0.0
  0
LINE
  5
59
330
1E
100
AcDbEntity
  8
0
100
AcDbLine
 10
0.299999999999995
 20
45.3
 30
0.0
 11
0.4999999999999951
 21
45.3
 31
0.0
  0
LINE
  5
5A
330
1E
100
AcDbEntity
  8
0
100
AcDbLine
 10
0.299999999999995
 20
45.3
 30
0.0
 11
0.999999999999996
 21
45.0
 31
0.0
  0
LINE
  5
5B
330
1E
100
AcDbEntity
  8
0
100
AcDbLine
 10
0.199999999999995
 20
56.0
 30
0.0
 11
0.799999999999995
 21
56.0
 31
0.0
  0
LINE
  5
5C
330
1E
100
AcDbEntity
  8
0
100
AcDbLine
 10
-0.0000000000000047
 20
56.0
 30
0.0
 11
0.199999999999995
 21
56.0
 31
0.0
  0
LINE
  5
5D
330
1E
100
AcDbEntity
  8
0
100
AcDbLine
 10
-0.0000000000000047
 20
56.0
 30
0.0
 11
-0.0000000000000047
 21
46.0
 31
0.0
  0
LINE
  5
5E
330
1E
100
AcDbEntity
  8
0
100
AcDbLine
 10
0.199999999999995
 20
56.0
 30
0.0
 11
0.799999999999995
 21
56.0
 31
0.0
  0
LINE
  5
5F
330
1E
100
AcDbEntity
  8
0
100
AcDbLine
 10
2.0
 20
45.3
 30
0.0
 11
3.2
 21
45.3
 31
0.0
  0
LINE
  5
60
330
1E
100
AcDbEntity
  8
0
100
AcDbLine
 10
1.1
 20
45.3
 30
0.0
 11
2.0
 21
45.3
 31
0.0
  0
LINE
  5
61
330
1E
100
AcDbEntity
  8
0
100
AcDbLine
 10
0.799999999999996
 20
56.0
 30
0.0
 11
1.8
 21
56.0
 31
0.0
  0
LINE
  5
62
330
1E
100
AcDbEntity
  8
0
100
AcDbLine
 10
0.799999999999995
 20
56.0
 30
0.0
 11
1.8
 21
56.0
 31
0.0
  0
LINE
  5
63
330
1E
100
AcDbEntity
  8
0
100
AcDbLine
 10
1.8
 20
56.0
 30
0.0
 11
3.0
 21
56.0
 31
0.0
  0
LINE
  5
64
330
1E
100
AcDbEntity
  8
0
100
AcDbLine
 10
6.0
 20
45.3
 30
0.0
 11
52.5
 21
45.3
 31
0.0
  0
LINE
  5
65
330
1E
100
AcDbEntity
  8
0
100
AcDbLine
 10
3.2
 20
45.3
 30
0.0
 11
4.5
 21
45.3
 31
0.0
  0
LINE
  5
66
330
1E
100
AcDbEntity
  8
0
100
AcDbLine
 10
4.5
 20
45.3
 30
0.0
 11
6.0
 21
45.3
 31
0.0
  0
LINE
  5
67
330
1E
100
AcDbEntity
  8
0
100
AcDbLine
 10
6.0
 20
45.3
 30
0.0
 11
52.5
 21
45.3
 31
0.0
  0
LINE
  5
68
330
1E
100
AcDbEntity
  8
0
100
AcDbLine
 10
6.0
 20
56.0
 30
0.0
 11
52.5
 21
56.0
 31
0.0
  0
LINE
  5
69
330
1E
100
AcDbEntity
  8
0
100
AcDbLine
 10
3.0
 20
56.0
 30
0.0
 11
4.5
 21
56.0
 31
0.0
  0
LINE
  5
6A
330
1E
100
AcDbEntity
  8
0
100
AcDbLine
 10
4.5
 20
56.0
 30
0.0
 11
6.0
 21
56.0
 31
0.0
  0
LINE
  5
6B
330
1E
100
AcDbEntity
  8
0
100
AcDbLine
 10
36.884
 20
61.0
 30
0.0
 11
37.46
 21
61.0
 31
0.0
  0
LINE
  5
6C
330
1E
100
AcDbEntity
  8
0
100
AcDbLine
 10
36.5
 20
61.29999999999999
 30
0.0
 11
36.5
 21
66.0
 31
0.0
  0
LINE
  5
6D
330
1E
100
AcDbEntity
  8
0
100
AcDbLine
 10
36.5
 20
61.29999999999999
 30
0.0
 11
37.076
 21
61.29999999999999
 31
0.0
  0
LINE
  5
6E
330
1E
100
AcDbEntity
  8
0
100
AcDbLine
 10
36.5
 20
61.29999999999999
 30
0.0
 11
36.884
 21
61.0
 31
0.0
  0
LINE
  5
6F
330
1E
100
AcDbEntity
  8
0
100
AcDbLine
 10
36.5
 20
66.0
 30
0.0
 11
37.076
 21
66.0
 31
0.0
  0
LINE
  5
70
330
1E
100
AcDbEntity
  8
0
100
AcDbLine
 10
36.5
 20
66.0
 30
0.0
 11
36.5
 21
61.29999999999999
 31
0.0
  0
LINE
  5
71
330
1E
100
AcDbEntity
  8
0
100
AcDbLine
 10
37.076
 20
66.0
 30
0.0
 11
38.61199999999999
 21
66.0
 31
0.0
  0
LINE
  5
72
330
1E
100
AcDbEntity
  8
0
100
AcDbLine
 10
37.076
 20
61.29999999999999
 30
0.0
 11
38.61199999999999
 21
61.29999999999999
 31
0.0
  0
LINE
  5
73
330
1E
100
AcDbEntity
  8
0
100
AcDbLine
 10
38.5
 20
61.0
 30
0.0
 11
39.00399999999999
 21
61.0
 31
0.0
  0
LINE
  5
74
330
1E
100
AcDbEntity
  8
0
100
AcDbLine
 10
38.5
 20
61.0
 30
0.0
 11
38.5
 21
58.18
 31
0.0
  0
LINE
  5
75
330
1E
100
AcDbEntity
  8
0
100
AcDbLine
 10
38.83599999999999
 20
58.0
 30
0.0
 11
39.34
 21
58.0
 31
0.0
  0
LINE
  5
76
330
1E
100
AcDbEntity
  8
0
100
AcDbLine
 10
38.5
 20
58.18
 30
0.0
 11
38.5
 21
61.0
 31
0.0
  0
LINE
  5
77
330
1E
100
AcDbEntity
  8
0
100
AcDbLine
 10
38.5
 20
58.18
 30
0.0
 11
39.00399999999999
 21
58.18
 31
0.0
  0
LINE
  5
78
330
1E
100
AcDbEntity
  8
0
100
AcDbLine
 10
38.5
 20
58.18
 30
0.0
 11
38.83599999999999
 21
58.0
 31
0.0
  0
LINE
  5
79
330
1E
100
AcDbEntity
  8
0
100
AcDbLine
 10
37.46
 20
61.0
 30
0.0
 11
38.996
 21
61.0
 31
0.0
  0
LINE
  5
7A
330
1E
100
AcDbEntity
  8
0
100
AcDbLine
 10
37.46
 20
61.0
 30
0.0
 11
38.5
 21
61.0
 31
0.0
  0
LINE
  5
7B
330
1E
100
AcDbEntity
  8
0
100
AcDbLine
 10
40.49999999999999
 20
58.0
 30
0.0
 11
40.93199999999999
 21
58.0
 31
0.0
  0
LINE
  5
7C
330
1E
100
AcDbEntity
  8
0
100
AcDbLine
 10
40.49999999999999
 20
58.0
 30
0.0
 11
40.49999999999999
 21
56.18
 31
0.0
  0
LINE
  5
7D
330
1E
100
AcDbEntity
  8
0
100
AcDbLine
 10
40.49999999999999
 20
56.18
 30
0.0
 11
40.49999999999999
 21
58.0
 31
0.0
  0
LINE
  5
7E
330
1E
100
AcDbEntity
  8
0
100
AcDbLine
 10
40.49999999999999
 20
56.18
 30
0.0
 11
40.93199999999999
 21
56.18
 31
0.0
  0
LINE
  5
7F
330
1E
100
AcDbEntity
  8
0
100
AcDbLine
 10
40.49999999999999
 20
56.18
 30
0.0
 11
40.788
 21
56.0
 31
0.0
  0
LINE
  5
80
330
1E
100
AcDbEntity
  8
0
100
AcDbLine
 10
40.93199999999999
 20
58.0
 30
0.0
 11
42.084
 21
58.0
 31
0.0
  0
LINE
  5
81
330
1E
100
AcDbEntity
  8
0
100
AcDbLine
 10
40.93199999999999
 20
56.18
 30
0.0
 11
42.084
 21
56.18
 31
0.0
  0
LINE
  5
82
330
1E
100
AcDbEntity
  8
0
100
AcDbLine
 10
39.34
 20
58.0
 30
0.0
 11
40.49999999999999
 21
58.0
 31
0.0
  0
LINE
  5
83
330
1E
100
AcDbEntity
  8
0
100
AcDbLine
 10
39.00399999999999
 20
58.18
 30
0.0
 11
40.34799999999999
 21
58.18
 31
0.0
  0
LINE
  5
84
330
1E
100
AcDbEntity
  8
0
100
AcDbLine
 10
39.00399999999999
 20
61.0
 30
0.0
 11
40.34799999999999
 21
61.0
 31
0.0
  0
LINE
  5
85
330
1E
100
AcDbEntity
  8
0
100
AcDbLine
 10
40.34799999999999
 20
61.0
 30
0.0
 11
42.58799999999999
 21
61.0
 31
0.0
  0
LINE
  5
86
330
1E
100
AcDbEntity
  8
0
100
AcDbLine
 10
40.34799999999999
 20
58.18
 30
0.0
 11
42.58799999999999
 21
58.18
 31
0.0
  0
LINE
  5
87
330
1E
100
AcDbEntity
  8
0
100
AcDbLine
 10
38.996
 20
61.0
 30
0.0
 11
41.49199999999999
 21
61.0
 31
0.0
  0
LINE
  5
88
330
1E
100
AcDbEntity
  8
0
100
AcDbLine
 10
38.61199999999999
 20
66.0
 30
0.0
 11
41.17199999999999
 21
66.0
 31
0.0
  0
LINE
  5
89
330
1E
100
AcDbEntity
  8
0
100
AcDbLine
 10
38.61199999999999
 20
61.29999999999999
 30
0.0
 11
41.17199999999999
 21
61.29999999999999
 31
0.0
  0
LINE
  5
8A
330
1E
100
AcDbEntity
  8
0
100
AcDbLine
 10
42.084
 20
58.0
 30
0.0
 11
44.004
 21
58.0
 31
0.0
  0
LINE
  5
8B
330
1E
100
AcDbEntity
  8
0
100
AcDbLine
 10
42.084
 20
56.18
 30
0.0
 11
44.004
 21
56.18
 31
0.0
  0
LINE
  5
8C
330
1E
100
AcDbEntity
  8
0
100
AcDbLine
 10
42.58799999999999
 20
58.18
 30
0.0
 11
45.556
 21
58.18
 31
0.0
  0
LINE
  5
8D
330
1E
100
AcDbEntity
  8
0
100
AcDbLine
 10
42.58799999999999
 20
61.0
 30
0.0
 11
45.556
 21
61.0
 31
0.0
  0
LINE
  5
8E
330
1E
100
AcDbEntity
  8
0
100
AcDbLine
 10
41.49199999999999
 20
61.0
 30
0.0
 11
44.756
 21
61.0
 31
0.0
  0
LINE
  5
8F
330
1E
100
AcDbEntity
  8
0
100
AcDbLine
 10
41.17199999999999
 20
61.29999999999999
 30
0.0
 11
44.56399999999999
 21
61.29999999999999
 31
0.0
  0
LINE
  5
90
330
1E
100
AcDbEntity
  8
0
100
AcDbLine
 10
41.17199999999999
 20
66.0
 30
0.0
 11
44.56399999999999
 21
66.0
 31
0.0
  0
LINE
  5
91
330
1E
100
AcDbEntity
  8
0
100
AcDbLine
 10
44.004
 20
56.18
 30
0.0
 11
46.548
 21
56.18
 31
0.0
  0
LINE
  5
92
330
1E
100
AcDbEntity
  8
0
100
AcDbLine
 10
44.004
 20
58.0
 30
0.0
 11
46.548
 21
58.0
 31
0.0
  0
LINE
  5
93
330
1E
100
AcDbEntity
  8
0
100
AcDbLine
 10
44.756
 20
61.0
 30
0.0
 11
48.468
 21
61.0
 31
0.0
  0
LINE
  5
94
330
1E
100
AcDbEntity
  8
0
100
AcDbLine
 10
44.56399999999999
 20
61.29999999999999
 30
0.0
 11
48.40399999999999
 21
61.29999999999999
 31
0.0
  0
LINE
  5
95
330
1E
100
AcDbEntity
  8
0
100
AcDbLine
 10
44.56399999999999
 20
66.0
 30
0.0
 11
48.40399999999999
 21
66.0
 31
0.0
  0
LINE
  5
96
330
1E
100
AcDbEntity
  8
0
100
AcDbLine
 10
43.788
 20
66.0
 30
0.0
 11
47.964
 21
66.0
 31
0.0
  0
LINE
  5
97
330
1E
100
AcDbEntity
  8
0
100
AcDbLine
 10
40.116
 20
66.0
 30
0.0
 11
43.788
 21
66.0
 31
0.0
  0
LINE
  5
98
330
1E
100
AcDbEntity
  8
0
100
AcDbLine
 10
37.308
 20
66.0
 30
0.0
 11
40.116
 21
66.0
 31
0.0
  0
LINE
  5
99
330
1E
100
AcDbEntity
  8
0
100
AcDbLine
 10
43.57199999999999
 20
66.6
 30
0.0
 11
47.892
 21
66.6
 31
0.0
  0
LINE
  5
9A
330
1E
100
AcDbEntity
  8
0
100
AcDbLine
 10
39.756
 20
66.6
 30
0.0
 11
43.57199999999999
 21
66.6
 31
0.0
  0
LINE
  5
9B
330
1E
100
AcDbEntity
  8
0
100
AcDbLine
 10
36.87599999999999
 20
66.6
 30
0.0
 11
39.756
 21
66.6
 31
0.0
  0
LINE
  5
9C
330
1E
100
AcDbEntity
  8
0
100
AcDbLine
 10
35.148
 20
66.6
 30
0.0
 11
36.87599999999999
 21
66.6
 31
0.0
  0
LINE
  5
9D
330
1E
100
AcDbEntity
  8
0
100
AcDbLine
 10
35.57999999999999
 20
66.0
 30
0.0
 11
36.5
 21
66.0
 31
0.0
  0
LINE
  5
9E
330
1E
100
AcDbEntity
  8
0
100
AcDbLine
 10
35.57999999999999
 20
66.0
 30
0.0
 11
37.308
 21
66.0
 31
0.0
  0
LINE
  5
9F
330
1E
100
AcDbEntity
  8
0
100
AcDbLine
 10
34.93199999999999
 20
66.0
 30
0.0
 11
35.57999999999999
 21
66.0
 31
0.0
  0
LINE
  5
A0
330
1E
100
AcDbEntity
  8
0
100
AcDbLine
 10
38.69239999999999
 20
84.34650000000001
 30
0.0
 11
40.8818
 21
80.29470000000001
 31
0.0
  0
LINE
  5
A1
330
1E
100
AcDbEntity
  8
0
100
AcDbLine
 10
40.8818
 20
80.29470000000001
 30
0.0
 11
42.4152
 21
77.45709999999999
 31
0.0
  0
LINE
  5
A2
330
1E
100
AcDbEntity
  8
0
100
AcDbLine
 10
41.22549999999999
 20
85.9988
 30
0.0
 11
43.6248
 21
83.1151
 31
0.0
  0
LINE
  5
A3
330
1E
100
AcDbEntity
  8
0
100
AcDbLine
 10
42.4152
 20
77.45709999999999
 30
0.0
 11
42.966
 21
76.4375
 31
0.0
  0
LINE
  5
A7
330
1E
100
AcDbEntity
  8
0
100
AcDbLine
 10
34.6261
 20
93.98279999999999
 30
0.0
 11
35.1886
 21
95.1011
 31
0.0
  0
LINE
  5
A8
330
1E
100
AcDbEntity
  8
0
100
AcDbLine
 10
34.5
 20
93.0
 30
0.0
 11
34.6261
 21
92.01719999999999
 31
0.0
  0
LINE
  5
A9
330
1E
100
AcDbEntity
  8
0
100
AcDbLine
 10
34.5
 20
93.0
 30
0.0
 11
34.6261
 21
93.98279999999999
 31
0.0
  0
LINE
  5
AA
330
1E
100
AcDbEntity
  8
0
100
AcDbLine
 10
35.1886
 20
90.8989
 30
0.0
 11
36.515
 21
88.37609999999999
 31
0.0
  0
LINE
  5
AC
330
1E
100
AcDbEntity
  8
0
100
AcDbLine
 10
36.515
 20
97.62390000000001
 30
0.0
 11
38.69239999999999
 21
101.6534999999999
 31
0.0
  0
LINE
  5
AE
330
1E
100
AcDbEntity
  8
0
100
AcDbLine
 10
35.1886
 20
95.1011
 30
0.0
 11
36.515
 21
97.62390000000001
 31
0.0
  0
LINE
  5
B4
330
1E
100
AcDbEntity
  8
0
100
AcDbLine
 10
34.6261
 20
92.01719999999999
 30
0.0
 11
35.1886
 21
90.8989
 31
0.0
  0
LINE
  5
B5
330
1E
100
AcDbEntity
  8
0
100
AcDbLine
 10
34.6261
 20
92.01719999999999
 30
0.0
 11
35.1886
 21
90.8989
 31
0.0
  0
LINE
  5
B6
330
1E
100
AcDbEntity
  8
0
100
AcDbLine
 10
35.1886
 20
90.8989
 30
0.0
 11
36.515
 21
88.37609999999999
 31
0.0
  0
LINE
  5
BA
330
1E
100
AcDbEntity
  8
0
100
AcDbLine
 10
39.7559545094905
 20
90.0163493309448
 30
0.0
 11
41.22549999999999
 21
85.9988
 31
0.0
  0
LINE
  5
BE
330
1E
100
AcDbEntity
  8
0
100
AcDbLine
 10
38.69239999999999
 20
101.6534999999999
 30
0.0
 11
40.8818
 21
105.7053
 31
0.0
  0
LINE
  5
C2
330
1E
100
AcDbEntity
  8
0
100
AcDbLine
 10
39.79979999999999
 20
96.4398
 30
0.0
 11
41.1211
 21
99.7808
 31
0.0
  0
LINE
  5
C4
330
1E
100
AcDbEntity
  8
0
100
AcDbLine
 10
41.1211
 20
99.7808
 30
0.0
 11
43.7291
 21
102.8859
 31
0.0
  0
LINE
  5
C5
330
1E
100
AcDbEntity
  8
0
100
AcDbLine
 10
40.8818
 20
105.7053
 30
0.0
 11
42.4152
 21
108.5429999999999
 31
0.0
  0
LINE
  5
C6
330
1E
100
AcDbEntity
  8
0
100
AcDbLine
 10
42.4152
 20
108.5429999999999
 30
0.0
 11
42.966
 21
109.5625
 31
0.0
  0
LINE
  5
C9
330
1E
100
AcDbEntity
  8
0
100
AcDbLine
 10
39.40862229860089
 20
93.77559106456528
 30
0.0
 11
39.79979999999999
 21
96.4398
 31
0.0
  0
LINE
  5
CA
330
1E
100
AcDbEntity
  8
0
100
AcDbLine
 10
39.2890263047212
 20
92.9610540538999
 30
0.0
 11
39.7559545094905
 21
90.0163493309448
 31
0.0
  0
LINE
  5
CB
330
1E
100
AcDbEntity
  8
0
100
AcDbLine
 10
39.2890263047212
 20
92.9610540538999
 30
0.0
 11
39.7559545094905
 21
90.0163493309448
 31
0.0
  0
LINE
  5
CC
330
1E
100
AcDbEntity
  8
0
100
AcDbLine
 10
39.2890263047212
 20
92.9610540538999
 30
0.0
 11
39.40862229860089
 21
93.77559106456541
 31
0.0
  0
LINE
  5
CD
330
1E
100
AcDbEntity
  8
0
100
AcDbLine
 10
36.515
 20
88.37609999999999
 30
0.0
 11
38.0420640461671
 21
85.55004264699411
 31
0.0
  0
LINE
  5
CE
330
1E
100
AcDbEntity
  8
0
100
AcDbLine
 10
36.515
 20
88.37609999999999
 30
0.0
 11
38.69239999999999
 21
84.34650000000001
 31
0.0
  0
LINE
  5
D1
330
1E
100
AcDbEntity
  8
0
100
AcDbLine
 10
43.4772
 20
76.0
 30
0.0
 11
44.55589999999999
 21
76.0
 31
0.0
  0
LINE
  5
D3
330
1E
100
AcDbEntity
  8
0
100
AcDbLine
 10
42.966
 20
76.4375
 30
0.0
 11
43.4772
 21
76.0
 31
0.0
  0
LINE
  5
D9
330
1E
100
AcDbEntity
  8
0
100
AcDbLine
 10
43.6248
 20
83.1151
 30
0.0
 11
46.6499
 21
81.0402
 31
0.0
  0
LINE
  5
DA
330
1E
100
AcDbEntity
  8
0
100
AcDbLine
 10
43.6248
 20
83.1151
 30
0.0
 11
43.6248
 21
83.1151
 31
0.0
  0
LINE
  5
DC
330
1E
100
AcDbEntity
  8
0
100
AcDbLine
 10
44.55589999999999
 20
76.0
 30
0.0
 11
48.3763
 21
76.0
 31
0.0
  0
LINE
  5
E1
330
1E
100
AcDbEntity
  8
0
100
AcDbLine
 10
43.4772
 20
110.0
 30
0.0
 11
44.55589999999999
 21
110.0
 31
0.0
  0
LINE
  5
E2
330
1E
100
AcDbEntity
  8
0
100
AcDbLine
 10
42.966
 20
109.5625
 30
0.0
 11
43.4772
 21
110.0
 31
0.0
  0
LINE
  5
E5
330
1E
100
AcDbEntity
  8
0
100
AcDbLine
 10
44.55589999999999
 20
110.0
 30
0.0
 11
48.3763
 21
110.0
 31
0.0
  0
LINE
  5
E6
330
1E
100
AcDbEntity
  8
0
100
AcDbLine
 10
43.7291
 20
102.8859
 30
0.0
 11
46.6847
 21
104.9606999999999
 31
0.0
  0
LINE
  5
E7
330
1E
100
AcDbEntity
  8
0
100
AcDbLine
 10
43.7291
 20
102.8859
 30
0.0
 11
46.6847
 21
104.9606999999999
 31
0.0
  0
LINE
  5
EA
330
1E
100
AcDbEntity
  8
0
100
AcDbLine
 10
34.5
 20
66.6
 30
0.0
 11
38.0420640461671
 21
85.55004264699411
 31
0.0
  0
LINE
  5
EB
330
1E
100
AcDbEntity
  8
0
100
AcDbLine
 10
34.5
 20
66.6
 30
0.0
 11
34.93199999999999
 21
66.0
 31
0.0
  0
LINE
  5
EC
330
1E
100
AcDbEntity
  8
0
100
AcDbLine
 10
34.5
 20
66.6
 30
0.0
 11
35.148
 21
66.6
 31
0.0
  0
LINE
  5
ED
330
1E
100
AcDbEntity
  8
0
100
AcDbLine
 10
6.0
 20
56.0
 30
0.0
 11
52.5
 21
56.0
 31
0.0
  0
LINE
  5
EE
330
1E
100
AcDbEntity
  8
0
100
AcDbLine
 10
38.6
 20
45.0
 30
0.0
 11
45.3
 21
45.0
 31
0.0
  0
LINE
  5
EF
330
1E
100
AcDbEntity
  8
0
100
AcDbLine
 10
38.6
 20
45.0
 30
0.0
 11
41.2
 21
45.0
 31
0.0
  0
LINE
  5
F0
330
1E
100
AcDbEntity
  8
0
100
AcDbLine
 10
49.9
 20
0.0
 30
0.0
 11
52.5
 21
0.0
 31
0.0
  0
LINE
  5
F1
330
1E
100
AcDbEntity
  8
0
100
AcDbLine
 10
45.4
 20
0.0000000000000041
 30
0.0
 11
47.5
 21
0.0000000000000042
 31
0.0
  0
LINE
  5
F2
330
1E
100
AcDbEntity
  8
0
100
AcDbLine
 10
45.4
 20
0.0000000000000002
 30
0.0
 11
47.5
 21
0.0000000000000001
 31
0.0
  0
LINE
  5
F3
330
1E
100
AcDbEntity
  8
0
100
AcDbLine
 10
45.4
 20
0.0000000000000002
 30
0.0
 11
47.5
 21
0.0000000000000001
 31
0.0
  0
LINE
  5
F4
330
1E
100
AcDbEntity
  8
0
100
AcDbLine
 10
47.5
 20
0.0000000000000001
 30
0.0
 11
49.9
 21
0.0
 31
0.0
  0
LINE
  5
F5
330
1E
100
AcDbEntity
  8
0
100
AcDbLine
 10
47.5
 20
0.0000000000000001
 30
0.0
 11
49.9
 21
0.0
 31
0.0
  0
LINE
  5
F6
330
1E
100
AcDbEntity
  8
0
100
AcDbLine
 10
55.1
 20
0.0
 30
0.0
 11
57.5
 21
0.0000000000000001
 31
0.0
  0
LINE
  5
F7
330
1E
100
AcDbEntity
  8
0
100
AcDbLine
 10
56.6
 20
45.0
 30
0.0
 11
60.5
 21
45.0
 31
0.0
  0
LINE
  5
F8
330
1E
100
AcDbEntity
  8
0
100
AcDbLine
 10
57.5
 20
0.0000000000000042
 30
0.0
 11
59.6
 21
0.0000000000000041
 31
0.0
  0
LINE
  5
F9
330
1E
100
AcDbEntity
  8
0
100
AcDbLine
 10
59.6
 20
0.0000000000000041
 30
0.0
 11
61.2
 21
0.0000000000000039
 31
0.0
  0
LINE
  5
FA
330
1E
100
AcDbEntity
  8
0
100
AcDbLine
 10
57.7
 20
0.500000000000004
 30
0.0
 11
60.0
 21
0.500000000000004
 31
0.0
  0
LINE
  5
FB
330
1E
100
AcDbEntity
  8
0
100
AcDbLine
 10
57.5
 20
0.0000000000000001
 30
0.0
 11
59.6
 21
0.0000000000000002
 31
0.0
  0
LINE
  5
FC
330
1E
100
AcDbEntity
  8
0
100
AcDbLine
 10
59.6
 20
0.0000000000000002
 30
0.0
 11
61.2
 21
0.0000000000000003
 31
0.0
  0
LINE
  5
FD
330
1E
100
AcDbEntity
  8
0
100
AcDbLine
 10
57.5
 20
0.0000000000000001
 30
0.0
 11
59.6
 21
0.0000000000000002
 31
0.0
  0
LINE
  5
FE
330
1E
100
AcDbEntity
  8
0
100
AcDbLine
 10
55.1
 20
0.0
 30
0.0
 11
57.5
 21
0.0000000000000001
 31
0.0
  0
LINE
  5
FF
330
1E
100
AcDbEntity
  8
0
100
AcDbLine
 10
52.5
 20
0.0
 30
0.0
 11
55.1
 21
0.0
 31
0.0
  0
LINE
  5
100
330
1E
100
AcDbEntity
  8
0
100
AcDbLine
 10
52.5
 20
0.0
 30
0.0
 11
55.1
 21
0.0
 31
0.0
  0
LINE
  5
101
330
1E
100
AcDbEntity
  8
0
100
AcDbLine
 10
60.0
 20
0.500000000000004
 30
0.0
 11
63.0
 21
0.500000000000001
 31
0.0
  0
LINE
  5
102
330
1E
100
AcDbEntity
  8
0
100
AcDbLine
 10
62.5
 20
0.0000000000000006
 30
0.0
 11
62.8
 21
0.200000000000001
 31
0.0
  0
LINE
  5
103
330
1E
100
AcDbEntity
  8
0
100
AcDbLine
 10
62.1
 20
0.0000000000000004
 30
0.0
 11
62.5
 21
0.0000000000000006
 31
0.0
  0
LINE
  5
104
330
1E
100
AcDbEntity
  8
0
100
AcDbLine
 10
61.2
 20
0.0000000000000003
 30
0.0
 11
62.1
 21
0.0000000000000004
 31
0.0
  0
LINE
  5
105
330
1E
100
AcDbEntity
  8
0
100
AcDbLine
 10
62.8
 20
0.200000000000001
 30
0.0
 11
63.0
 21
0.500000000000001
 31
0.0
  0
LINE
  5
106
330
1E
100
AcDbEntity
  8
0
100
AcDbLine
 10
63.0
 20
2.0
 30
0.0
 11
63.0
 21
0.500000000000004
 31
0.0
  0
LINE
  5
107
330
1E
100
AcDbEntity
  8
0
100
AcDbLine
 10
63.0
 20
2.0
 30
0.0
 11
63.0
 21
15.0
 31
0.0
  0
LINE
  5
108
330
1E
100
AcDbEntity
  8
0
100
AcDbLine
 10
63.0
 20
0.500000000000004
 30
0.0
 11
63.0
 21
2.0
 31
0.0
  0
LINE
  5
109
330
1E
100
AcDbEntity
  8
0
100
AcDbLine
 10
62.8
 20
0.200000000000001
 30
0.0
 11
63.0
 21
0.500000000000001
 31
0.0
  0
LINE
  5
10A
330
1E
100
AcDbEntity
  8
0
100
AcDbLine
 10
62.5
 20
0.0000000000000006
 30
0.0
 11
62.8
 21
0.200000000000001
 31
0.0
  0
LINE
  5
10B
330
1E
100
AcDbEntity
  8
0
100
AcDbLine
 10
60.5
 20
45.0
 30
0.0
 11
63.79999999999999
 21
45.0
 31
0.0
  0
LINE
  5
10C
330
1E
100
AcDbEntity
  8
0
100
AcDbLine
 10
63.0
 20
42.0
 30
0.0
 11
63.2
 21
42.8
 31
0.0
  0
LINE
  5
10D
330
1E
100
AcDbEntity
  8
0
100
AcDbLine
 10
63.0
 20
42.0
 30
0.0
 11
63.0
 21
41.5
 31
0.0
  0
LINE
  5
10E
330
1E
100
AcDbEntity
  8
0
100
AcDbLine
 10
63.2
 20
42.8
 30
0.0
 11
63.7
 21
43.79999999999999
 31
0.0
  0
LINE
  5
10F
330
1E
100
AcDbEntity
  8
0
100
AcDbLine
 10
63.7
 20
43.79999999999999
 30
0.0
 11
64.7
 21
44.59999999999999
 31
0.0
  0
LINE
  5
110
330
1E
100
AcDbEntity
  8
0
100
AcDbLine
 10
63.0
 20
41.5
 30
0.0
 11
63.0
 21
15.0
 31
0.0
  0
LINE
  5
111
330
1E
100
AcDbEntity
  8
0
100
AcDbLine
 10
63.0
 20
41.5
 30
0.0
 11
63.0
 21
42.0
 31
0.0
  0
LINE
  5
112
330
1E
100
AcDbEntity
  8
0
100
AcDbLine
 10
63.0
 20
15.0
 30
0.0
 11
63.0
 21
41.5
 31
0.0
  0
LINE
  5
113
330
1E
100
AcDbEntity
  8
0
100
AcDbLine
 10
63.0
 20
15.0
 30
0.0
 11
63.0
 21
2.0
 31
0.0
  0
LINE
  5
114
330
1E
100
AcDbEntity
  8
0
100
AcDbLine
 10
59.7
 20
45.0
 30
0.0
 11
66.4
 21
45.0
 31
0.0
  0
LINE
  5
115
330
1E
100
AcDbEntity
  8
0
100
AcDbLine
 10
52.5
 20
45.0
 30
0.0
 11
59.7
 21
45.0
 31
0.0
  0
LINE
  5
116
330
1E
100
AcDbEntity
  8
0
100
AcDbLine
 10
52.5
 20
45.0
 30
0.0
 11
56.6
 21
45.0
 31
0.0
  0
LINE
  5
117
330
1E
100
AcDbEntity
  8
0
100
AcDbLine
 10
64.7
 20
44.59999999999999
 30
0.0
 11
66.0
 21
45.0
 31
0.0
  0
LINE
  5
118
330
1E
100
AcDbEntity
  8
0
100
AcDbLine
 10
66.0
 20
45.0
 30
0.0
 11
66.6
 21
45.0
 31
0.0
  0
LINE
  5
119
330
1E
100
AcDbEntity
  8
0
100
AcDbLine
 10
66.0
 20
45.0
 30
0.0
 11
71.29999999999999
 21
45.0
 31
0.0
  0
LINE
  5
11A
330
1E
100
AcDbEntity
  8
0
100
AcDbLine
 10
66.6
 20
45.0
 30
0.0
 11
67.09999999999999
 21
45.0
 31
0.0
  0
LINE
  5
11B
330
1E
100
AcDbEntity
  8
0
100
AcDbLine
 10
66.0
 20
45.0
 30
0.0
 11
99.0
 21
45.0
 31
0.0
  0
LINE
  5
11C
330
1E
100
AcDbEntity
  8
0
100
AcDbLine
 10
63.79999999999999
 20
45.0
 30
0.0
 11
66.4
 21
45.0
 31
0.0
  0
LINE
  5
11D
330
1E
100
AcDbEntity
  8
0
100
AcDbLine
 10
66.4
 20
45.0
 30
0.0
 11
67.9
 21
45.0
 31
0.0
  0
LINE
  5
11E
330
1E
100
AcDbEntity
  8
0
100
AcDbLine
 10
66.4
 20
45.0
 30
0.0
 11
72.3
 21
45.0
 31
0.0
  0
LINE
  5
11F
330
1E
100
AcDbEntity
  8
0
100
AcDbLine
 10
71.29999999999999
 20
45.0
 30
0.0
 11
75.5
 21
45.0
 31
0.0
  0
LINE
  5
120
330
1E
100
AcDbEntity
  8
0
100
AcDbLine
 10
75.5
 20
45.0
 30
0.0
 11
78.09999999999999
 21
45.0
 31
0.0
  0
LINE
  5
121
330
1E
100
AcDbEntity
  8
0
100
AcDbLine
 10
67.9
 20
45.0
 30
0.0
 11
68.5
 21
45.0
 31
0.0
  0
LINE
  5
122
330
1E
100
AcDbEntity
  8
0
100
AcDbLine
 10
72.3
 20
45.0
 30
0.0
 11
76.79999999999999
 21
45.0
 31
0.0
  0
LINE
  5
123
330
1E
100
AcDbEntity
  8
0
100
AcDbLine
 10
104.0
 20
45.0
 30
0.0
 11
104.7
 21
45.3
 31
0.0
  0
LINE
  5
124
330
1E
100
AcDbEntity
  8
0
100
AcDbLine
 10
103.8
 20
45.0
 30
0.0
 11
104.0
 21
45.0
 31
0.0
  0
LINE
  5
125
330
1E
100
AcDbEntity
  8
0
100
AcDbLine
 10
103.2999999999999
 20
45.0
 30
0.0
 11
103.8
 21
45.0
 31
0.0
  0
LINE
  5
126
330
1E
100
AcDbEntity
  8
0
100
AcDbLine
 10
102.4999999999999
 20
45.0
 30
0.0
 11
103.2999999999999
 21
45.0
 31
0.0
  0
LINE
  5
127
330
1E
100
AcDbEntity
  8
0
100
AcDbLine
 10
101.5
 20
45.0
 30
0.0
 11
102.4999999999999
 21
45.0
 31
0.0
  0
LINE
  5
128
330
1E
100
AcDbEntity
  8
0
100
AcDbLine
 10
100.2999999999999
 20
45.0
 30
0.0
 11
101.5
 21
45.0
 31
0.0
  0
LINE
  5
129
330
1E
100
AcDbEntity
  8
0
100
AcDbLine
 10
78.09999999999999
 20
45.0
 30
0.0
 11
79.1
 21
45.0
 31
0.0
  0
LINE
  5
12A
330
1E
100
AcDbEntity
  8
0
100
AcDbLine
 10
99.0
 20
45.0
 30
0.0
 11
100.2999999999999
 21
45.0
 31
0.0
  0
LINE
  5
12B
330
1E
100
AcDbEntity
  8
0
100
AcDbLine
 10
76.79999999999999
 20
45.0
 30
0.0
 11
79.5
 21
45.0
 31
0.0
  0
LINE
  5
12C
330
1E
100
AcDbEntity
  8
0
100
AcDbLine
 10
79.5
 20
45.0
 30
0.0
 11
80.5
 21
45.0
 31
0.0
  0
LINE
  5
12D
330
1E
100
AcDbEntity
  8
0
100
AcDbLine
 10
49.9
 20
0.0
 30
0.0
 11
52.5
 21
0.0
 31
0.0
  0
LINE
  5
12E
330
1E
100
AcDbEntity
  8
0
100
AcDbLine
 10
45.556
 20
58.18
 30
0.0
 11
48.916
 21
58.18
 31
0.0
  0
LINE
  5
12F
330
1E
100
AcDbEntity
  8
0
100
AcDbLine
 10
45.556
 20
61.0
 30
0.0
 11
48.916
 21
61.0
 31
0.0
  0
LINE
  5
130
330
1E
100
AcDbEntity
  8
0
100
AcDbLine
 10
46.548
 20
56.18
 30
0.0
 11
49.428
 21
56.18
 31
0.0
  0
LINE
  5
131
330
1E
100
AcDbEntity
  8
0
100
AcDbLine
 10
46.548
 20
58.0
 30
0.0
 11
49.428
 21
58.0
 31
0.0
  0
LINE
  5
132
330
1E
100
AcDbEntity
  8
0
100
AcDbLine
 10
49.428
 20
56.18
 30
0.0
 11
52.5
 21
56.18
 31
0.0
  0
LINE
  5
133
330
1E
100
AcDbEntity
  8
0
100
AcDbLine
 10
49.428
 20
58.0
 30
0.0
 11
52.5
 21
58.0
 31
0.0
  0
LINE
  5
134
330
1E
100
AcDbEntity
  8
0
100
AcDbLine
 10
52.5
 20
56.18
 30
0.0
 11
55.57199999999999
 21
56.18
 31
0.0
  0
LINE
  5
135
330
1E
100
AcDbEntity
  8
0
100
AcDbLine
 10
52.5
 20
58.0
 30
0.0
 11
55.57199999999999
 21
58.0
 31
0.0
  0
LINE
  5
136
330
1E
100
AcDbEntity
  8
0
100
AcDbLine
 10
48.916
 20
58.18
 30
0.0
 11
52.5
 21
58.18
 31
0.0
  0
LINE
  5
137
330
1E
100
AcDbEntity
  8
0
100
AcDbLine
 10
48.916
 20
61.0
 30
0.0
 11
52.5
 21
61.0
 31
0.0
  0
LINE
  5
138
330
1E
100
AcDbEntity
  8
0
100
AcDbLine
 10
52.5
 20
58.18
 30
0.0
 11
56.08399999999999
 21
58.18
 31
0.0
  0
LINE
  5
139
330
1E
100
AcDbEntity
  8
0
100
AcDbLine
 10
48.468
 20
61.0
 30
0.0
 11
52.5
 21
61.0
 31
0.0
  0
LINE
  5
13A
330
1E
100
AcDbEntity
  8
0
100
AcDbLine
 10
48.40399999999999
 20
61.29999999999999
 30
0.0
 11
52.5
 21
61.29999999999999
 31
0.0
  0
LINE
  5
13B
330
1E
100
AcDbEntity
  8
0
100
AcDbLine
 10
52.5
 20
61.0
 30
0.0
 11
56.532
 21
61.0
 31
0.0
  0
LINE
  5
13C
330
1E
100
AcDbEntity
  8
0
100
AcDbLine
 10
52.5
 20
61.0
 30
0.0
 11
56.08399999999999
 21
61.0
 31
0.0
  0
LINE
  5
13D
330
1E
100
AcDbEntity
  8
0
100
AcDbLine
 10
48.40399999999999
 20
66.0
 30
0.0
 11
52.5
 21
66.0
 31
0.0
  0
LINE
  5
13E
330
1E
100
AcDbEntity
  8
0
100
AcDbLine
 10
52.5
 20
61.29999999999999
 30
0.0
 11
56.59600000000001
 21
61.29999999999999
 31
0.0
  0
LINE
  5
13F
330
1E
100
AcDbEntity
  8
0
100
AcDbLine
 10
52.5
 20
66.0
 30
0.0
 11
57.036
 21
66.0
 31
0.0
  0
LINE
  5
140
330
1E
100
AcDbEntity
  8
0
100
AcDbLine
 10
52.5
 20
66.0
 30
0.0
 11
56.59600000000001
 21
66.0
 31
0.0
  0
LINE
  5
141
330
1E
100
AcDbEntity
  8
0
100
AcDbLine
 10
52.5
 20
66.6
 30
0.0
 11
57.108
 21
66.6
 31
0.0
  0
LINE
  5
142
330
1E
100
AcDbEntity
  8
0
100
AcDbLine
 10
47.964
 20
66.0
 30
0.0
 11
52.5
 21
66.0
 31
0.0
  0
LINE
  5
143
330
1E
100
AcDbEntity
  8
0
100
AcDbLine
 10
46.6847
 20
104.9606999999999
 30
0.0
 11
49.6055
 21
105.9454
 31
0.0
  0
LINE
  5
144
330
1E
100
AcDbEntity
  8
0
100
AcDbLine
 10
46.6499
 20
81.0402
 30
0.0
 11
49.6055
 21
79.9817
 31
0.0
  0
LINE
  5
145
330
1E
100
AcDbEntity
  8
0
100
AcDbLine
 10
48.3763
 20
76.0
 30
0.0
 11
52.5
 21
76.0
 31
0.0
  0
LINE
  5
146
330
1E
100
AcDbEntity
  8
0
100
AcDbLine
 10
48.3763
 20
110.0
 30
0.0
 11
52.5
 21
110.0
 31
0.0
  0
LINE
  5
147
330
1E
100
AcDbEntity
  8
0
100
AcDbLine
 10
46.6847
 20
104.9606999999999
 30
0.0
 11
49.5878036591861
 21
105.9394339678169
 31
0.0
  0
LINE
  5
149
330
1E
100
AcDbEntity
  8
0
100
AcDbLine
 10
49.6055
 20
79.9817
 30
0.0
 11
52.54319999999999
 21
79.7004
 31
0.0
  0
LINE
  5
154
330
1E
100
AcDbEntity
  8
0
100
AcDbLine
 10
49.6055
 20
105.9454
 30
0.0
 11
52.6306
 21
106.3322
 31
0.0
  0
LINE
  5
158
330
1E
100
AcDbEntity
  8
0
100
AcDbLine
 10
47.892
 20
66.6
 30
0.0
 11
52.5
 21
66.6
 31
0.0
  0
LINE
  5
15A
330
1E
100
AcDbEntity
  8
0
100
AcDbLine
 10
52.5
 20
45.3
 30
0.0
 11
99.0
 21
45.3
 31
0.0
  0
LINE
  5
15B
330
1E
100
AcDbEntity
  8
0
100
AcDbLine
 10
100.5
 20
45.3
 30
0.0
 11
101.8
 21
45.3
 31
0.0
  0
LINE
  5
15C
330
1E
100
AcDbEntity
  8
0
100
AcDbLine
 10
64.212
 20
56.0
 30
0.0
 11
64.5
 21
56.18
 31
0.0
  0
LINE
  5
15D
330
1E
100
AcDbEntity
  8
0
100
AcDbLine
 10
99.0
 20
45.3
 30
0.0
 11
100.5
 21
45.3
 31
0.0
  0
LINE
  5
15E
330
1E
100
AcDbEntity
  8
0
100
AcDbLine
 10
103.0
 20
45.3
 30
0.0
 11
103.9
 21
45.3
 31
0.0
  0
LINE
  5
15F
330
1E
100
AcDbEntity
  8
0
100
AcDbLine
 10
101.8
 20
45.3
 30
0.0
 11
103.0
 21
45.3
 31
0.0
  0
LINE
  5
160
330
1E
100
AcDbEntity
  8
0
100
AcDbLine
 10
103.9
 20
45.3
 30
0.0
 11
104.4999999999999
 21
45.3
 31
0.0
  0
LINE
  5
161
330
1E
100
AcDbEntity
  8
0
100
AcDbLine
 10
104.4999999999999
 20
45.3
 30
0.0
 11
104.7
 21
45.3
 31
0.0
  0
LINE
  5
162
330
1E
100
AcDbEntity
  8
0
100
AcDbLine
 10
104.7
 20
45.3
 30
0.0
 11
105.0
 21
46.0
 31
0.0
  0
LINE
  5
163
330
1E
100
AcDbEntity
  8
0
100
AcDbLine
 10
105.0
 20
46.0
 30
0.0
 11
105.0
 21
56.0
 31
0.0
  0
LINE
  5
164
330
1E
100
AcDbEntity
  8
0
100
AcDbLine
 10
105.0
 20
56.0
 30
0.0
 11
105.0
 21
46.0
 31
0.0
  0
LINE
  5
165
330
1E
100
AcDbEntity
  8
0
100
AcDbLine
 10
104.8
 20
56.0
 30
0.0
 11
105.0
 21
56.0
 31
0.0
  0
LINE
  5
166
330
1E
100
AcDbEntity
  8
0
100
AcDbLine
 10
104.2
 20
56.0
 30
0.0
 11
104.8
 21
56.0
 31
0.0
  0
LINE
  5
167
330
1E
100
AcDbEntity
  8
0
100
AcDbLine
 10
103.2
 20
56.0
 30
0.0
 11
104.2
 21
56.0
 31
0.0
  0
LINE
  5
168
330
1E
100
AcDbEntity
  8
0
100
AcDbLine
 10
102.0
 20
56.0
 30
0.0
 11
103.2
 21
56.0
 31
0.0
  0
LINE
  5
169
330
1E
100
AcDbEntity
  8
0
100
AcDbLine
 10
100.5
 20
56.0
 30
0.0
 11
102.0
 21
56.0
 31
0.0
  0
LINE
  5
16A
330
1E
100
AcDbEntity
  8
0
100
AcDbLine
 10
55.57199999999999
 20
56.18
 30
0.0
 11
58.452
 21
56.18
 31
0.0
  0
LINE
  5
16B
330
1E
100
AcDbEntity
  8
0
100
AcDbLine
 10
55.57199999999999
 20
58.0
 30
0.0
 11
58.452
 21
58.0
 31
0.0
  0
LINE
  5
16C
330
1E
100
AcDbEntity
  8
0
100
AcDbLine
 10
56.08399999999999
 20
58.18
 30
0.0
 11
59.44399999999999
 21
58.18
 31
0.0
  0
LINE
  5
16D
330
1E
100
AcDbEntity
  8
0
100
AcDbLine
 10
56.08399999999999
 20
61.0
 30
0.0
 11
59.44399999999999
 21
61.0
 31
0.0
  0
LINE
  5
16E
330
1E
100
AcDbEntity
  8
0
100
AcDbLine
 10
56.532
 20
61.0
 30
0.0
 11
60.24399999999999
 21
61.0
 31
0.0
  0
LINE
  5
16F
330
1E
100
AcDbEntity
  8
0
100
AcDbLine
 10
56.59600000000001
 20
61.29999999999999
 30
0.0
 11
60.43600000000001
 21
61.29999999999999
 31
0.0
  0
LINE
  5
170
330
1E
100
AcDbEntity
  8
0
100
AcDbLine
 10
58.452
 20
56.18
 30
0.0
 11
60.996
 21
56.18
 31
0.0
  0
LINE
  5
171
330
1E
100
AcDbEntity
  8
0
100
AcDbLine
 10
58.452
 20
58.0
 30
0.0
 11
60.996
 21
58.0
 31
0.0
  0
LINE
  5
172
330
1E
100
AcDbEntity
  8
0
100
AcDbLine
 10
59.44399999999999
 20
58.18
 30
0.0
 11
62.412
 21
58.18
 31
0.0
  0
LINE
  5
173
330
1E
100
AcDbEntity
  8
0
100
AcDbLine
 10
59.44399999999999
 20
61.0
 30
0.0
 11
62.412
 21
61.0
 31
0.0
  0
LINE
  5
174
330
1E
100
AcDbEntity
  8
0
100
AcDbLine
 10
60.24399999999999
 20
61.0
 30
0.0
 11
63.508
 21
61.0
 31
0.0
  0
LINE
  5
175
330
1E
100
AcDbEntity
  8
0
100
AcDbLine
 10
60.996
 20
58.0
 30
0.0
 11
62.916
 21
58.0
 31
0.0
  0
LINE
  5
176
330
1E
100
AcDbEntity
  8
0
100
AcDbLine
 10
60.996
 20
56.18
 30
0.0
 11
62.916
 21
56.18
 31
0.0
  0
LINE
  5
177
330
1E
100
AcDbEntity
  8
0
100
AcDbLine
 10
60.43600000000001
 20
61.29999999999999
 30
0.0
 11
63.828
 21
61.29999999999999
 31
0.0
  0
LINE
  5
178
330
1E
100
AcDbEntity
  8
0
100
AcDbLine
 10
60.43600000000001
 20
66.0
 30
0.0
 11
63.828
 21
66.0
 31
0.0
  0
LINE
  5
179
330
1E
100
AcDbEntity
  8
0
100
AcDbLine
 10
56.59600000000001
 20
66.0
 30
0.0
 11
60.43600000000001
 21
66.0
 31
0.0
  0
LINE
  5
17A
330
1E
100
AcDbEntity
  8
0
100
AcDbLine
 10
57.036
 20
66.0
 30
0.0
 11
61.21199999999999
 21
66.0
 31
0.0
  0
LINE
  5
17B
330
1E
100
AcDbEntity
  8
0
100
AcDbLine
 10
61.21199999999999
 20
66.0
 30
0.0
 11
64.884
 21
66.0
 31
0.0
  0
LINE
  5
17C
330
1E
100
AcDbEntity
  8
0
100
AcDbLine
 10
57.108
 20
66.6
 30
0.0
 11
61.42800000000001
 21
66.6
 31
0.0
  0
LINE
  5
17D
330
1E
100
AcDbEntity
  8
0
100
AcDbLine
 10
64.068
 20
56.18
 30
0.0
 11
64.5
 21
56.18
 31
0.0
  0
LINE
  5
17E
330
1E
100
AcDbEntity
  8
0
100
AcDbLine
 10
62.916
 20
56.18
 30
0.0
 11
64.068
 21
56.18
 31
0.0
  0
LINE
  5
17F
330
1E
100
AcDbEntity
  8
0
100
AcDbLine
 10
64.068
 20
58.0
 30
0.0
 11
64.5
 21
58.0
 31
0.0
  0
LINE
  5
180
330
1E
100
AcDbEntity
  8
0
100
AcDbLine
 10
62.916
 20
58.0
 30
0.0
 11
64.068
 21
58.0
 31
0.0
  0
LINE
  5
181
330
1E
100
AcDbEntity
  8
0
100
AcDbLine
 10
64.5
 20
56.18
 30
0.0
 11
64.5
 21
58.0
 31
0.0
  0
LINE
  5
182
330
1E
100
AcDbEntity
  8
0
100
AcDbLine
 10
65.65999999999999
 20
58.0
 30
0.0
 11
66.164
 21
58.0
 31
0.0
  0
LINE
  5
183
330
1E
100
AcDbEntity
  8
0
100
AcDbLine
 10
62.412
 20
61.0
 30
0.0
 11
64.652
 21
61.0
 31
0.0
  0
LINE
  5
184
330
1E
100
AcDbEntity
  8
0
100
AcDbLine
 10
65.99600000000001
 20
58.18
 30
0.0
 11
66.5
 21
58.18
 31
0.0
  0
LINE
  5
185
330
1E
100
AcDbEntity
  8
0
100
AcDbLine
 10
65.99600000000001
 20
61.0
 30
0.0
 11
66.5
 21
61.0
 31
0.0
  0
LINE
  5
186
330
1E
100
AcDbEntity
  8
0
100
AcDbLine
 10
64.652
 20
61.0
 30
0.0
 11
65.99600000000001
 21
61.0
 31
0.0
  0
LINE
  5
187
330
1E
100
AcDbEntity
  8
0
100
AcDbLine
 10
64.652
 20
58.18
 30
0.0
 11
65.99600000000001
 21
58.18
 31
0.0
  0
LINE
  5
188
330
1E
100
AcDbEntity
  8
0
100
AcDbLine
 10
62.412
 20
58.18
 30
0.0
 11
64.652
 21
58.18
 31
0.0
  0
LINE
  5
189
330
1E
100
AcDbEntity
  8
0
100
AcDbLine
 10
64.5
 20
58.0
 30
0.0
 11
65.65999999999999
 21
58.0
 31
0.0
  0
LINE
  5
18A
330
1E
100
AcDbEntity
  8
0
100
AcDbLine
 10
64.5
 20
58.0
 30
0.0
 11
64.5
 21
56.18
 31
0.0
  0
LINE
  5
18B
330
1E
100
AcDbEntity
  8
0
100
AcDbLine
 10
66.164
 20
58.0
 30
0.0
 11
66.5
 21
58.18
 31
0.0
  0
LINE
  5
18C
330
1E
100
AcDbEntity
  8
0
100
AcDbLine
 10
66.00399999999999
 20
61.0
 30
0.0
 11
67.54000000000001
 21
61.0
 31
0.0
  0
LINE
  5
18D
330
1E
100
AcDbEntity
  8
0
100
AcDbLine
 10
63.508
 20
61.0
 30
0.0
 11
66.00399999999999
 21
61.0
 31
0.0
  0
LINE
  5
18E
330
1E
100
AcDbEntity
  8
0
100
AcDbLine
 10
66.5
 20
58.18
 30
0.0
 11
66.5
 21
61.0
 31
0.0
  0
LINE
  5
18F
330
1E
100
AcDbEntity
  8
0
100
AcDbLine
 10
66.388
 20
61.29999999999999
 30
0.0
 11
67.92399999999999
 21
61.29999999999999
 31
0.0
  0
LINE
  5
190
330
1E
100
AcDbEntity
  8
0
100
AcDbLine
 10
66.388
 20
66.0
 30
0.0
 11
67.92399999999999
 21
66.0
 31
0.0
  0
LINE
  5
191
330
1E
100
AcDbEntity
  8
0
100
AcDbLine
 10
63.828
 20
66.0
 30
0.0
 11
66.388
 21
66.0
 31
0.0
  0
LINE
  5
192
330
1E
100
AcDbEntity
  8
0
100
AcDbLine
 10
63.828
 20
61.29999999999999
 30
0.0
 11
66.388
 21
61.29999999999999
 31
0.0
  0
LINE
  5
193
330
1E
100
AcDbEntity
  8
0
100
AcDbLine
 10
66.5
 20
61.0
 30
0.0
 11
67.54000000000001
 21
61.0
 31
0.0
  0
LINE
  5
194
330
1E
100
AcDbEntity
  8
0
100
AcDbLine
 10
66.5
 20
61.0
 30
0.0
 11
66.5
 21
58.18
 31
0.0
  0
LINE
  5
195
330
1E
100
AcDbEntity
  8
0
100
AcDbLine
 10
64.884
 20
66.0
 30
0.0
 11
67.69199999999999
 21
66.0
 31
0.0
  0
LINE
  5
196
330
1E
100
AcDbEntity
  8
0
100
AcDbLine
 10
61.42800000000001
 20
66.6
 30
0.0
 11
65.24399999999999
 21
66.6
 31
0.0
  0
LINE
  5
1DA
330
1E
100
AcDbEntity
  8
0
100
AcDbLine
 10
65.24399999999999
 20
66.6
 30
0.0
 11
68.124
 21
66.6
 31
0.0
  0
LINE
  5
1DB
330
1E
100
AcDbEntity
  8
0
100
AcDbLine
 10
67.54000000000001
 20
61.0
 30
0.0
 11
68.116
 21
61.0
 31
0.0
  0
LINE
  5
1DC
330
1E
100
AcDbEntity
  8
0
100
AcDbLine
 10
67.92399999999999
 20
61.29999999999999
 30
0.0
 11
68.5
 21
61.29999999999999
 31
0.0
  0
LINE
  5
1DD
330
1E
100
AcDbEntity
  8
0
100
AcDbLine
 10
68.116
 20
61.0
 30
0.0
 11
68.5
 21
61.29999999999999
 31
0.0
  0
LINE
  5
1DE
330
1E
100
AcDbEntity
  8
0
100
AcDbLine
 10
67.92399999999999
 20
66.0
 30
0.0
 11
68.5
 21
66.0
 31
0.0
  0
LINE
  5
1DF
330
1E
100
AcDbEntity
  8
0
100
AcDbLine
 10
68.5
 20
61.29999999999999
 30
0.0
 11
68.5
 21
66.0
 31
0.0
  0
LINE
  5
1E0
330
1E
100
AcDbEntity
  8
0
100
AcDbLine
 10
67.69199999999999
 20
66.0
 30
0.0
 11
69.42
 21
66.0
 31
0.0
  0
LINE
  5
1E1
330
1E
100
AcDbEntity
  8
0
100
AcDbLine
 10
68.5
 20
66.0
 30
0.0
 11
69.42
 21
66.0
 31
0.0
  0
LINE
  5
1E2
330
1E
100
AcDbEntity
  8
0
100
AcDbLine
 10
68.5
 20
66.0
 30
0.0
 11
68.5
 21
61.29999999999999
 31
0.0
  0
LINE
  5
1E3
330
1E
100
AcDbEntity
  8
0
100
AcDbLine
 10
70.068
 20
66.0
 30
0.0
 11
70.5
 21
66.6
 31
0.0
  0
LINE
  5
1FB
330
1E
100
AcDbEntity
  8
0
100
AcDbLine
 10
68.124
 20
66.6
 30
0.0
 11
69.852
 21
66.6
 31
0.0
  0
LINE
  5
1FE
330
1E
100
AcDbEntity
  8
0
100
AcDbLine
 10
69.852
 20
66.6
 30
0.0
 11
70.5
 21
66.6
 31
0.0
  0
LINE
  5
1FF
330
1E
100
AcDbEntity
  8
0
100
AcDbLine
 10
69.42
 20
66.0
 30
0.0
 11
70.068
 21
66.0
 31
0.0
  0
LINE
  5
202
330
1E
100
AcDbEntity
  8
0
100
AcDbLine
 10
99.0
 20
56.0
 30
0.0
 11
100.5
 21
56.0
 31
0.0
  0
LINE
  5
203
330
1E
100
AcDbEntity
  8
0
100
AcDbLine
 10
52.5
 20
56.0
 30
0.0
 11
99.0
 21
56.0
 31
0.0
  0
LINE
  5
204
330
1E
100
AcDbEntity
  8
0
100
AcDbLine
 10
48.39999999999999
 20
45.0
 30
0.0
 11
52.5
 21
45.0
 31
0.0
  0
LINE
  5
205
330
1E
100
AcDbEntity
  8
0
100
AcDbLine
 10
45.3
 20
45.0
 30
0.0
 11
52.5
 21
45.0
 31
0.0
  0
LINE
  5
20A
330
1E
100
AcDbEntity
  8
0
100
AcDbLine
 10
55.3945
 20
105.9454
 30
0.0
 11
52.6306
 21
106.3322
 31
0.0
  0
LINE
  5
20B
330
1E
100
AcDbEntity
  8
0
100
AcDbLine
 10
65.24404549050951
 20
90.0163493309448
 30
0.0
 11
63.7745
 21
85.9988
 31
0.0
  0
LINE
  5
20C
330
1E
100
AcDbEntity
  8
0
100
AcDbLine
 10
69.81139999999999
 20
90.8989
 30
0.0
 11
68.485
 21
88.37609999999999
 31
0.0
  0
LINE
  5
20D
330
1E
100
AcDbEntity
  8
0
100
AcDbLine
 10
69.81139999999999
 20
90.8989
 30
0.0
 11
68.485
 21
88.37609999999999
 31
0.0
  0
LINE
  5
20E
330
1E
100
AcDbEntity
  8
0
100
AcDbLine
 10
70.5
 20
66.6
 30
0.0
 11
66.9579359538329
 21
85.55004264699411
 31
0.0
  0
LINE
  5
20F
330
1E
100
AcDbEntity
  8
0
100
AcDbLine
 10
61.3752
 20
83.1151
 30
0.0
 11
58.3501
 21
81.0402
 31
0.0
  0
LINE
  5
210
330
1E
100
AcDbEntity
  8
0
100
AcDbLine
 10
61.5228
 20
76.0
 30
0.0
 11
60.4441
 21
76.0
 31
0.0
  0
LINE
  5
211
330
1E
100
AcDbEntity
  8
0
100
AcDbLine
 10
66.30760000000001
 20
84.34650000000001
 30
0.0
 11
64.1182
 21
80.29470000000001
 31
0.0
  0
LINE
  5
212
330
1E
100
AcDbEntity
  8
0
100
AcDbLine
 10
62.5848
 20
77.45709999999999
 30
0.0
 11
62.034
 21
76.4375
 31
0.0
  0
LINE
  5
213
330
1E
100
AcDbEntity
  8
0
100
AcDbLine
 10
62.034
 20
76.4375
 30
0.0
 11
61.5228
 21
76.0
 31
0.0
  0
LINE
  5
214
330
1E
100
AcDbEntity
  8
0
100
AcDbLine
 10
64.1182
 20
80.29470000000001
 30
0.0
 11
62.5848
 21
77.45709999999999
 31
0.0
  0
LINE
  5
215
330
1E
100
AcDbEntity
  8
0
100
AcDbLine
 10
68.485
 20
88.37609999999999
 30
0.0
 11
66.30760000000001
 21
84.34650000000001
 31
0.0
  0
LINE
  5
216
330
1E
100
AcDbEntity
  8
0
100
AcDbLine
 10
68.485
 20
88.37609999999999
 30
0.0
 11
66.9579359538329
 21
85.55004264699411
 31
0.0
  0
LINE
  5
217
330
1E
100
AcDbEntity
  8
0
100
AcDbLine
 10
63.7745
 20
85.9988
 30
0.0
 11
61.3752
 21
83.1151
 31
0.0
  0
LINE
  5
218
330
1E
100
AcDbEntity
  8
0
100
AcDbLine
 10
61.3752
 20
83.1151
 30
0.0
 11
61.3752
 21
83.1151
 31
0.0
  0
LINE
  5
219
330
1E
100
AcDbEntity
  8
0
100
AcDbLine
 10
58.3501
 20
81.0402
 30
0.0
 11
55.3945
 21
79.9817
 31
0.0
  0
LINE
  5
21A
330
1E
100
AcDbEntity
  8
0
100
AcDbLine
 10
56.6237
 20
76.0
 30
0.0
 11
52.5
 21
76.0
 31
0.0
  0
LINE
  5
21B
330
1E
100
AcDbEntity
  8
0
100
AcDbLine
 10
60.4441
 20
76.0
 30
0.0
 11
56.6237
 21
76.0
 31
0.0
  0
LINE
  5
21C
330
1E
100
AcDbEntity
  8
0
100
AcDbLine
 10
55.3945
 20
79.9817
 30
0.0
 11
52.54319999999999
 21
79.7004
 31
0.0
  0
LINE
  5
21D
330
1E
100
AcDbEntity
  8
0
100
AcDbLine
 10
69.81139999999999
 20
95.1011
 30
0.0
 11
68.485
 21
97.62390000000001
 31
0.0
  0
LINE
  5
21E
330
1E
100
AcDbEntity
  8
0
100
AcDbLine
 10
70.5
 20
93.0
 30
0.0
 11
70.37389999999999
 21
93.98279999999999
 31
0.0
  0
LINE
  5
21F
330
1E
100
AcDbEntity
  8
0
100
AcDbLine
 10
70.37389999999999
 20
92.01719999999999
 30
0.0
 11
69.81139999999999
 21
90.8989
 31
0.0
  0
LINE
  5
220
330
1E
100
AcDbEntity
  8
0
100
AcDbLine
 10
70.37389999999999
 20
92.01719999999999
 30
0.0
 11
69.81139999999999
 21
90.8989
 31
0.0
  0
LINE
  5
221
330
1E
100
AcDbEntity
  8
0
100
AcDbLine
 10
70.5
 20
93.0
 30
0.0
 11
70.37389999999999
 21
92.01719999999999
 31
0.0
  0
LINE
  5
222
330
1E
100
AcDbEntity
  8
0
100
AcDbLine
 10
70.37389999999999
 20
93.98279999999999
 30
0.0
 11
69.81139999999999
 21
95.1011
 31
0.0
  0
LINE
  5
223
330
1E
100
AcDbEntity
  8
0
100
AcDbLine
 10
64.1182
 20
105.7053
 30
0.0
 11
62.5848
 21
108.5429999999999
 31
0.0
  0
LINE
  5
224
330
1E
100
AcDbEntity
  8
0
100
AcDbLine
 10
61.27089999999999
 20
102.8859
 30
0.0
 11
58.3153
 21
104.9606999999999
 31
0.0
  0
LINE
  5
225
330
1E
100
AcDbEntity
  8
0
100
AcDbLine
 10
61.27089999999999
 20
102.8859
 30
0.0
 11
58.3153
 21
104.9606999999999
 31
0.0
  0
LINE
  5
226
330
1E
100
AcDbEntity
  8
0
100
AcDbLine
 10
65.20019999999999
 20
96.4398
 30
0.0
 11
63.8789
 21
99.7808
 31
0.0
  0
LINE
  5
227
330
1E
100
AcDbEntity
  8
0
100
AcDbLine
 10
68.485
 20
97.62390000000001
 30
0.0
 11
66.30760000000001
 21
101.6534999999999
 31
0.0
  0
LINE
  5
228
330
1E
100
AcDbEntity
  8
0
100
AcDbLine
 10
65.7109736952788
 20
92.9610540538999
 30
0.0
 11
65.59137770139909
 21
93.77559106456541
 31
0.0
  0
LINE
  5
229
330
1E
100
AcDbEntity
  8
0
100
AcDbLine
 10
65.7109736952788
 20
92.9610540538999
 30
0.0
 11
65.24404549050951
 21
90.0163493309448
 31
0.0
  0
LINE
  5
22A
330
1E
100
AcDbEntity
  8
0
100
AcDbLine
 10
65.7109736952788
 20
92.9610540538999
 30
0.0
 11
65.24404549050951
 21
90.0163493309448
 31
0.0
  0
LINE
  5
22B
330
1E
100
AcDbEntity
  8
0
100
AcDbLine
 10
65.59137770139909
 20
93.77559106456528
 30
0.0
 11
65.20019999999999
 21
96.4398
 31
0.0
  0
LINE
  5
22C
330
1E
100
AcDbEntity
  8
0
100
AcDbLine
 10
66.30760000000001
 20
101.6534999999999
 30
0.0
 11
64.1182
 21
105.7053
 31
0.0
  0
LINE
  5
22D
330
1E
100
AcDbEntity
  8
0
100
AcDbLine
 10
63.8789
 20
99.7808
 30
0.0
 11
61.27089999999999
 21
102.8859
 31
0.0
  0
LINE
  5
22E
330
1E
100
AcDbEntity
  8
0
100
AcDbLine
 10
58.3153
 20
104.9606999999999
 30
0.0
 11
55.41219634081389
 21
105.9394339678169
 31
0.0
  0
LINE
  5
22F
330
1E
100
AcDbEntity
  8
0
100
AcDbLine
 10
58.3153
 20
104.9606999999999
 30
0.0
 11
55.3945
 21
105.9454
 31
0.0
  0
LINE
  5
230
330
1E
100
AcDbEntity
  8
0
100
AcDbLine
 10
61.5228
 20
110.0
 30
0.0
 11
60.4441
 21
110.0
 31
0.0
  0
LINE
  5
231
330
1E
100
AcDbEntity
  8
0
100
AcDbLine
 10
62.5848
 20
108.5429999999999
 30
0.0
 11
62.034
 21
109.5625
 31
0.0
  0
LINE
  5
232
330
1E
100
AcDbEntity
  8
0
100
AcDbLine
 10
62.034
 20
109.5625
 30
0.0
 11
61.5228
 21
110.0
 31
0.0
  0
LINE
  5
233
330
1E
100
AcDbEntity
  8
0
100
AcDbLine
 10
56.6237
 20
110.0
 30
0.0
 11
52.5
 21
110.0
 31
0.0
  0
LINE
  5
234
330
1E
100
AcDbEntity
  8
0
100
AcDbLine
 10
60.4441
 20
110.0
 30
0.0
 11
56.6237
 21
110.0
 31
0.0
  0
LINE
  5
235
330
1E
100
AcDbEntity
  8
0
100
AcDbLine
 10
42.0
 20
0.500000000000004
 30
0.0
 11
42.2
 21
0.200000000000001
 31
0.0
  0
ENDSEC
  0
SECTION
  2
OBJECTS
  0
DICTIONARY
  5
C
330
0
100
AcDbDictionary
281
     1
  3
ACAD_GROUP
350
D
  3
ACAD_LAYOUT
350
19
  3
ACAD_MLINESTYLE
350
16
  3
ACAD_PLOTSETTINGS
350
18
  3
ACAD_PLOTSTYLENAME
350
E
  3
AcDbVariableDictionary
350
236
  0
DICTIONARY
  5
D
102
{ACAD_REACTORS
330
C
102
}
330
C
100
AcDbDictionary
281
     1
  0
DICTIONARY
  5
19
102
{ACAD_REACTORS
330
C
102
}
330
C
100
AcDbDictionary
281
     1
  3
Layout1
350
1D
  3
Model
350
21
  0
DICTIONARY
  5
16
102
{ACAD_REACTORS
330
C
102
}
330
C
100
AcDbDictionary
281
     1
  3
Standard
350
17
  0
DICTIONARY
  5
18
102
{ACAD_REACTORS
330
C
102
}
330
C
100
AcDbDictionary
281
     1
  0
ACDBDICTIONARYWDFLT
  5
E
102
{ACAD_REACTORS
330
C
102
}
330
C
100
AcDbDictionary
281
     1
  3
Normal
350
F
100
AcDbDictionaryWithDefault
340
F
  0
DICTIONARY
  5
236
102
{ACAD_REACTORS
330
C
102
}
330
C
100
AcDbDictionary
281
     1
  3
DIMASSOC
350
237
  0
LAYOUT
  5
1D
102
{ACAD_REACTORS
330
19
102
}
330
19
100
AcDbPlotSettings
  1

  2
hp deskjet 980c series
  4

  6

 40
0.0
 41
0.0
 42
0.0
 43
0.0
 44
0.0
 45
0.0
 46
0.0
 47
0.0
 48
0.0
 49
0.0
140
0.0
141
0.0
142
1.0
143
1.0
 70
   688
 72
     0
 73
     0
 74
     5
  7

 75
    16
147
1.0
148
0.0
149
0.0
100
AcDbLayout
  1
Layout1
 70
     1
 71
     1
 10
0.0
 20
0.0
 11
12.0
 21
9.0
 12
0.0
 22
0.0
 32
0.0
 14
1.000000000000000E+20
 24
1.000000000000000E+20
 34
1.000000000000000E+20
 15
-1.000000000000000E+20
 25
-1.000000000000000E+20
 35
-1.000000000000000E+20
146
0.0
 13
0.0
 23
0.0
 33
0.0
 16
1.0
 26
0.0
 36
0.0
 17
0.0
 27
1.0
 37
0.0
 76
     0
330
1A
  0
LAYOUT
  5
21
102
{ACAD_REACTORS
330
19
102
}
330
19
100
AcDbPlotSettings
  1

  2
hp deskjet 980c series
  4

  6

 40
0.0
 41
0.0
 42
0.0
 43
0.0
 44
0.0
 45
0.0
 46
0.0
 47
0.0
 48
0.0
 49
0.0
140
0.0
141
0.0
142
1.0
143
1.0
 70
  1712
 72
     0
 73
     0
 74
     0
  7

 75
     0
147
1.0
148
0.0
149
0.0
100
AcDbLayout
  1
Model
 70
     1
 71
     0
 10
0.0
 20
0.0
 11
12.0
 21
9.0
 12
0.0
 22
0.0
 32
0.0
 14
0.0
 24
0.0
 34
0.0
 15
0.0
 25
0.0
 35
0.0
146
0.0
 13
0.0
 23
0.0
 33
0.0
 16
1.0
 26
0.0
 36
0.0
 17
0.0
 27
1.0
 37
0.0
 76
     0
330
1E
  0
MLINESTYLE
  5
17
102
{ACAD_REACTORS
330
16
102
}
330
16
100
AcDbMlineStyle
  2
STANDARD
 70
     0
  3

 62
   256
 51
90.0
 52
90.0
 71
     2
 49
0.5
 62
   256
  6
BYLAYER
 49
-0.5
 62
   256
  6
BYLAYER
  0
ACDBPLACEHOLDER
  5
F
102
{ACAD_REACTORS
330
E
102
}
330
E
  0
DICTIONARYVAR
  5
237
102
{ACAD_REACTORS
330
236
102
}
330
236
100
DictionaryVariables
280
     0
  1
1
  0
ENDSEC
  0
EOF
