  0
SECTION
  2
HEADER
  9
$ACADVER
  1
AC1009
  9
$INSBASE
 10
0.0
 20
0.0
 30
0.0
  9
$EXTMIN
 10
-0.0000000000000047
 20
0.0000000000000052
 30
0.0
  9
$EXTMAX
 10
105.0
 20
73.0
 30
0.0
  9
$LIMMIN
 10
0.0
 20
0.0
  9
$LIMMAX
 10
12.0
 20
9.0
  9
$ORTHOMODE
 70
     0
  9
$REGENMODE
 70
     1
  9
$FILLMODE
 70
     1
  9
$QTEXTMODE
 70
     0
  9
$MIRRTEXT
 70
     1
  9
$DRAGMODE
 70
     2
  9
$LTSCALE
 40
1.0
  9
$OSMODE
 70
    37
  9
$ATTMODE
 70
     1
  9
$TEXTSIZE
 40
0.2
  9
$TRACEWID
 40
0.05
  9
$TEXTSTYLE
  7
STANDARD
  9
$CLAYER
  8
0
  9
$CELTYPE
  6
CONTINUOUS
  9
$CECOLOR
 62
   256
  9
$DIMSCALE
 40
1.0
  9
$DIMASZ
 40
0.18
  9
$DIMEXO
 40
0.0625
  9
$DIMDLI
 40
0.38
  9
$DIMRND
 40
0.0
  9
$DIMDLE
 40
0.0
  9
$DIMEXE
 40
0.18
  9
$DIMTP
 40
0.0
  9
$DIMTM
 40
0.0
  9
$DIMTXT
 40
0.18
  9
$DIMCEN
 40
0.09
  9
$DIMTSZ
 40
0.0
  9
$DIMTOL
 70
     0
  9
$DIMLIM
 70
     0
  9
$DIMTIH
 70
     1
  9
$DIMTOH
 70
     1
  9
$DIMSE1
 70
     0
  9
$DIMSE2
 70
     0
  9
$DIMTAD
 70
     0
  9
$DIMZIN
 70
     0
  9
$DIMBLK
  1

  9
$DIMASO
 70
     1
  9
$DIMSHO
 70
     1
  9
$DIMPOST
  1

  9
$DIMAPOST
  1

  9
$DIMALT
 70
     0
  9
$DIMALTD
 70
     2
  9
$DIMALTF
 40
25.399999999999999
  9
$DIMLFAC
 40
1.0
  9
$DIMTOFL
 70
     0
  9
$DIMTVP
 40
0.0
  9
$DIMTIX
 70
     0
  9
$DIMSOXD
 70
     0
  9
$DIMSAH
 70
     0
  9
$DIMBLK1
  1

  9
$DIMBLK2
  1

  9
$DIMSTYLE
  2
STANDARD
  9
$DIMCLRD
 70
     0
  9
$DIMCLRE
 70
     0
  9
$DIMCLRT
 70
     0
  9
$DIMTFAC
 40
1.0
  9
$DIMGAP
 40
0.09
  9
$LUNITS
 70
     2
  9
$LUPREC
 70
     4
  9
$SKETCHINC
 40
0.1
  9
$FILLETRAD
 40
0.0
  9
$AUNITS
 70
     0
  9
$AUPREC
 70
     0
  9
$MENU
  1
.
  9
$ELEVATION
 40
0.0
  9
$PELEVATION
 40
0.0
  9
$THICKNESS
 40
0.0
  9
$LIMCHECK
 70
     0
  9
$BLIPMODE
 70
     0
  9
$CHAMFERA
 40
0.0
  9
$CHAMFERB
 40
0.0
  9
$SKPOLY
 70
     0
  9
$TDCREATE
 40
2454687.4718661341
  9
$TDUPDATE
 40
2454687.5162686221
  9
$TDINDWG
 40
0.0444026736
  9
$TDUSRTIMER
 40
0.0444026736
  9
$USRTIMER
 70
     1
  9
$ANGBASE
 50
0.0
  9
$ANGDIR
 70
     0
  9
$PDMODE
 70
     0
  9
$PDSIZE
 40
0.0
  9
$PLINEWID
 40
0.0
  9
$COORDS
 70
     1
  9
$SPLFRAME
 70
     0
  9
$SPLINETYPE
 70
     6
  9
$SPLINESEGS
 70
     8
  9
$ATTDIA
 70
     0
  9
$ATTREQ
 70
     1
  9
$HANDLING
 70
 22529
  9
$HANDSEED
  5
135
  9
$SURFTAB1
 70
     6
  9
$SURFTAB2
 70
     6
  9
$SURFTYPE
 70
     6
  9
$SURFU
 70
     6
  9
$SURFV
 70
     6
  9
$UCSNAME
  2

  9
$UCSORG
 10
0.0
 20
0.0
 30
0.0
  9
$UCSXDIR
 10
1.0
 20
0.0
 30
0.0
  9
$UCSYDIR
 10
0.0
 20
1.0
 30
0.0
  9
$PUCSNAME
  2

  9
$PUCSORG
 10
0.0
 20
0.0
 30
0.0
  9
$PUCSXDIR
 10
1.0
 20
0.0
 30
0.0
  9
$PUCSYDIR
 10
0.0
 20
1.0
 30
0.0
  9
$USERI1
 70
     0
  9
$USERI2
 70
     0
  9
$USERI3
 70
     0
  9
$USERI4
 70
     0
  9
$USERI5
 70
     0
  9
$USERR1
 40
0.0
  9
$USERR2
 40
0.0
  9
$USERR3
 40
0.0
  9
$USERR4
 40
0.0
  9
$USERR5
 40
0.0
  9
$WORLDVIEW
 70
     1
  9
$SHADEDGE
 70
     3
  9
$SHADEDIF
 70
    70
  9
$TILEMODE
 70
     1
  9
$MAXACTVP
 70
    64
  9
$PLIMCHECK
 70
     0
  9
$PEXTMIN
 10
1.0000000000000000E+020
 20
1.0000000000000000E+020
 30
1.0000000000000000E+020
  9
$PEXTMAX
 10
-1.0000000000000000E+020
 20
-1.0000000000000000E+020
 30
-1.0000000000000000E+020
  9
$PLIMMIN
 10
0.0
 20
0.0
  9
$PLIMMAX
 10
12.0
 20
9.0
  9
$UNITMODE
 70
     0
  9
$VISRETAIN
 70
     1
  9
$PLINEGEN
 70
     0
  9
$PSLTSCALE
 70
     1
  0
ENDSEC
  0
SECTION
  2
TABLES
  0
TABLE
  2
VPORT
 70
     3
  0
VPORT
  2
*ACTIVE
 70
     0
 10
0.0
 20
0.0
 11
1.0
 21
1.0
 12
52.5
 22
36.5
 13
0.0
 23
0.0
 14
1.0
 24
1.0
 15
0.0
 25
0.0
 16
0.0
 26
0.0
 36
1.0
 17
0.0
 27
0.0
 37
0.0
 40
73.56010230179028
 41
2.0435339308578739
 42
50.0
 43
0.0
 44
0.0
 50
0.0
 51
0.0
 71
     0
 72
   100
 73
     1
 74
     3
 75
     0
 76
     0
 77
     0
 78
     0
  0
ENDTAB
  0
TABLE
  2
LTYPE
 70
     1
  0
LTYPE
  2
CONTINUOUS
 70
     0
  3
Solid line
 72
    65
 73
     0
 40
0.0
  0
ENDTAB
  0
TABLE
  2
LAYER
 70
     1
  0
LAYER
  2
0
 70
     0
 62
     7
  6
CONTINUOUS
  0
ENDTAB
  0
TABLE
  2
STYLE
 70
     1
  0
STYLE
  2
STANDARD
 70
     0
 40
0.0
 41
1.0
 50
0.0
 71
     0
 42
0.2
  3
txt
  4

  0
ENDTAB
  0
TABLE
  2
VIEW
 70
     0
  0
ENDTAB
  0
TABLE
  2
UCS
 70
     0
  0
ENDTAB
  0
TABLE
  2
APPID
 70
     1
  0
APPID
  2
ACAD
 70
     0
  0
ENDTAB
  0
TABLE
  2
DIMSTYLE
 70
     1
  0
DIMSTYLE
  2
STANDARD
 70
     0
  3

  4

  5

  6

  7

 40
1.0
 41
0.18
 42
0.0625
 43
0.38
 44
0.18
 45
0.0
 46
0.0
 47
0.0
 48
0.0
140
0.18
141
0.09
142
0.0
143
25.399999999999999
144
1.0
145
0.0
146
1.0
147
0.09
 71
     0
 72
     0
 73
     1
 74
     1
 75
     0
 76
     0
 77
     0
 78
     0
170
     0
171
     2
172
     0
173
     0
174
     0
175
     0
176
     0
177
     0
178
     0
  0
ENDTAB
  0
ENDSEC
  0
SECTION
  2
BLOCKS
  0
BLOCK
  8
0
  2
$MODEL_SPACE
 70
     0
 10
0.0
 20
0.0
 30
0.0
  3
$MODEL_SPACE
  1

  0
ENDBLK
  5
20
  8
0
  0
BLOCK
 67
     1
  8
0
  2
$PAPER_SPACE
 70
     0
 10
0.0
 20
0.0
 30
0.0
  3
$PAPER_SPACE
  1

  0
ENDBLK
  5
1C
 67
     1
  8
0
  0
ENDSEC
  0
SECTION
  2
ENTITIES
  0
LINE
  5
22
  8
0
 10
28.710000000000001
 20
0.6000010000000051
 30
0.0
 11
52.5
 21
0.0000000000000052
 31
0.0
  0
LINE
  5
23
  8
0
 10
28.710000000000001
 20
0.6000010000000051
 30
0.0
 11
52.5
 21
0.0000000000000052
 31
0.0
  0
LINE
  5
24
  8
0
 10
52.5
 20
0.0000000000000052
 30
0.0
 11
76.290000000000006
 21
0.6000010000000051
 31
0.0
  0
LINE
  5
25
  8
0
 10
52.5
 20
0.0000000000000052
 30
0.0
 11
76.290000000000006
 21
0.6000010000000051
 31
0.0
  0
LINE
  5
26
  8
0
 10
27.123999999999999
 20
1.199990000000009
 30
0.0
 11
31.882000000000001
 21
1.199990000000009
 31
0.0
  0
LINE
  5
27
  8
0
 10
24.318000000000001
 20
1.199990000000009
 30
0.0
 11
27.123999999999999
 21
1.199990000000009
 31
0.0
  0
LINE
  5
28
  8
0
 10
23.219999999999999
 20
1.199990000000009
 30
0.0
 11
28.710000000000001
 21
0.6000010000000051
 31
0.0
  0
LINE
  5
29
  8
0
 10
23.219999999999999
 20
1.199990000000009
 30
0.0
 11
24.318000000000001
 21
1.199990000000009
 31
0.0
  0
LINE
  5
2A
  8
0
 10
37.859999999999999
 20
1.199990000000009
 30
0.0
 11
44.936
 21
1.199990000000009
 31
0.0
  0
LINE
  5
2B
  8
0
 10
31.882000000000001
 20
1.199990000000009
 30
0.0
 11
37.859999999999999
 21
1.199990000000009
 31
0.0
  0
LINE
  5
2C
  8
0
 10
44.936
 20
1.199990000000009
 30
0.0
 11
52.5
 21
1.199990000000009
 31
0.0
  0
LINE
  5
2D
  8
0
 10
52.5
 20
1.199990000000009
 30
0.0
 11
60.063999999999993
 21
1.199990000000009
 31
0.0
  0
LINE
  5
2E
  8
0
 10
60.063999999999993
 20
1.199990000000009
 30
0.0
 11
67.140000000000001
 21
1.199990000000009
 31
0.0
  0
LINE
  5
2F
  8
0
 10
67.140000000000001
 20
1.199990000000009
 30
0.0
 11
73.117999999999995
 21
1.199990000000009
 31
0.0
  0
LINE
  5
30
  8
0
 10
73.117999999999995
 20
1.199990000000009
 30
0.0
 11
77.876000000000005
 21
1.199990000000009
 31
0.0
  0
LINE
  5
31
  8
0
 10
77.876000000000005
 20
1.199990000000009
 30
0.0
 11
80.682000000000002
 21
1.199990000000009
 31
0.0
  0
LINE
  5
32
  8
0
 10
80.682000000000002
 20
1.199990000000009
 30
0.0
 11
81.780000000000001
 21
1.199990000000009
 31
0.0
  0
LINE
  5
33
  8
0
 10
76.290000000000006
 20
0.6000010000000051
 30
0.0
 11
81.780000000000001
 21
1.199990000000009
 31
0.0
  0
LINE
  5
34
  8
0
 10
81.780000000000001
 20
1.199990000000009
 30
0.0
 11
83.0
 21
2.399999999999999
 31
0.0
  0
LINE
  5
35
  8
0
 10
31.027999999999999
 20
2.4000000000000088
 30
0.0
 11
37.372
 21
2.4000000000000088
 31
0.0
  0
LINE
  5
36
  8
0
 10
26.026
 20
2.4000000000000088
 30
0.0
 11
31.027999999999999
 21
2.4000000000000088
 31
0.0
  0
LINE
  5
37
  8
0
 10
23.097999999999999
 20
2.4000000000000088
 30
0.0
 11
26.026
 21
2.4000000000000088
 31
0.0
  0
LINE
  5
38
  8
0
 10
22.0
 20
2.399999999999999
 30
0.0
 11
23.097999999999999
 21
2.4000000000000088
 31
0.0
  0
LINE
  5
39
  8
0
 10
22.0
 20
2.399999999999999
 30
0.0
 11
22.0
 21
52.8001
 31
0.0
  0
LINE
  5
3A
  8
0
 10
22.0
 20
2.399999999999999
 30
0.0
 11
23.219999999999999
 21
1.199990000000009
 31
0.0
  0
LINE
  5
3B
  8
0
 10
44.691999999999993
 20
2.4000000000000088
 30
0.0
 11
52.5
 21
2.4000000000000088
 31
0.0
  0
LINE
  5
3C
  8
0
 10
37.372
 20
2.4000000000000088
 30
0.0
 11
44.691999999999993
 21
2.4000000000000088
 31
0.0
  0
LINE
  5
3D
  8
0
 10
31.027999999999999
 20
52.8001
 30
0.0
 11
37.372
 21
52.8001
 31
0.0
  0
LINE
  5
3E
  8
0
 10
26.026
 20
52.8001
 30
0.0
 11
31.027999999999999
 21
52.8001
 31
0.0
  0
LINE
  5
3F
  8
0
 10
23.097999999999999
 20
52.8001
 30
0.0
 11
26.026
 21
52.8001
 31
0.0
  0
LINE
  5
40
  8
0
 10
22.0
 20
52.8001
 30
0.0
 11
22.0
 21
2.4000000000000088
 31
0.0
  0
LINE
  5
41
  8
0
 10
22.0
 20
52.8001
 30
0.0
 11
23.097999999999999
 21
52.8001
 31
0.0
  0
LINE
  5
42
  8
0
 10
22.0
 20
52.8001
 30
0.0
 11
23.219999999999999
 21
54.0
 31
0.0
  0
LINE
  5
43
  8
0
 10
44.691999999999993
 20
52.8001
 30
0.0
 11
52.5
 21
52.8001
 31
0.0
  0
LINE
  5
44
  8
0
 10
37.372
 20
52.8001
 30
0.0
 11
44.691999999999993
 21
52.8001
 31
0.0
  0
LINE
  5
45
  8
0
 10
52.5
 20
2.4000000000000088
 30
0.0
 11
60.308
 21
2.4000000000000088
 31
0.0
  0
LINE
  5
46
  8
0
 10
60.308
 20
2.4000000000000088
 30
0.0
 11
67.628
 21
2.4000000000000088
 31
0.0
  0
LINE
  5
47
  8
0
 10
52.5
 20
52.8001
 30
0.0
 11
60.308
 21
52.8001
 31
0.0
  0
LINE
  5
48
  8
0
 10
67.628
 20
2.4000000000000088
 30
0.0
 11
73.971999999999994
 21
2.4000000000000088
 31
0.0
  0
LINE
  5
49
  8
0
 10
73.971999999999994
 20
2.4000000000000088
 30
0.0
 11
78.97399999999999
 21
2.4000000000000088
 31
0.0
  0
LINE
  5
4A
  8
0
 10
60.308
 20
52.8001
 30
0.0
 11
67.628
 21
52.8001
 31
0.0
  0
LINE
  5
4B
  8
0
 10
67.628
 20
52.8001
 30
0.0
 11
73.971999999999994
 21
52.8001
 31
0.0
  0
LINE
  5
4C
  8
0
 10
78.97399999999999
 20
2.4000000000000088
 30
0.0
 11
81.902000000000001
 21
2.4000000000000088
 31
0.0
  0
LINE
  5
4D
  8
0
 10
73.971999999999994
 20
52.8001
 30
0.0
 11
78.97399999999999
 21
52.8001
 31
0.0
  0
LINE
  5
4E
  8
0
 10
25.0
 20
54.0
 30
0.0
 11
25.0
 21
60.0
 31
0.0
  0
LINE
  5
4F
  8
0
 10
44.936
 20
54.0
 30
0.0
 11
52.5
 21
54.0
 31
0.0
  0
LINE
  5
50
  8
0
 10
37.859999999999999
 20
54.0
 30
0.0
 11
44.936
 21
54.0
 31
0.0
  0
LINE
  5
51
  8
0
 10
31.882000000000001
 20
54.0
 30
0.0
 11
37.859999999999999
 21
54.0
 31
0.0
  0
LINE
  5
52
  8
0
 10
27.123999999999999
 20
54.0
 30
0.0
 11
31.882000000000001
 21
54.0
 31
0.0
  0
LINE
  5
53
  8
0
 10
24.318000000000001
 20
54.0
 30
0.0
 11
27.123999999999999
 21
54.0
 31
0.0
  0
LINE
  5
54
  8
0
 10
23.219999999999999
 20
54.0
 30
0.0
 11
24.318000000000001
 21
54.0
 31
0.0
  0
LINE
  5
55
  8
0
 10
52.5
 20
54.0
 30
0.0
 11
60.063999999999993
 21
54.0
 31
0.0
  0
LINE
  5
56
  8
0
 10
60.063999999999993
 20
54.0
 30
0.0
 11
67.140000000000001
 21
54.0
 31
0.0
  0
LINE
  5
57
  8
0
 10
67.140000000000001
 20
54.0
 30
0.0
 11
73.117999999999995
 21
54.0
 31
0.0
  0
LINE
  5
58
  8
0
 10
1.7
 20
62.0
 30
0.0
 11
2.5
 21
62.0
 31
0.0
  0
LINE
  5
59
  8
0
 10
1.1999999999999991
 20
62.0
 30
0.0
 11
1.7
 21
62.0
 31
0.0
  0
LINE
  5
5A
  8
0
 10
0.999999999999996
 20
62.0
 30
0.0
 11
1.1999999999999991
 21
62.0
 31
0.0
  0
LINE
  5
5B
  8
0
 10
2.5
 20
62.0
 30
0.0
 11
3.5
 21
62.0
 31
0.0
  0
LINE
  5
5C
  8
0
 10
3.5
 20
62.0
 30
0.0
 11
4.7000000000000002
 21
62.0
 31
0.0
  0
LINE
  5
5D
  8
0
 10
4.7000000000000002
 20
62.0
 30
0.0
 11
6.0
 21
62.0
 31
0.0
  0
LINE
  5
5E
  8
0
 10
6.0
 20
62.0
 30
0.0
 11
22.0
 21
62.0
 31
0.0
  0
LINE
  5
5F
  8
0
 10
8.4843700000000002
 20
62.0
 30
0.0
 11
8.7915500000000009
 21
62.0
 31
0.0
  0
LINE
  5
60
  8
0
 10
8.4843700000000002
 20
62.0
 30
0.0
 11
8.7968100000000007
 21
62.0
 31
0.0
  0
LINE
  5
61
  8
0
 10
9.1539900000000003
 20
62.0
 30
0.0
 11
9.4111700000000003
 21
62.0
 31
0.0
  0
LINE
  5
62
  8
0
 10
9.1539900000000003
 20
62.0
 30
0.0
 11
9.3432200000000005
 21
62.0
 31
0.0
  0
LINE
  5
63
  8
0
 10
9.4111700000000003
 20
62.0
 30
0.0
 11
10.151400000000001
 21
62.0
 31
0.0
  0
LINE
  5
64
  8
0
 10
8.7915500000000009
 20
62.0
 30
0.0
 11
9.6317399999999989
 21
62.0
 31
0.0
  0
LINE
  5
65
  8
0
 10
10.151400000000001
 20
62.0
 30
0.0
 11
11.41119999999999
 21
62.0
 31
0.0
  0
LINE
  5
66
  8
0
 10
13.054
 20
62.0
 30
0.0
 11
14.943199999999999
 21
62.0
 31
0.0
  0
LINE
  5
67
  8
0
 10
11.41119999999999
 20
62.0
 30
0.0
 11
13.054
 21
62.0
 31
0.0
  0
LINE
  5
68
  8
0
 10
19.0609
 20
62.0
 30
0.0
 11
20.943000000000001
 21
62.0
 31
0.0
  0
LINE
  5
69
  8
0
 10
17.015499999999999
 20
62.0
 30
0.0
 11
19.0609
 21
62.0
 31
0.0
  0
LINE
  5
6A
  8
0
 10
14.943199999999999
 20
62.0
 30
0.0
 11
17.015499999999999
 21
62.0
 31
0.0
  0
LINE
  5
6B
  8
0
 10
20.943000000000001
 20
62.0
 30
0.0
 11
22.0
 21
62.0
 31
0.0
  0
LINE
  5
6C
  8
0
 10
21.242999999999999
 20
62.0
 30
0.0
 11
22.0
 21
62.0
 31
0.0
  0
LINE
  5
6D
  8
0
 10
19.1877
 20
62.0
 30
0.0
 11
21.242999999999999
 21
62.0
 31
0.0
  0
LINE
  5
6E
  8
0
 10
17.055700000000002
 20
62.0
 30
0.0
 11
19.1877
 21
62.0
 31
0.0
  0
LINE
  5
6F
  8
0
 10
14.796799999999999
 20
62.0
 30
0.0
 11
17.055700000000002
 21
62.0
 31
0.0
  0
LINE
  5
70
  8
0
 10
12.6844
 20
62.0
 30
0.0
 11
14.796799999999999
 21
62.0
 31
0.0
  0
LINE
  5
71
  8
0
 10
10.9916
 20
62.0
 30
0.0
 11
12.6844
 21
62.0
 31
0.0
  0
LINE
  5
72
  8
0
 10
9.3432200000000005
 20
62.0
 30
0.0
 11
10.2155
 21
62.0
 31
0.0
  0
LINE
  5
73
  8
0
 10
11.460900000000001
 20
62.0
 30
0.0
 11
13.042999999999999
 21
62.0
 31
0.0
  0
LINE
  5
74
  8
0
 10
10.2155
 20
62.0
 30
0.0
 11
11.460900000000001
 21
62.0
 31
0.0
  0
LINE
  5
75
  8
0
 10
10.9877
 20
62.0
 30
0.0
 11
12.743
 21
62.0
 31
0.0
  0
LINE
  5
76
  8
0
 10
9.6556499999999996
 20
62.0
 30
0.0
 11
10.9877
 21
62.0
 31
0.0
  0
LINE
  5
77
  8
0
 10
8.7968100000000007
 20
62.0
 30
0.0
 11
9.6556499999999996
 21
62.0
 31
0.0
  0
LINE
  5
78
  8
0
 10
13.042999999999999
 20
62.0
 30
0.0
 11
14.925000000000001
 21
62.0
 31
0.0
  0
LINE
  5
79
  8
0
 10
14.925000000000001
 20
62.0
 30
0.0
 11
16.970500000000001
 21
62.0
 31
0.0
  0
LINE
  5
7A
  8
0
 10
12.743
 20
62.0
 30
0.0
 11
14.7982
 21
62.0
 31
0.0
  0
LINE
  5
7B
  8
0
 10
14.7982
 20
62.0
 30
0.0
 11
16.930299999999999
 21
62.0
 31
0.0
  0
LINE
  5
7C
  8
0
 10
16.970500000000001
 20
62.0
 30
0.0
 11
19.0427
 21
62.0
 31
0.0
  0
LINE
  5
7D
  8
0
 10
19.0427
 20
62.0
 30
0.0
 11
20.931899999999992
 21
62.0
 31
0.0
  0
LINE
  5
7E
  8
0
 10
20.931899999999992
 20
62.0
 30
0.0
 11
22.0
 21
62.0
 31
0.0
  0
LINE
  5
7F
  8
0
 10
16.930299999999999
 20
62.0
 30
0.0
 11
19.1891
 21
62.0
 31
0.0
  0
LINE
  5
80
  8
0
 10
19.1891
 20
62.0
 30
0.0
 11
21.30149999999999
 21
62.0
 31
0.0
  0
LINE
  5
81
  8
0
 10
21.30149999999999
 20
62.0
 30
0.0
 11
22.0
 21
62.0
 31
0.0
  0
LINE
  5
82
  8
0
 10
9.6317399999999989
 20
62.0
 30
0.0
 11
10.9916
 21
62.0
 31
0.0
  0
LINE
  5
83
  8
0
 10
6.0
 20
62.0
 30
0.0
 11
22.0
 21
62.0
 31
0.0
  0
LINE
  5
84
  8
0
 10
-0.0000000000000047
 20
63.0
 30
0.0
 11
0.299999999999995
 21
62.299999999999997
 31
0.0
  0
LINE
  5
85
  8
0
 10
-0.0000000000000047
 20
63.0
 30
0.0
 11
-0.0000000000000047
 21
73.0
 31
0.0
  0
LINE
  5
86
  8
0
 10
1.1000000000000001
 20
62.299999999999997
 30
0.0
 11
2.0
 21
62.299999999999997
 31
0.0
  0
LINE
  5
87
  8
0
 10
0.4999999999999951
 20
62.299999999999997
 30
0.0
 11
1.1000000000000001
 21
62.299999999999997
 31
0.0
  0
LINE
  5
88
  8
0
 10
2.0
 20
62.299999999999997
 30
0.0
 11
3.2000000000000002
 21
62.299999999999997
 31
0.0
  0
LINE
  5
89
  8
0
 10
6.0
 20
62.299999999999997
 30
0.0
 11
52.5
 21
62.299999999999997
 31
0.0
  0
LINE
  5
8A
  8
0
 10
3.2000000000000002
 20
62.299999999999997
 30
0.0
 11
4.5
 21
62.299999999999997
 31
0.0
  0
LINE
  5
8B
  8
0
 10
4.5
 20
62.299999999999997
 30
0.0
 11
6.0
 21
62.299999999999997
 31
0.0
  0
LINE
  5
8C
  8
0
 10
6.0
 20
62.299999999999997
 30
0.0
 11
52.5
 21
62.299999999999997
 31
0.0
  0
LINE
  5
8D
  8
0
 10
0.7999999999999961
 20
73.0
 30
0.0
 11
1.8
 21
73.0
 31
0.0
  0
LINE
  5
8E
  8
0
 10
0.199999999999995
 20
73.0
 30
0.0
 11
0.7999999999999951
 21
73.0
 31
0.0
  0
LINE
  5
8F
  8
0
 10
0.7999999999999951
 20
73.0
 30
0.0
 11
1.8
 21
73.0
 31
0.0
  0
LINE
  5
90
  8
0
 10
0.199999999999995
 20
73.0
 30
0.0
 11
0.7999999999999951
 21
73.0
 31
0.0
  0
LINE
  5
91
  8
0
 10
1.8
 20
73.0
 30
0.0
 11
3.0
 21
73.0
 31
0.0
  0
LINE
  5
92
  8
0
 10
3.0
 20
73.0
 30
0.0
 11
4.5
 21
73.0
 31
0.0
  0
LINE
  5
93
  8
0
 10
4.5
 20
73.0
 30
0.0
 11
6.0
 21
73.0
 31
0.0
  0
LINE
  5
94
  8
0
 10
6.0
 20
73.0
 30
0.0
 11
52.5
 21
73.0
 31
0.0
  0
LINE
  5
95
  8
0
 10
6.0
 20
73.0
 30
0.0
 11
52.5
 21
73.0
 31
0.0
  0
LINE
  5
96
  8
0
 10
0.299999999999995
 20
62.299999999999997
 30
0.0
 11
0.999999999999996
 21
62.0
 31
0.0
  0
LINE
  5
97
  8
0
 10
0.299999999999995
 20
62.299999999999997
 30
0.0
 11
0.4999999999999951
 21
62.299999999999997
 31
0.0
  0
LINE
  5
98
  8
0
 10
-0.0000000000000047
 20
73.0
 30
0.0
 11
0.199999999999995
 21
73.0
 31
0.0
  0
LINE
  5
99
  8
0
 10
-0.0000000000000047
 20
73.0
 30
0.0
 11
-0.0000000000000047
 21
63.0
 31
0.0
  0
LINE
  5
9A
  8
0
 10
22.0
 20
62.0
 30
0.0
 11
22.0
 21
60.0
 31
0.0
  0
LINE
  5
9B
  8
0
 10
22.0
 20
62.0
 30
0.0
 11
23.097999999999999
 21
62.0
 31
0.0
  0
LINE
  5
9C
  8
0
 10
25.989999999999998
 20
60.0
 30
0.0
 11
28.629999999999988
 21
60.0
 31
0.0
  0
LINE
  5
9D
  8
0
 10
25.0
 20
60.0
 30
0.0
 11
25.0
 21
54.0
 31
0.0
  0
LINE
  5
9E
  8
0
 10
25.0
 20
60.0
 30
0.0
 11
25.989999999999998
 21
60.0
 31
0.0
  0
LINE
  5
9F
  8
0
 10
33.030000000000001
 20
60.0
 30
0.0
 11
38.859999999999999
 21
60.0
 31
0.0
  0
LINE
  5
A0
  8
0
 10
28.629999999999988
 20
60.0
 30
0.0
 11
33.030000000000001
 21
60.0
 31
0.0
  0
LINE
  5
A1
  8
0
 10
38.859999999999999
 20
60.0
 30
0.0
 11
45.460000000000001
 21
60.0
 31
0.0
  0
LINE
  5
A2
  8
0
 10
45.460000000000001
 20
60.0
 30
0.0
 11
52.5
 21
60.0
 31
0.0
  0
LINE
  5
A3
  8
0
 10
59.539999999999999
 20
60.0
 30
0.0
 11
66.140000000000001
 21
60.0
 31
0.0
  0
LINE
  5
A4
  8
0
 10
44.691999999999993
 20
60.0
 30
0.0
 11
52.5
 21
60.0
 31
0.0
  0
LINE
  5
A5
  8
0
 10
37.372
 20
60.0
 30
0.0
 11
44.691999999999993
 21
60.0
 31
0.0
  0
LINE
  5
A6
  8
0
 10
30.905999999999999
 20
60.0
 30
0.0
 11
37.372
 21
60.0
 31
0.0
  0
LINE
  5
A7
  8
0
 10
26.026
 20
60.0
 30
0.0
 11
30.905999999999999
 21
60.0
 31
0.0
  0
LINE
  5
A8
  8
0
 10
52.5
 20
60.0
 30
0.0
 11
60.308
 21
60.0
 31
0.0
  0
LINE
  5
A9
  8
0
 10
52.5
 20
60.0
 30
0.0
 11
59.539999999999999
 21
60.0
 31
0.0
  0
LINE
  5
AA
  8
0
 10
66.140000000000001
 20
60.0
 30
0.0
 11
71.969999999999999
 21
60.0
 31
0.0
  0
LINE
  5
AB
  8
0
 10
71.969999999999999
 20
60.0
 30
0.0
 11
76.370000000000005
 21
60.0
 31
0.0
  0
LINE
  5
AC
  8
0
 10
60.308
 20
60.0
 30
0.0
 11
67.628
 21
60.0
 31
0.0
  0
LINE
  5
AD
  8
0
 10
67.628
 20
60.0
 30
0.0
 11
74.093999999999994
 21
60.0
 31
0.0
  0
LINE
  5
AE
  8
0
 10
76.370000000000005
 20
60.0
 30
0.0
 11
79.010000000000005
 21
60.0
 31
0.0
  0
LINE
  5
AF
  8
0
 10
74.093999999999994
 20
60.0
 30
0.0
 11
78.97399999999999
 21
60.0
 31
0.0
  0
LINE
  5
B0
  8
0
 10
44.599999999999987
 20
62.0
 30
0.0
 11
44.899999999999999
 21
62.0
 31
0.0
  0
LINE
  5
B1
  8
0
 10
44.0
 20
62.0
 30
0.0
 11
44.29999999999999
 21
62.0
 31
0.0
  0
LINE
  5
B2
  8
0
 10
44.29999999999999
 20
62.0
 30
0.0
 11
45.100000000000001
 21
62.0
 31
0.0
  0
LINE
  5
B3
  8
0
 10
44.899999999999999
 20
62.0
 30
0.0
 11
45.700000000000003
 21
62.0
 31
0.0
  0
LINE
  5
B4
  8
0
 10
45.700000000000003
 20
62.0
 30
0.0
 11
46.899999999999999
 21
62.0
 31
0.0
  0
LINE
  5
B5
  8
0
 10
46.899999999999999
 20
62.0
 30
0.0
 11
48.600000000000001
 21
62.0
 31
0.0
  0
LINE
  5
B6
  8
0
 10
45.100000000000001
 20
62.0
 30
0.0
 11
46.5
 21
62.0
 31
0.0
  0
LINE
  5
B7
  8
0
 10
46.5
 20
62.0
 30
0.0
 11
48.299999999999997
 21
62.0
 31
0.0
  0
LINE
  5
B8
  8
0
 10
56.399999999999999
 20
62.0
 30
0.0
 11
58.100000000000001
 21
62.0
 31
0.0
  0
LINE
  5
B9
  8
0
 10
54.5
 20
62.0
 30
0.0
 11
56.399999999999999
 21
62.0
 31
0.0
  0
LINE
  5
BA
  8
0
 10
59.29999999999999
 20
62.0
 30
0.0
 11
60.100000000000001
 21
62.0
 31
0.0
  0
LINE
  5
BB
  8
0
 10
58.100000000000001
 20
62.0
 30
0.0
 11
59.29999999999999
 21
62.0
 31
0.0
  0
LINE
  5
BC
  8
0
 10
60.100000000000001
 20
62.0
 30
0.0
 11
60.399999999999999
 21
62.0
 31
0.0
  0
LINE
  5
BD
  8
0
 10
59.899999999999999
 20
62.0
 30
0.0
 11
60.700000000000003
 21
62.0
 31
0.0
  0
LINE
  5
BE
  8
0
 10
58.5
 20
62.0
 30
0.0
 11
59.899999999999999
 21
62.0
 31
0.0
  0
LINE
  5
BF
  8
0
 10
56.700000000000003
 20
62.0
 30
0.0
 11
58.5
 21
62.0
 31
0.0
  0
LINE
  5
C0
  8
0
 10
54.700000000000003
 20
62.0
 30
0.0
 11
56.700000000000003
 21
62.0
 31
0.0
  0
LINE
  5
C1
  8
0
 10
48.600000000000001
 20
62.0
 30
0.0
 11
50.5
 21
62.0
 31
0.0
  0
LINE
  5
C2
  8
0
 10
50.5
 20
62.0
 30
0.0
 11
52.5
 21
62.0
 31
0.0
  0
LINE
  5
C3
  8
0
 10
48.299999999999997
 20
62.0
 30
0.0
 11
50.299999999999997
 21
62.0
 31
0.0
  0
LINE
  5
C4
  8
0
 10
50.299999999999997
 20
62.0
 30
0.0
 11
52.5
 21
62.0
 31
0.0
  0
LINE
  5
C5
  8
0
 10
44.691999999999993
 20
62.0
 30
0.0
 11
52.5
 21
62.0
 31
0.0
  0
LINE
  5
C6
  8
0
 10
37.372
 20
62.0
 30
0.0
 11
44.691999999999993
 21
62.0
 31
0.0
  0
LINE
  5
C7
  8
0
 10
30.905999999999999
 20
62.0
 30
0.0
 11
37.372
 21
62.0
 31
0.0
  0
LINE
  5
C8
  8
0
 10
26.026
 20
62.0
 30
0.0
 11
30.905999999999999
 21
62.0
 31
0.0
  0
LINE
  5
C9
  8
0
 10
23.097999999999999
 20
62.0
 30
0.0
 11
26.026
 21
62.0
 31
0.0
  0
LINE
  5
CA
  8
0
 10
52.5
 20
62.0
 30
0.0
 11
60.308
 21
62.0
 31
0.0
  0
LINE
  5
CB
  8
0
 10
52.5
 20
62.0
 30
0.0
 11
54.700000000000003
 21
62.0
 31
0.0
  0
LINE
  5
CC
  8
0
 10
52.5
 20
62.0
 30
0.0
 11
54.5
 21
62.0
 31
0.0
  0
LINE
  5
CD
  8
0
 10
60.700000000000003
 20
62.0
 30
0.0
 11
61.0
 21
62.0
 31
0.0
  0
LINE
  5
CE
  8
0
 10
60.308
 20
62.0
 30
0.0
 11
67.628
 21
62.0
 31
0.0
  0
LINE
  5
CF
  8
0
 10
52.5
 20
62.299999999999997
 30
0.0
 11
99.0
 21
62.299999999999997
 31
0.0
  0
LINE
  5
D0
  8
0
 10
52.5
 20
73.0
 30
0.0
 11
99.0
 21
73.0
 31
0.0
  0
LINE
  5
D1
  8
0
 10
67.628
 20
62.0
 30
0.0
 11
74.093999999999994
 21
62.0
 31
0.0
  0
LINE
  5
D2
  8
0
 10
74.093999999999994
 20
62.0
 30
0.0
 11
78.97399999999999
 21
62.0
 31
0.0
  0
LINE
  5
D3
  8
0
 10
23.097999999999999
 20
60.0
 30
0.0
 11
25.0
 21
60.0
 31
0.0
  0
LINE
  5
D4
  8
0
 10
23.097999999999999
 20
60.0
 30
0.0
 11
26.026
 21
60.0
 31
0.0
  0
LINE
  5
D5
  8
0
 10
22.0
 20
60.0
 30
0.0
 11
22.0
 21
62.0
 31
0.0
  0
LINE
  5
D6
  8
0
 10
22.0
 20
60.0
 30
0.0
 11
23.097999999999999
 21
60.0
 31
0.0
  0
LINE
  5
D7
  8
0
 10
73.117999999999995
 20
54.0
 30
0.0
 11
77.876000000000005
 21
54.0
 31
0.0
  0
LINE
  5
D8
  8
0
 10
79.010000000000005
 20
60.0
 30
0.0
 11
80.0
 21
60.0
 31
0.0
  0
LINE
  5
D9
  8
0
 10
80.0
 20
54.0
 30
0.0
 11
80.0
 21
60.0
 31
0.0
  0
LINE
  5
DA
  8
0
 10
78.97399999999999
 20
60.0
 30
0.0
 11
81.902000000000001
 21
60.0
 31
0.0
  0
LINE
  5
DB
  8
0
 10
78.97399999999999
 20
62.0
 30
0.0
 11
81.902000000000001
 21
62.0
 31
0.0
  0
LINE
  5
DC
  8
0
 10
80.0
 20
60.0
 30
0.0
 11
81.902000000000001
 21
60.0
 31
0.0
  0
LINE
  5
DD
  8
0
 10
80.0
 20
60.0
 30
0.0
 11
80.0
 21
54.0
 31
0.0
  0
LINE
  5
DE
  8
0
 10
77.876000000000005
 20
54.0
 30
0.0
 11
80.682000000000002
 21
54.0
 31
0.0
  0
LINE
  5
DF
  8
0
 10
78.97399999999999
 20
52.8001
 30
0.0
 11
81.902000000000001
 21
52.8001
 31
0.0
  0
LINE
  5
E0
  8
0
 10
80.682000000000002
 20
54.0
 30
0.0
 11
81.780000000000001
 21
54.0
 31
0.0
  0
LINE
  5
E1
  8
0
 10
81.902000000000001
 20
2.4000000000000088
 30
0.0
 11
83.0
 21
2.399999999999999
 31
0.0
  0
LINE
  5
E2
  8
0
 10
81.902000000000001
 20
52.8001
 30
0.0
 11
83.0
 21
52.8001
 31
0.0
  0
LINE
  5
E3
  8
0
 10
83.0
 20
2.399999999999999
 30
0.0
 11
83.0
 21
52.8001
 31
0.0
  0
LINE
  5
E4
  8
0
 10
81.902000000000001
 20
62.0
 30
0.0
 11
83.0
 21
62.0
 31
0.0
  0
LINE
  5
E5
  8
0
 10
83.0
 20
62.0
 30
0.0
 11
83.757000000000005
 21
62.0
 31
0.0
  0
LINE
  5
E6
  8
0
 10
83.0
 20
62.0
 30
0.0
 11
99.0
 21
62.0
 31
0.0
  0
LINE
  5
E7
  8
0
 10
83.0
 20
62.0
 30
0.0
 11
84.057000000000016
 21
62.0
 31
0.0
  0
LINE
  5
E8
  8
0
 10
84.057000000000016
 20
62.0
 30
0.0
 11
85.939099999999996
 21
62.0
 31
0.0
  0
LINE
  5
E9
  8
0
 10
85.939099999999996
 20
62.0
 30
0.0
 11
87.984499999999997
 21
62.0
 31
0.0
  0
LINE
  5
EA
  8
0
 10
83.757000000000005
 20
62.0
 30
0.0
 11
85.812299999999993
 21
62.0
 31
0.0
  0
LINE
  5
EB
  8
0
 10
85.812299999999993
 20
62.0
 30
0.0
 11
87.944399999999987
 21
62.0
 31
0.0
  0
LINE
  5
EC
  8
0
 10
87.984499999999997
 20
62.0
 30
0.0
 11
90.056799999999996
 21
62.0
 31
0.0
  0
LINE
  5
ED
  8
0
 10
90.056799999999996
 20
62.0
 30
0.0
 11
91.945999999999984
 21
62.0
 31
0.0
  0
LINE
  5
EE
  8
0
 10
91.945999999999984
 20
62.0
 30
0.0
 11
93.588800000000006
 21
62.0
 31
0.0
  0
LINE
  5
EF
  8
0
 10
87.944399999999987
 20
62.0
 30
0.0
 11
90.203199999999995
 21
62.0
 31
0.0
  0
LINE
  5
F0
  8
0
 10
90.203199999999995
 20
62.0
 30
0.0
 11
92.315599999999989
 21
62.0
 31
0.0
  0
LINE
  5
F1
  8
0
 10
93.588800000000006
 20
62.0
 30
0.0
 11
94.848600000000005
 21
62.0
 31
0.0
  0
LINE
  5
F2
  8
0
 10
95.588800000000006
 20
62.0
 30
0.0
 11
95.846000000000004
 21
62.0
 31
0.0
  0
LINE
  5
F3
  8
0
 10
94.848600000000005
 20
62.0
 30
0.0
 11
95.588800000000006
 21
62.0
 31
0.0
  0
LINE
  5
F4
  8
0
 10
92.315599999999989
 20
62.0
 30
0.0
 11
94.008499999999998
 21
62.0
 31
0.0
  0
LINE
  5
F5
  8
0
 10
94.008499999999998
 20
62.0
 30
0.0
 11
95.368300000000005
 21
62.0
 31
0.0
  0
LINE
  5
F6
  8
0
 10
99.0
 20
62.0
 30
0.0
 11
100.2999999999999
 21
62.0
 31
0.0
  0
LINE
  5
F7
  8
0
 10
100.2999999999999
 20
62.0
 30
0.0
 11
101.5
 21
62.0
 31
0.0
  0
LINE
  5
F8
  8
0
 10
101.5
 20
62.0
 30
0.0
 11
102.4999999999999
 21
62.0
 31
0.0
  0
LINE
  5
F9
  8
0
 10
102.4999999999999
 20
62.0
 30
0.0
 11
103.2999999999999
 21
62.0
 31
0.0
  0
LINE
  5
FA
  8
0
 10
104.0
 20
62.0
 30
0.0
 11
104.7
 21
62.299999999999997
 31
0.0
  0
LINE
  5
FB
  8
0
 10
103.2999999999999
 20
62.0
 30
0.0
 11
103.8
 21
62.0
 31
0.0
  0
LINE
  5
FC
  8
0
 10
103.8
 20
62.0
 30
0.0
 11
104.0
 21
62.0
 31
0.0
  0
LINE
  5
FD
  8
0
 10
96.208500000000001
 20
62.0
 30
0.0
 11
96.515600000000006
 21
62.0
 31
0.0
  0
LINE
  5
FE
  8
0
 10
84.068100000000001
 20
62.0
 30
0.0
 11
85.957300000000004
 21
62.0
 31
0.0
  0
LINE
  5
FF
  8
0
 10
83.698499999999996
 20
62.0
 30
0.0
 11
85.810900000000004
 21
62.0
 31
0.0
  0
LINE
  5
100
  8
0
 10
90.075000000000003
 20
62.0
 30
0.0
 11
91.956999999999994
 21
62.0
 31
0.0
  0
LINE
  5
101
  8
0
 10
88.029499999999999
 20
62.0
 30
0.0
 11
90.075000000000003
 21
62.0
 31
0.0
  0
LINE
  5
102
  8
0
 10
85.957300000000004
 20
62.0
 30
0.0
 11
88.029499999999999
 21
62.0
 31
0.0
  0
LINE
  5
103
  8
0
 10
85.810900000000004
 20
62.0
 30
0.0
 11
88.069699999999983
 21
62.0
 31
0.0
  0
LINE
  5
104
  8
0
 10
88.069699999999983
 20
62.0
 30
0.0
 11
90.201800000000006
 21
62.0
 31
0.0
  0
LINE
  5
105
  8
0
 10
91.956999999999994
 20
62.0
 30
0.0
 11
93.539100000000005
 21
62.0
 31
0.0
  0
LINE
  5
106
  8
0
 10
93.539100000000005
 20
62.0
 30
0.0
 11
94.784499999999994
 21
62.0
 31
0.0
  0
LINE
  5
107
  8
0
 10
90.201800000000006
 20
62.0
 30
0.0
 11
92.257000000000005
 21
62.0
 31
0.0
  0
LINE
  5
108
  8
0
 10
92.257000000000005
 20
62.0
 30
0.0
 11
94.012299999999996
 21
62.0
 31
0.0
  0
LINE
  5
109
  8
0
 10
94.784499999999994
 20
62.0
 30
0.0
 11
95.656800000000004
 21
62.0
 31
0.0
  0
LINE
  5
10A
  8
0
 10
95.656800000000004
 20
62.0
 30
0.0
 11
95.846000000000004
 21
62.0
 31
0.0
  0
LINE
  5
10B
  8
0
 10
94.012299999999996
 20
62.0
 30
0.0
 11
95.344300000000004
 21
62.0
 31
0.0
  0
LINE
  5
10C
  8
0
 10
95.344300000000004
 20
62.0
 30
0.0
 11
96.203199999999995
 21
62.0
 31
0.0
  0
LINE
  5
10D
  8
0
 10
96.203199999999995
 20
62.0
 30
0.0
 11
96.515600000000006
 21
62.0
 31
0.0
  0
LINE
  5
10E
  8
0
 10
95.368300000000005
 20
62.0
 30
0.0
 11
96.208500000000001
 21
62.0
 31
0.0
  0
LINE
  5
10F
  8
0
 10
83.0
 20
60.0
 30
0.0
 11
83.0
 21
62.0
 31
0.0
  0
LINE
  5
110
  8
0
 10
99.0
 20
62.299999999999997
 30
0.0
 11
100.5
 21
62.299999999999997
 31
0.0
  0
LINE
  5
111
  8
0
 10
101.8
 20
62.299999999999997
 30
0.0
 11
103.0
 21
62.299999999999997
 31
0.0
  0
LINE
  5
112
  8
0
 10
100.5
 20
62.299999999999997
 30
0.0
 11
101.8
 21
62.299999999999997
 31
0.0
  0
LINE
  5
113
  8
0
 10
103.0
 20
62.299999999999997
 30
0.0
 11
103.90000000000001
 21
62.299999999999997
 31
0.0
  0
LINE
  5
114
  8
0
 10
103.90000000000001
 20
62.299999999999997
 30
0.0
 11
104.4999999999999
 21
62.299999999999997
 31
0.0
  0
LINE
  5
115
  8
0
 10
103.2
 20
73.0
 30
0.0
 11
104.2
 21
73.0
 31
0.0
  0
LINE
  5
116
  8
0
 10
104.4999999999999
 20
62.299999999999997
 30
0.0
 11
104.7
 21
62.299999999999997
 31
0.0
  0
LINE
  5
117
  8
0
 10
104.7
 20
62.299999999999997
 30
0.0
 11
105.0
 21
63.0
 31
0.0
  0
LINE
  5
118
  8
0
 10
105.0
 20
63.0
 30
0.0
 11
105.0
 21
73.0
 31
0.0
  0
LINE
  5
119
  8
0
 10
105.0
 20
73.0
 30
0.0
 11
105.0
 21
63.0
 31
0.0
  0
LINE
  5
11A
  8
0
 10
104.2
 20
73.0
 30
0.0
 11
104.8
 21
73.0
 31
0.0
  0
LINE
  5
11B
  8
0
 10
104.8
 20
73.0
 30
0.0
 11
105.0
 21
73.0
 31
0.0
  0
LINE
  5
11C
  8
0
 10
102.0
 20
73.0
 30
0.0
 11
103.2
 21
73.0
 31
0.0
  0
LINE
  5
11D
  8
0
 10
100.5
 20
73.0
 30
0.0
 11
102.0
 21
73.0
 31
0.0
  0
LINE
  5
11E
  8
0
 10
99.0
 20
73.0
 30
0.0
 11
100.5
 21
73.0
 31
0.0
  0
LINE
  5
11F
  8
0
 10
83.0
 20
62.0
 30
0.0
 11
83.0
 21
60.0
 31
0.0
  0
LINE
  5
120
  8
0
 10
83.0
 20
62.0
 30
0.0
 11
83.698499999999996
 21
62.0
 31
0.0
  0
LINE
  5
121
  8
0
 10
83.0
 20
62.0
 30
0.0
 11
84.068100000000001
 21
62.0
 31
0.0
  0
LINE
  5
122
  8
0
 10
81.902000000000001
 20
60.0
 30
0.0
 11
83.0
 21
60.0
 31
0.0
  0
LINE
  5
123
  8
0
 10
83.0
 20
52.8001
 30
0.0
 11
83.0
 21
2.4000000000000088
 31
0.0
  0
LINE
  5
124
  8
0
 10
81.780000000000001
 20
54.0
 30
0.0
 11
83.0
 21
52.8001
 31
0.0
  0
ENDSEC
  0
EOF
