  0
SECTION
  2
HEADER
  9
$ACADVER
  1
AC1015
  9
$ACADMAINTVER
 70
    13
  9
$DWGCODEPAGE
  3
ANSI_1252
  9
$INSBASE
 10
0.0
 20
0.0
 30
0.0
  9
$EXTMIN
 10
-0.0000000000000047
 20
-0.0000000000000092
 30
0.0
  9
$EXTMAX
 10
105.0
 20
105.0
 30
0.0
  9
$LIMMIN
 10
0.0
 20
0.0
  9
$LIMMAX
 10
12.0
 20
9.0
  9
$ORTHOMODE
 70
     0
  9
$REGENMODE
 70
     1
  9
$FILLMODE
 70
     1
  9
$QTEXTMODE
 70
     0
  9
$MIRRTEXT
 70
     1
  9
$LTSCALE
 40
1.0
  9
$ATTMODE
 70
     1
  9
$TEXTSIZE
 40
0.2
  9
$TRACEWID
 40
0.05
  9
$TEXTSTYLE
  7
Standard
  9
$CLAYER
  8
0
  9
$CELTYPE
  6
Continuous
  9
$CECOLOR
 62
   256
  9
$CELTSCALE
 40
1.0
  9
$DISPSILH
 70
     0
  9
$DIMSCALE
 40
1.0
  9
$DIMASZ
 40
0.18
  9
$DIMEXO
 40
0.0625
  9
$DIMDLI
 40
0.38
  9
$DIMRND
 40
0.0
  9
$DIMDLE
 40
0.0
  9
$DIMEXE
 40
0.18
  9
$DIMTP
 40
0.0
  9
$DIMTM
 40
0.0
  9
$DIMTXT
 40
0.18
  9
$DIMCEN
 40
0.09
  9
$DIMTSZ
 40
0.0
  9
$DIMTOL
 70
     0
  9
$DIMLIM
 70
     0
  9
$DIMTIH
 70
     1
  9
$DIMTOH
 70
     1
  9
$DIMSE1
 70
     0
  9
$DIMSE2
 70
     0
  9
$DIMTAD
 70
     0
  9
$DIMZIN
 70
     0
  9
$DIMBLK
  1

  9
$DIMASO
 70
     1
  9
$DIMSHO
 70
     1
  9
$DIMPOST
  1

  9
$DIMAPOST
  1

  9
$DIMALT
 70
     0
  9
$DIMALTD
 70
     2
  9
$DIMALTF
 40
25.4
  9
$DIMLFAC
 40
1.0
  9
$DIMTOFL
 70
     0
  9
$DIMTVP
 40
0.0
  9
$DIMTIX
 70
     0
  9
$DIMSOXD
 70
     0
  9
$DIMSAH
 70
     0
  9
$DIMBLK1
  1

  9
$DIMBLK2
  1

  9
$DIMSTYLE
  2
Standard
  9
$DIMCLRD
 70
     0
  9
$DIMCLRE
 70
     0
  9
$DIMCLRT
 70
     0
  9
$DIMTFAC
 40
1.0
  9
$DIMGAP
 40
0.09
  9
$DIMJUST
 70
     0
  9
$DIMSD1
 70
     0
  9
$DIMSD2
 70
     0
  9
$DIMTOLJ
 70
     1
  9
$DIMTZIN
 70
     0
  9
$DIMALTZ
 70
     0
  9
$DIMALTTZ
 70
     0
  9
$DIMUPT
 70
     0
  9
$DIMDEC
 70
     4
  9
$DIMTDEC
 70
     4
  9
$DIMALTU
 70
     2
  9
$DIMALTTD
 70
     2
  9
$DIMTXSTY
  7
Standard
  9
$DIMAUNIT
 70
     0
  9
$DIMADEC
 70
     0
  9
$DIMALTRND
 40
0.0
  9
$DIMAZIN
 70
     0
  9
$DIMDSEP
 70
    46
  9
$DIMATFIT
 70
     3
  9
$DIMFRAC
 70
     0
  9
$DIMLDRBLK
  1

  9
$DIMLUNIT
 70
     2
  9
$DIMLWD
 70
    -2
  9
$DIMLWE
 70
    -2
  9
$DIMTMOVE
 70
     0
  9
$LUNITS
 70
     2
  9
$LUPREC
 70
     4
  9
$SKETCHINC
 40
0.1
  9
$FILLETRAD
 40
0.0
  9
$AUNITS
 70
     0
  9
$AUPREC
 70
     0
  9
$MENU
  1
.
  9
$ELEVATION
 40
0.0
  9
$PELEVATION
 40
0.0
  9
$THICKNESS
 40
0.0
  9
$LIMCHECK
 70
     0
  9
$CHAMFERA
 40
0.0
  9
$CHAMFERB
 40
0.0
  9
$CHAMFERC
 40
0.0
  9
$CHAMFERD
 40
0.0
  9
$SKPOLY
 70
     0
  9
$TDCREATE
 40
2454637.703405463
  9
$TDUCREATE
 40
2454637.620072130
  9
$TDUPDATE
 40
2454637.705201423
  9
$TDUUPDATE
 40
2454637.621868090
  9
$TDINDWG
 40
0.0017959606
  9
$TDUSRTIMER
 40
0.0017959606
  9
$USRTIMER
 70
     1
  9
$ANGBASE
 50
0.0
  9
$ANGDIR
 70
     0
  9
$PDMODE
 70
     0
  9
$PDSIZE
 40
0.0
  9
$PLINEWID
 40
0.0
  9
$SPLFRAME
 70
     0
  9
$SPLINETYPE
 70
     6
  9
$SPLINESEGS
 70
     8
  9
$HANDSEED
  5
19E
  9
$SURFTAB1
 70
     6
  9
$SURFTAB2
 70
     6
  9
$SURFTYPE
 70
     6
  9
$SURFU
 70
     6
  9
$SURFV
 70
     6
  9
$UCSBASE
  2

  9
$UCSNAME
  2

  9
$UCSORG
 10
0.0
 20
0.0
 30
0.0
  9
$UCSXDIR
 10
1.0
 20
0.0
 30
0.0
  9
$UCSYDIR
 10
0.0
 20
1.0
 30
0.0
  9
$UCSORTHOREF
  2

  9
$UCSORTHOVIEW
 70
     1
  9
$UCSORGTOP
 10
0.0
 20
0.0
 30
0.0
  9
$UCSORGBOTTOM
 10
0.0
 20
0.0
 30
0.0
  9
$UCSORGLEFT
 10
0.0
 20
0.0
 30
0.0
  9
$UCSORGRIGHT
 10
0.0
 20
0.0
 30
0.0
  9
$UCSORGFRONT
 10
0.0
 20
0.0
 30
0.0
  9
$UCSORGBACK
 10
0.0
 20
0.0
 30
0.0
  9
$PUCSBASE
  2

  9
$PUCSNAME
  2

  9
$PUCSORG
 10
0.0
 20
0.0
 30
0.0
  9
$PUCSXDIR
 10
1.0
 20
0.0
 30
0.0
  9
$PUCSYDIR
 10
0.0
 20
1.0
 30
0.0
  9
$PUCSORTHOREF
  2

  9
$PUCSORTHOVIEW
 70
     0
  9
$PUCSORGTOP
 10
0.0
 20
0.0
 30
0.0
  9
$PUCSORGBOTTOM
 10
0.0
 20
0.0
 30
0.0
  9
$PUCSORGLEFT
 10
0.0
 20
0.0
 30
0.0
  9
$PUCSORGRIGHT
 10
0.0
 20
0.0
 30
0.0
  9
$PUCSORGFRONT
 10
0.0
 20
0.0
 30
0.0
  9
$PUCSORGBACK
 10
0.0
 20
0.0
 30
0.0
  9
$USERI1
 70
     0
  9
$USERI2
 70
     0
  9
$USERI3
 70
     0
  9
$USERI4
 70
     0
  9
$USERI5
 70
     0
  9
$USERR1
 40
0.0
  9
$USERR2
 40
0.0
  9
$USERR3
 40
0.0
  9
$USERR4
 40
0.0
  9
$USERR5
 40
0.0
  9
$WORLDVIEW
 70
     1
  9
$SHADEDGE
 70
     3
  9
$SHADEDIF
 70
    70
  9
$TILEMODE
 70
     1
  9
$MAXACTVP
 70
    64
  9
$PINSBASE
 10
0.0
 20
0.0
 30
0.0
  9
$PLIMCHECK
 70
     0
  9
$PEXTMIN
 10
1.000000000000000E+20
 20
1.000000000000000E+20
 30
1.000000000000000E+20
  9
$PEXTMAX
 10
-1.000000000000000E+20
 20
-1.000000000000000E+20
 30
-1.000000000000000E+20
  9
$PLIMMIN
 10
0.0
 20
0.0
  9
$PLIMMAX
 10
12.0
 20
9.0
  9
$UNITMODE
 70
     0
  9
$VISRETAIN
 70
     1
  9
$PLINEGEN
 70
     0
  9
$PSLTSCALE
 70
     1
  9
$TREEDEPTH
 70
  3020
  9
$CMLSTYLE
  2
Standard
  9
$CMLJUST
 70
     0
  9
$CMLSCALE
 40
1.0
  9
$PROXYGRAPHICS
 70
     1
  9
$MEASUREMENT
 70
     0
  9
$CELWEIGHT
370
    -1
  9
$ENDCAPS
280
     0
  9
$JOINSTYLE
280
     0
  9
$LWDISPLAY
290
     0
  9
$INSUNITS
 70
     0
  9
$HYPERLINKBASE
  1

  9
$STYLESHEET
  1

  9
$XEDIT
290
     1
  9
$CEPSNTYPE
380
     0
  9
$PSTYLEMODE
290
     1
  9
$FINGERPRINTGUID
  2
{31A19397-3FCB-4251-84EF-337953F7C81E}
  9
$VERSIONGUID
  2
{B0B5A3CD-C668-4632-A6B6-F0A12EE125CA}
  9
$EXTNAMES
290
     1
  9
$PSVPSCALE
 40
0.0
  9
$OLESTARTUP
290
     0
  0
ENDSEC
  0
SECTION
  2
CLASSES
  0
CLASS
  1
ACDBDICTIONARYWDFLT
  2
AcDbDictionaryWithDefault
  3
AutoCAD 2000
 90
        0
280
     0
281
     0
  0
CLASS
  1
ACDBPLACEHOLDER
  2
AcDbPlaceHolder
  3
AutoCAD 2000
 90
        0
280
     0
281
     0
  0
CLASS
  1
LAYOUT
  2
AcDbLayout
  3
AutoCAD 2000
 90
        0
280
     0
281
     0
  0
CLASS
  1
DICTIONARYVAR
  2
AcDbDictionaryVar
  3
AutoCAD 2000
 90
        0
280
     0
281
     0
  0
ENDSEC
  0
SECTION
  2
TABLES
  0
TABLE
  2
VPORT
  5
8
330
0
100
AcDbSymbolTable
 70
     3
  0
VPORT
  5
19D
330
8
100
AcDbSymbolTableRecord
100
AcDbViewportTableRecord
  2
*Active
 70
     0
 10
0.0
 20
0.0
 11
1.0
 21
1.0
 12
52.5
 22
52.5
 13
0.0
 23
0.0
 14
1.0
 24
1.0
 15
0.0
 25
0.0
 16
0.0
 26
0.0
 36
1.0
 17
0.0
 27
0.0
 37
0.0
 40
105.8056265984654
 41
2.043533930857874
 42
50.0
 43
0.0
 44
0.0
 50
0.0
 51
0.0
 71
     0
 72
   100
 73
     1
 74
     3
 75
     0
 76
     0
 77
     0
 78
     0
281
     0
 65
     1
110
0.0
120
0.0
130
0.0
111
1.0
121
0.0
131
0.0
112
0.0
122
1.0
132
0.0
 79
     1
146
0.0
  0
ENDTAB
  0
TABLE
  2
LTYPE
  5
5
330
0
100
AcDbSymbolTable
 70
     1
  0
LTYPE
  5
13
330
5
100
AcDbSymbolTableRecord
100
AcDbLinetypeTableRecord
  2
ByBlock
 70
     0
  3

 72
    65
 73
     0
 40
0.0
  0
LTYPE
  5
14
330
5
100
AcDbSymbolTableRecord
100
AcDbLinetypeTableRecord
  2
ByLayer
 70
     0
  3

 72
    65
 73
     0
 40
0.0
  0
LTYPE
  5
15
330
5
100
AcDbSymbolTableRecord
100
AcDbLinetypeTableRecord
  2
Continuous
 70
     0
  3
Solid line
 72
    65
 73
     0
 40
0.0
  0
ENDTAB
  0
TABLE
  2
LAYER
  5
2
330
0
100
AcDbSymbolTable
 70
     1
  0
LAYER
  5
10
330
2
100
AcDbSymbolTableRecord
100
AcDbLayerTableRecord
  2
0
 70
     0
 62
     7
  6
Continuous
370
    -3
390
F
  0
ENDTAB
  0
TABLE
  2
STYLE
  5
3
330
0
100
AcDbSymbolTable
 70
     1
  0
STYLE
  5
11
330
3
100
AcDbSymbolTableRecord
100
AcDbTextStyleTableRecord
  2
Standard
 70
     0
 40
0.0
 41
1.0
 50
0.0
 71
     0
 42
0.2
  3
txt
  4

  0
ENDTAB
  0
TABLE
  2
VIEW
  5
6
330
0
100
AcDbSymbolTable
 70
     0
  0
ENDTAB
  0
TABLE
  2
UCS
  5
7
330
0
100
AcDbSymbolTable
 70
     0
  0
ENDTAB
  0
TABLE
  2
APPID
  5
9
330
0
100
AcDbSymbolTable
 70
     1
  0
APPID
  5
12
330
9
100
AcDbSymbolTableRecord
100
AcDbRegAppTableRecord
  2
ACAD
 70
     0
  0
ENDTAB
  0
TABLE
  2
DIMSTYLE
  5
A
330
0
100
AcDbSymbolTable
 70
     1
100
AcDbDimStyleTable
 71
     0
  0
DIMSTYLE
105
193
330
A
100
AcDbSymbolTableRecord
100
AcDbDimStyleTableRecord
  2
Standard
 70
     0
340
11
  0
ENDTAB
  0
TABLE
  2
BLOCK_RECORD
  5
1
330
0
100
AcDbSymbolTable
 70
     0
  0
BLOCK_RECORD
  5
1E
330
1
100
AcDbSymbolTableRecord
100
AcDbBlockTableRecord
  2
*Model_Space
340
21
  0
BLOCK_RECORD
  5
1A
330
1
100
AcDbSymbolTableRecord
100
AcDbBlockTableRecord
  2
*Paper_Space
340
1D
  0
ENDTAB
  0
ENDSEC
  0
SECTION
  2
BLOCKS
  0
BLOCK
  5
1F
330
1E
100
AcDbEntity
  8
0
100
AcDbBlockBegin
  2
*Model_Space
 70
     0
 10
0.0
 20
0.0
 30
0.0
  3
*Model_Space
  1

  0
ENDBLK
  5
20
330
1E
100
AcDbEntity
  8
0
100
AcDbBlockEnd
  0
BLOCK
  5
1B
330
1A
100
AcDbEntity
 67
     1
  8
0
100
AcDbBlockBegin
  2
*Paper_Space
 70
     0
 10
0.0
 20
0.0
 30
0.0
  3
*Paper_Space
  1

  0
ENDBLK
  5
1C
330
1A
100
AcDbEntity
 67
     1
  8
0
100
AcDbBlockEnd
  0
ENDSEC
  0
SECTION
  2
ENTITIES
  0
LINE
  5
22
330
1E
100
AcDbEntity
  8
0
100
AcDbLine
 10
6.0
 20
-0.0000000000000092
 30
0.0
 11
52.5
 21
-0.0000000000000092
 31
0.0
  0
LINE
  5
23
330
1E
100
AcDbEntity
  8
0
100
AcDbLine
 10
0.199999999999995
 20
4.49999999999999
 30
0.0
 11
0.799999999999995
 21
2.99999999999999
 31
0.0
  0
LINE
  5
24
330
1E
100
AcDbEntity
  8
0
100
AcDbLine
 10
0.799999999999995
 20
2.99999999999999
 30
0.0
 11
1.8
 21
1.799999999999989
 31
0.0
  0
LINE
  5
25
330
1E
100
AcDbEntity
  8
0
100
AcDbLine
 10
1.1
 20
3.19999999999999
 30
0.0
 11
2.0
 21
1.999999999999989
 31
0.0
  0
LINE
  5
26
330
1E
100
AcDbEntity
  8
0
100
AcDbLine
 10
0.4999999999999951
 20
4.49999999999999
 30
0.0
 11
1.1
 21
3.19999999999999
 31
0.0
  0
LINE
  5
27
330
1E
100
AcDbEntity
  8
0
100
AcDbLine
 10
0.799999999999996
 20
2.99999999999999
 30
0.0
 11
1.8
 21
1.799999999999989
 31
0.0
  0
LINE
  5
28
330
1E
100
AcDbEntity
  8
0
100
AcDbLine
 10
0.199999999999995
 20
4.49999999999999
 30
0.0
 11
0.799999999999995
 21
2.99999999999999
 31
0.0
  0
LINE
  5
29
330
1E
100
AcDbEntity
  8
0
100
AcDbLine
 10
0.299999999999995
 20
5.99999999999999
 30
0.0
 11
0.299999999999995
 21
52.5
 31
0.0
  0
LINE
  5
2A
330
1E
100
AcDbEntity
  8
0
100
AcDbLine
 10
0.299999999999995
 20
5.99999999999999
 30
0.0
 11
0.4999999999999951
 21
4.49999999999999
 31
0.0
  0
LINE
  5
2B
330
1E
100
AcDbEntity
  8
0
100
AcDbLine
 10
-0.0000000000000047
 20
5.99999999999999
 30
0.0
 11
-0.0000000000000047
 21
52.5
 31
0.0
  0
LINE
  5
2C
330
1E
100
AcDbEntity
  8
0
100
AcDbLine
 10
-0.0000000000000047
 20
5.99999999999999
 30
0.0
 11
-0.0000000000000047
 21
52.5
 31
0.0
  0
LINE
  5
2D
330
1E
100
AcDbEntity
  8
0
100
AcDbLine
 10
-0.0000000000000047
 20
5.99999999999999
 30
0.0
 11
0.199999999999995
 21
4.49999999999999
 31
0.0
  0
LINE
  5
2E
330
1E
100
AcDbEntity
  8
0
100
AcDbLine
 10
2.0
 20
1.999999999999989
 30
0.0
 11
3.2
 21
1.09999999999999
 31
0.0
  0
LINE
  5
2F
330
1E
100
AcDbEntity
  8
0
100
AcDbLine
 10
1.8
 20
1.799999999999989
 30
0.0
 11
3.0
 21
0.799999999999991
 31
0.0
  0
LINE
  5
30
330
1E
100
AcDbEntity
  8
0
100
AcDbLine
 10
6.0
 20
0.299999999999992
 30
0.0
 11
52.5
 21
0.299999999999992
 31
0.0
  0
LINE
  5
31
330
1E
100
AcDbEntity
  8
0
100
AcDbLine
 10
3.2
 20
1.09999999999999
 30
0.0
 11
4.5
 21
0.499999999999992
 31
0.0
  0
LINE
  5
32
330
1E
100
AcDbEntity
  8
0
100
AcDbLine
 10
4.5
 20
0.499999999999992
 30
0.0
 11
6.0
 21
0.299999999999992
 31
0.0
  0
LINE
  5
33
330
1E
100
AcDbEntity
  8
0
100
AcDbLine
 10
6.0
 20
0.299999999999992
 30
0.0
 11
52.5
 21
0.299999999999992
 31
0.0
  0
LINE
  5
34
330
1E
100
AcDbEntity
  8
0
100
AcDbLine
 10
3.0
 20
0.799999999999991
 30
0.0
 11
4.5
 21
0.199999999999991
 31
0.0
  0
LINE
  5
35
330
1E
100
AcDbEntity
  8
0
100
AcDbLine
 10
3.0
 20
0.799999999999991
 30
0.0
 11
4.5
 21
0.199999999999991
 31
0.0
  0
LINE
  5
36
330
1E
100
AcDbEntity
  8
0
100
AcDbLine
 10
4.5
 20
0.199999999999991
 30
0.0
 11
6.0
 21
-0.0000000000000092
 31
0.0
  0
LINE
  5
37
330
1E
100
AcDbEntity
  8
0
100
AcDbLine
 10
4.5
 20
0.199999999999991
 30
0.0
 11
6.0
 21
-0.0000000000000092
 31
0.0
  0
LINE
  5
38
330
1E
100
AcDbEntity
  8
0
100
AcDbLine
 10
52.5
 20
0.299999999999992
 30
0.0
 11
99.0
 21
0.299999999999992
 31
0.0
  0
LINE
  5
39
330
1E
100
AcDbEntity
  8
0
100
AcDbLine
 10
52.5
 20
-0.0000000000000092
 30
0.0
 11
99.0
 21
-0.0000000000000092
 31
0.0
  0
LINE
  5
3A
330
1E
100
AcDbEntity
  8
0
100
AcDbLine
 10
6.0
 20
-0.0000000000000092
 30
0.0
 11
52.5
 21
-0.0000000000000092
 31
0.0
  0
LINE
  5
3B
330
1E
100
AcDbEntity
  8
0
100
AcDbLine
 10
44.69199999999999
 20
23.098
 30
0.0
 11
52.5
 21
22.0
 31
0.0
  0
LINE
  5
3C
330
1E
100
AcDbEntity
  8
0
100
AcDbLine
 10
44.69199999999999
 20
23.098
 30
0.0
 11
52.5
 21
22.0
 31
0.0
  0
LINE
  5
3D
330
1E
100
AcDbEntity
  8
0
100
AcDbLine
 10
16.9923
 20
23.8012
 30
0.0
 11
19.1243
 21
24.1084
 31
0.0
  0
LINE
  5
3E
330
1E
100
AcDbEntity
  8
0
100
AcDbLine
 10
19.1877
 20
23.7986
 30
0.0
 11
21.243
 21
24.6388
 31
0.0
  0
LINE
  5
3F
330
1E
100
AcDbEntity
  8
0
100
AcDbLine
 10
17.0557
 20
23.49139999999999
 30
0.0
 11
19.1877
 21
23.7986
 31
0.0
  0
LINE
  5
40
330
1E
100
AcDbEntity
  8
0
100
AcDbLine
 10
17.0155
 20
24.161
 30
0.0
 11
19.0609
 21
24.41819999999999
 31
0.0
  0
LINE
  5
41
330
1E
100
AcDbEntity
  8
0
100
AcDbLine
 10
19.0609
 20
24.41819999999999
 30
0.0
 11
20.943
 21
25.1584
 31
0.0
  0
LINE
  5
42
330
1E
100
AcDbEntity
  8
0
100
AcDbLine
 10
14.9432
 20
24.3503
 30
0.0
 11
17.0155
 21
24.161
 31
0.0
  0
LINE
  5
43
330
1E
100
AcDbEntity
  8
0
100
AcDbLine
 10
21.243
 20
24.6388
 30
0.0
 11
22.99819999999999
 21
25.9986
 31
0.0
  0
LINE
  5
44
330
1E
100
AcDbEntity
  8
0
100
AcDbLine
 10
19.1243
 20
24.1084
 30
0.0
 11
21.093
 21
24.8986
 31
0.0
  0
LINE
  5
45
330
1E
100
AcDbEntity
  8
0
100
AcDbLine
 10
14.87
 20
24.0771
 30
0.0
 11
16.9923
 21
23.8012
 31
0.0
  0
LINE
  5
46
330
1E
100
AcDbEntity
  8
0
100
AcDbLine
 10
14.7968
 20
23.8038
 30
0.0
 11
17.0557
 21
23.49139999999999
 31
0.0
  0
LINE
  5
47
330
1E
100
AcDbEntity
  8
0
100
AcDbLine
 10
20.943
 20
25.1584
 30
0.0
 11
22.52499999999999
 21
26.4182
 31
0.0
  0
LINE
  5
48
330
1E
100
AcDbEntity
  8
0
100
AcDbLine
 10
21.093
 20
24.8986
 30
0.0
 11
22.7616
 21
26.2084
 31
0.0
  0
LINE
  5
49
330
1E
100
AcDbEntity
  8
0
100
AcDbLine
 10
22.99819999999999
 20
25.9986
 30
0.0
 11
24.3303
 21
27.6914
 31
0.0
  0
LINE
  5
4A
330
1E
100
AcDbEntity
  8
0
100
AcDbLine
 10
13.054
 20
25.2225
 30
0.0
 11
14.9432
 21
24.3503
 31
0.0
  0
LINE
  5
4B
330
1E
100
AcDbEntity
  8
0
100
AcDbLine
 10
12.8942
 20
24.8993
 30
0.0
 11
14.87
 21
24.0771
 31
0.0
  0
LINE
  5
4C
330
1E
100
AcDbEntity
  8
0
100
AcDbLine
 10
12.6844
 20
24.6627
 30
0.0
 11
14.7968
 21
23.8038
 31
0.0
  0
LINE
  5
4D
330
1E
100
AcDbEntity
  8
0
100
AcDbLine
 10
10.9916
 20
25.9947
 30
0.0
 11
12.6844
 21
24.6627
 31
0.0
  0
LINE
  5
4E
330
1E
100
AcDbEntity
  8
0
100
AcDbLine
 10
22.52499999999999
 20
26.4182
 30
0.0
 11
23.7705
 21
28.061
 31
0.0
  0
LINE
  5
4F
330
1E
100
AcDbEntity
  8
0
100
AcDbLine
 10
22.7616
 20
26.2084
 30
0.0
 11
24.0937
 21
27.90119999999999
 31
0.0
  0
LINE
  5
50
330
1E
100
AcDbEntity
  8
0
100
AcDbLine
 10
11.41119999999999
 20
26.4679
 30
0.0
 11
13.054
 21
25.2225
 31
0.0
  0
LINE
  5
51
330
1E
100
AcDbEntity
  8
0
100
AcDbLine
 10
11.20139999999999
 20
26.2313
 30
0.0
 11
12.8942
 21
24.8993
 31
0.0
  0
LINE
  5
52
330
1E
100
AcDbEntity
  8
0
100
AcDbLine
 10
37.372
 20
26.026
 30
0.0
 11
44.69199999999999
 21
23.098
 31
0.0
  0
LINE
  5
53
330
1E
100
AcDbEntity
  8
0
100
AcDbLine
 10
44.936
 20
24.318
 30
0.0
 11
52.5
 21
23.22
 31
0.0
  0
LINE
  5
54
330
1E
100
AcDbEntity
  8
0
100
AcDbLine
 10
37.86
 20
27.124
 30
0.0
 11
44.936
 21
24.318
 31
0.0
  0
LINE
  5
55
330
1E
100
AcDbEntity
  8
0
100
AcDbLine
 10
37.86
 20
27.124
 30
0.0
 11
44.936
 21
24.318
 31
0.0
  0
LINE
  5
56
330
1E
100
AcDbEntity
  8
0
100
AcDbLine
 10
37.372
 20
26.026
 30
0.0
 11
44.69199999999999
 21
23.098
 31
0.0
  0
LINE
  5
57
330
1E
100
AcDbEntity
  8
0
100
AcDbLine
 10
52.5
 20
23.22
 30
0.0
 11
60.06399999999999
 21
24.318
 31
0.0
  0
LINE
  5
58
330
1E
100
AcDbEntity
  8
0
100
AcDbLine
 10
60.06399999999999
 20
24.318
 30
0.0
 11
67.14
 21
27.124
 31
0.0
  0
LINE
  5
59
330
1E
100
AcDbEntity
  8
0
100
AcDbLine
 10
52.5
 20
22.0
 30
0.0
 11
60.308
 21
23.098
 31
0.0
  0
LINE
  5
5A
330
1E
100
AcDbEntity
  8
0
100
AcDbLine
 10
60.308
 20
23.098
 30
0.0
 11
67.628
 21
26.026
 31
0.0
  0
LINE
  5
5B
330
1E
100
AcDbEntity
  8
0
100
AcDbLine
 10
52.5
 20
22.0
 30
0.0
 11
60.308
 21
23.098
 31
0.0
  0
LINE
  5
5D
330
1E
100
AcDbEntity
  8
0
100
AcDbLine
 10
60.308
 20
23.098
 30
0.0
 11
67.628
 21
26.026
 31
0.0
  0
LINE
  5
5E
330
1E
100
AcDbEntity
  8
0
100
AcDbLine
 10
9.41117
 20
29.93209999999999
 30
0.0
 11
10.1514
 21
28.05
 31
0.0
  0
LINE
  5
5F
330
1E
100
AcDbEntity
  8
0
100
AcDbLine
 10
9.101360000000001
 20
29.8687
 30
0.0
 11
9.89155
 21
27.9
 31
0.0
  0
LINE
  5
60
330
1E
100
AcDbEntity
  8
0
100
AcDbLine
 10
8.79155
 20
29.80529999999999
 30
0.0
 11
9.631739999999998
 21
27.75
 31
0.0
  0
LINE
  5
61
330
1E
100
AcDbEntity
  8
0
100
AcDbLine
 10
24.3303
 20
27.6914
 30
0.0
 11
25.18909999999999
 21
29.8038
 31
0.0
  0
LINE
  5
62
330
1E
100
AcDbEntity
  8
0
100
AcDbLine
 10
23.7705
 20
28.061
 30
0.0
 11
24.6427
 21
29.95029999999999
 31
0.0
  0
LINE
  5
63
330
1E
100
AcDbEntity
  8
0
100
AcDbLine
 10
24.0937
 20
27.90119999999999
 30
0.0
 11
24.9159
 21
29.87709999999999
 31
0.0
  0
LINE
  5
64
330
1E
100
AcDbEntity
  8
0
100
AcDbLine
 10
24.6427
 20
29.95029999999999
 30
0.0
 11
24.8319
 21
32.0225
 31
0.0
  0
LINE
  5
65
330
1E
100
AcDbEntity
  8
0
100
AcDbLine
 10
24.9159
 20
29.87709999999999
 30
0.0
 11
25.1917
 21
31.9993
 31
0.0
  0
LINE
  5
66
330
1E
100
AcDbEntity
  8
0
100
AcDbLine
 10
25.18909999999999
 20
29.8038
 30
0.0
 11
25.5015
 21
32.06269999999999
 31
0.0
  0
LINE
  5
67
330
1E
100
AcDbEntity
  8
0
100
AcDbLine
 10
10.1514
 20
28.05
 30
0.0
 11
11.41119999999999
 21
26.4679
 31
0.0
  0
LINE
  5
68
330
1E
100
AcDbEntity
  8
0
100
AcDbLine
 10
9.89155
 20
27.9
 30
0.0
 11
11.20139999999999
 21
26.2313
 31
0.0
  0
LINE
  5
69
330
1E
100
AcDbEntity
  8
0
100
AcDbLine
 10
9.631739999999998
 20
27.75
 30
0.0
 11
10.9916
 21
25.9947
 31
0.0
  0
LINE
  5
6A
330
1E
100
AcDbEntity
  8
0
100
AcDbLine
 10
30.906
 20
30.906
 30
0.0
 11
37.372
 21
26.026
 31
0.0
  0
LINE
  5
6C
330
1E
100
AcDbEntity
  8
0
100
AcDbLine
 10
67.14
 20
27.124
 30
0.0
 11
73.11799999999999
 21
31.882
 31
0.0
  0
LINE
  5
6D
330
1E
100
AcDbEntity
  8
0
100
AcDbLine
 10
67.14
 20
27.124
 30
0.0
 11
73.11799999999999
 21
31.882
 31
0.0
  0
LINE
  5
6E
330
1E
100
AcDbEntity
  8
0
100
AcDbLine
 10
74.09399999999999
 20
30.906
 30
0.0
 11
78.97399999999999
 21
37.372
 31
0.0
  0
LINE
  5
70
330
1E
100
AcDbEntity
  8
0
100
AcDbLine
 10
67.628
 20
26.026
 30
0.0
 11
74.09399999999999
 21
30.906
 31
0.0
  0
LINE
  5
72
330
1E
100
AcDbEntity
  8
0
100
AcDbLine
 10
31.882
 20
31.882
 30
0.0
 11
37.86
 21
27.124
 31
0.0
  0
LINE
  5
73
330
1E
100
AcDbEntity
  8
0
100
AcDbLine
 10
9.15399
 20
31.9775
 30
0.0
 11
9.41117
 21
29.93209999999999
 31
0.0
  0
LINE
  5
74
330
1E
100
AcDbEntity
  8
0
100
AcDbLine
 10
9.15399
 20
31.9775
 30
0.0
 11
9.34322
 21
34.0497
 31
0.0
  0
LINE
  5
75
330
1E
100
AcDbEntity
  8
0
100
AcDbLine
 10
8.79681
 20
34.1962
 30
0.0
 11
9.655649999999999
 21
36.3086
 31
0.0
  0
LINE
  5
76
330
1E
100
AcDbEntity
  8
0
100
AcDbLine
 10
10.2155
 20
35.939
 30
0.0
 11
11.4609
 21
37.5818
 31
0.0
  0
LINE
  5
77
330
1E
100
AcDbEntity
  8
0
100
AcDbLine
 10
9.34322
 20
34.0497
 30
0.0
 11
10.2155
 21
35.939
 31
0.0
  0
LINE
  5
78
330
1E
100
AcDbEntity
  8
0
100
AcDbLine
 10
11.4609
 20
37.5818
 30
0.0
 11
13.043
 21
38.84159999999999
 31
0.0
  0
LINE
  5
79
330
1E
100
AcDbEntity
  8
0
100
AcDbLine
 10
11.2243
 20
37.7916
 30
0.0
 11
12.89299999999999
 21
39.1014
 31
0.0
  0
LINE
  5
7A
330
1E
100
AcDbEntity
  8
0
100
AcDbLine
 10
10.9877
 20
38.00139999999999
 30
0.0
 11
12.743
 21
39.36119999999999
 31
0.0
  0
LINE
  5
7B
330
1E
100
AcDbEntity
  8
0
100
AcDbLine
 10
9.655649999999999
 20
36.3086
 30
0.0
 11
10.9877
 21
38.00139999999999
 31
0.0
  0
LINE
  5
7C
330
1E
100
AcDbEntity
  8
0
100
AcDbLine
 10
9.89225
 20
36.09879999999999
 30
0.0
 11
11.2243
 21
37.7916
 31
0.0
  0
LINE
  5
7D
330
1E
100
AcDbEntity
  8
0
100
AcDbLine
 10
9.070009999999999
 20
34.1229
 30
0.0
 11
9.89225
 21
36.09879999999999
 31
0.0
  0
LINE
  5
7E
330
1E
100
AcDbEntity
  8
0
100
AcDbLine
 10
8.79418
 20
32.0007
 30
0.0
 11
9.101360000000001
 21
29.8687
 31
0.0
  0
LINE
  5
7F
330
1E
100
AcDbEntity
  8
0
100
AcDbLine
 10
8.79418
 20
32.0007
 30
0.0
 11
9.070009999999999
 21
34.1229
 31
0.0
  0
LINE
  5
80
330
1E
100
AcDbEntity
  8
0
100
AcDbLine
 10
8.48437
 20
31.9373
 30
0.0
 11
8.79155
 21
29.80529999999999
 31
0.0
  0
LINE
  5
81
330
1E
100
AcDbEntity
  8
0
100
AcDbLine
 10
8.48437
 20
31.9373
 30
0.0
 11
8.79681
 21
34.1962
 31
0.0
  0
LINE
  5
82
330
1E
100
AcDbEntity
  8
0
100
AcDbLine
 10
13.043
 20
38.84159999999999
 30
0.0
 11
14.925
 21
39.5818
 31
0.0
  0
LINE
  5
83
330
1E
100
AcDbEntity
  8
0
100
AcDbLine
 10
20.93189999999999
 20
38.7775
 30
0.0
 11
22.5748
 21
37.5321
 31
0.0
  0
LINE
  5
84
330
1E
100
AcDbEntity
  8
0
100
AcDbLine
 10
12.89299999999999
 20
39.1014
 30
0.0
 11
14.86159999999999
 21
39.8916
 31
0.0
  0
LINE
  5
85
330
1E
100
AcDbEntity
  8
0
100
AcDbLine
 10
12.743
 20
39.36119999999999
 30
0.0
 11
14.7982
 21
40.2014
 31
0.0
  0
LINE
  5
86
330
1E
100
AcDbEntity
  8
0
100
AcDbLine
 10
14.925
 20
39.5818
 30
0.0
 11
16.9705
 21
39.839
 31
0.0
  0
LINE
  5
87
330
1E
100
AcDbEntity
  8
0
100
AcDbLine
 10
16.9705
 20
39.839
 30
0.0
 11
19.0427
 21
39.6497
 31
0.0
  0
LINE
  5
88
330
1E
100
AcDbEntity
  8
0
100
AcDbLine
 10
19.0427
 20
39.6497
 30
0.0
 11
20.93189999999999
 21
38.7775
 31
0.0
  0
LINE
  5
89
330
1E
100
AcDbEntity
  8
0
100
AcDbLine
 10
14.86159999999999
 20
39.8916
 30
0.0
 11
16.9937
 21
40.19879999999999
 31
0.0
  0
LINE
  5
8A
330
1E
100
AcDbEntity
  8
0
100
AcDbLine
 10
14.7982
 20
40.2014
 30
0.0
 11
16.9303
 21
40.5086
 31
0.0
  0
LINE
  5
8B
330
1E
100
AcDbEntity
  8
0
100
AcDbLine
 10
16.9937
 20
40.19879999999999
 30
0.0
 11
19.1159
 21
39.9229
 31
0.0
  0
LINE
  5
8C
330
1E
100
AcDbEntity
  8
0
100
AcDbLine
 10
16.9303
 20
40.5086
 30
0.0
 11
19.1891
 21
40.19619999999999
 31
0.0
  0
LINE
  5
8D
330
1E
100
AcDbEntity
  8
0
100
AcDbLine
 10
19.1159
 20
39.9229
 30
0.0
 11
21.0917
 21
39.1007
 31
0.0
  0
LINE
  5
8E
330
1E
100
AcDbEntity
  8
0
100
AcDbLine
 10
19.1891
 20
40.19619999999999
 30
0.0
 11
21.30149999999999
 21
39.3373
 31
0.0
  0
LINE
  5
8F
330
1E
100
AcDbEntity
  8
0
100
AcDbLine
 10
21.0917
 20
39.1007
 30
0.0
 11
22.7846
 21
37.7687
 31
0.0
  0
LINE
  5
90
330
1E
100
AcDbEntity
  8
0
100
AcDbLine
 10
21.30149999999999
 20
39.3373
 30
0.0
 11
22.9944
 21
38.0053
 31
0.0
  0
LINE
  5
91
330
1E
100
AcDbEntity
  8
0
100
AcDbLine
 10
0.299999999999995
 20
52.5
 30
0.0
 11
0.299999999999995
 21
5.99999999999999
 31
0.0
  0
LINE
  5
92
330
1E
100
AcDbEntity
  8
0
100
AcDbLine
 10
0.299999999999995
 20
52.5
 30
0.0
 11
0.299999999999995
 21
99.0
 31
0.0
  0
LINE
  5
93
330
1E
100
AcDbEntity
  8
0
100
AcDbLine
 10
-0.0000000000000047
 20
52.5
 30
0.0
 11
-0.0000000000000047
 21
5.99999999999999
 31
0.0
  0
LINE
  5
94
330
1E
100
AcDbEntity
  8
0
100
AcDbLine
 10
-0.0000000000000047
 20
52.5
 30
0.0
 11
-0.0000000000000047
 21
99.0
 31
0.0
  0
LINE
  5
95
330
1E
100
AcDbEntity
  8
0
100
AcDbLine
 10
22.5748
 20
37.5321
 30
0.0
 11
23.83459999999999
 21
35.95
 31
0.0
  0
LINE
  5
96
330
1E
100
AcDbEntity
  8
0
100
AcDbLine
 10
22.9944
 20
38.0053
 30
0.0
 11
24.3542
 21
36.25
 31
0.0
  0
LINE
  5
97
330
1E
100
AcDbEntity
  8
0
100
AcDbLine
 10
22.7846
 20
37.7687
 30
0.0
 11
24.0944
 21
36.1
 31
0.0
  0
LINE
  5
98
330
1E
100
AcDbEntity
  8
0
100
AcDbLine
 10
23.098
 20
44.69199999999999
 30
0.0
 11
26.026
 21
37.372
 31
0.0
  0
LINE
  5
99
330
1E
100
AcDbEntity
  8
0
100
AcDbLine
 10
23.83459999999999
 20
35.95
 30
0.0
 11
24.5748
 21
34.0679
 31
0.0
  0
LINE
  5
9A
330
1E
100
AcDbEntity
  8
0
100
AcDbLine
 10
24.5748
 20
34.0679
 30
0.0
 11
24.8319
 21
32.0225
 31
0.0
  0
LINE
  5
9B
330
1E
100
AcDbEntity
  8
0
100
AcDbLine
 10
25.1944
 20
34.1947
 30
0.0
 11
25.5015
 21
32.06269999999999
 31
0.0
  0
LINE
  5
9C
330
1E
100
AcDbEntity
  8
0
100
AcDbLine
 10
24.88459999999999
 20
34.1313
 30
0.0
 11
25.1917
 21
31.9993
 31
0.0
  0
LINE
  5
9D
330
1E
100
AcDbEntity
  8
0
100
AcDbLine
 10
24.3542
 20
36.25
 30
0.0
 11
25.1944
 21
34.1947
 31
0.0
  0
LINE
  5
9E
330
1E
100
AcDbEntity
  8
0
100
AcDbLine
 10
24.0944
 20
36.1
 30
0.0
 11
24.88459999999999
 21
34.1313
 31
0.0
  0
LINE
  5
9F
330
1E
100
AcDbEntity
  8
0
100
AcDbLine
 10
24.318
 20
44.936
 30
0.0
 11
27.124
 21
37.86
 31
0.0
  0
LINE
  5
A0
330
1E
100
AcDbEntity
  8
0
100
AcDbLine
 10
24.318
 20
60.06399999999999
 30
0.0
 11
27.124
 21
67.14
 31
0.0
  0
LINE
  5
A1
330
1E
100
AcDbEntity
  8
0
100
AcDbLine
 10
23.22
 20
52.5
 30
0.0
 11
24.318
 21
44.936
 31
0.0
  0
LINE
  5
A2
330
1E
100
AcDbEntity
  8
0
100
AcDbLine
 10
23.22
 20
52.5
 30
0.0
 11
24.318
 21
60.06399999999999
 31
0.0
  0
LINE
  5
A3
330
1E
100
AcDbEntity
  8
0
100
AcDbLine
 10
27.124
 20
37.86
 30
0.0
 11
31.882
 21
31.882
 31
0.0
  0
LINE
  5
A6
330
1E
100
AcDbEntity
  8
0
100
AcDbLine
 10
26.026
 20
37.372
 30
0.0
 11
30.906
 21
30.906
 31
0.0
  0
LINE
  5
A7
330
1E
100
AcDbEntity
  8
0
100
AcDbLine
 10
23.098
 20
44.69199999999999
 30
0.0
 11
26.026
 21
37.372
 31
0.0
  0
LINE
  5
A8
330
1E
100
AcDbEntity
  8
0
100
AcDbLine
 10
23.098
 20
44.69199999999999
 30
0.0
 11
26.026
 21
37.372
 31
0.0
  0
LINE
  5
A9
330
1E
100
AcDbEntity
  8
0
100
AcDbLine
 10
31.882
 20
73.11799999999999
 30
0.0
 11
37.86
 21
77.87600000000001
 31
0.0
  0
LINE
  5
AA
330
1E
100
AcDbEntity
  8
0
100
AcDbLine
 10
27.124
 20
67.14
 30
0.0
 11
31.882
 21
73.11799999999999
 31
0.0
  0
LINE
  5
AB
330
1E
100
AcDbEntity
  8
0
100
AcDbLine
 10
30.906
 20
74.09399999999999
 30
0.0
 11
37.372
 21
78.97399999999999
 31
0.0
  0
LINE
  5
AC
330
1E
100
AcDbEntity
  8
0
100
AcDbLine
 10
37.86
 20
77.87600000000001
 30
0.0
 11
44.936
 21
80.682
 31
0.0
  0
LINE
  5
AF
330
1E
100
AcDbEntity
  8
0
100
AcDbLine
 10
26.026
 20
67.628
 30
0.0
 11
30.906
 21
74.09399999999999
 31
0.0
  0
LINE
  5
B0
330
1E
100
AcDbEntity
  8
0
100
AcDbLine
 10
23.098
 20
60.308
 30
0.0
 11
26.026
 21
67.628
 31
0.0
  0
LINE
  5
B1
330
1E
100
AcDbEntity
  8
0
100
AcDbLine
 10
22.0
 20
52.5
 30
0.0
 11
23.098
 21
60.308
 31
0.0
  0
LINE
  5
B2
330
1E
100
AcDbEntity
  8
0
100
AcDbLine
 10
22.0
 20
52.5
 30
0.0
 11
23.098
 21
44.69199999999999
 31
0.0
  0
LINE
  5
B3
330
1E
100
AcDbEntity
  8
0
100
AcDbLine
 10
37.372
 20
78.97399999999999
 30
0.0
 11
44.69199999999999
 21
81.902
 31
0.0
  0
LINE
  5
B4
330
1E
100
AcDbEntity
  8
0
100
AcDbLine
 10
67.14
 20
77.87600000000001
 30
0.0
 11
73.11799999999999
 21
73.11799999999999
 31
0.0
  0
LINE
  5
B5
330
1E
100
AcDbEntity
  8
0
100
AcDbLine
 10
73.11799999999999
 20
73.11799999999999
 30
0.0
 11
77.87600000000001
 21
67.14
 31
0.0
  0
LINE
  5
B6
330
1E
100
AcDbEntity
  8
0
100
AcDbLine
 10
44.936
 20
80.682
 30
0.0
 11
52.5
 21
81.78
 31
0.0
  0
LINE
  5
B7
330
1E
100
AcDbEntity
  8
0
100
AcDbLine
 10
0.299999999999995
 20
99.0
 30
0.0
 11
0.4999999999999951
 21
100.5
 31
0.0
  0
LINE
  5
B8
330
1E
100
AcDbEntity
  8
0
100
AcDbLine
 10
0.299999999999995
 20
99.0
 30
0.0
 11
0.299999999999995
 21
52.5
 31
0.0
  0
LINE
  5
B9
330
1E
100
AcDbEntity
  8
0
100
AcDbLine
 10
0.199999999999995
 20
100.5
 30
0.0
 11
0.799999999999995
 21
102.0
 31
0.0
  0
LINE
  5
BA
330
1E
100
AcDbEntity
  8
0
100
AcDbLine
 10
0.799999999999996
 20
102.0
 30
0.0
 11
1.8
 21
103.2
 31
0.0
  0
LINE
  5
BB
330
1E
100
AcDbEntity
  8
0
100
AcDbLine
 10
1.1
 20
101.8
 30
0.0
 11
2.0
 21
103.0
 31
0.0
  0
LINE
  5
BC
330
1E
100
AcDbEntity
  8
0
100
AcDbLine
 10
0.4999999999999951
 20
100.5
 30
0.0
 11
1.1
 21
101.8
 31
0.0
  0
LINE
  5
BD
330
1E
100
AcDbEntity
  8
0
100
AcDbLine
 10
0.799999999999995
 20
102.0
 30
0.0
 11
1.8
 21
103.2
 31
0.0
  0
LINE
  5
BE
330
1E
100
AcDbEntity
  8
0
100
AcDbLine
 10
0.199999999999995
 20
100.5
 30
0.0
 11
0.799999999999995
 21
102.0
 31
0.0
  0
LINE
  5
BF
330
1E
100
AcDbEntity
  8
0
100
AcDbLine
 10
-0.0000000000000047
 20
99.0
 30
0.0
 11
0.199999999999995
 21
100.5
 31
0.0
  0
LINE
  5
C0
330
1E
100
AcDbEntity
  8
0
100
AcDbLine
 10
-0.0000000000000047
 20
99.0
 30
0.0
 11
-0.0000000000000047
 21
52.5
 31
0.0
  0
LINE
  5
C1
330
1E
100
AcDbEntity
  8
0
100
AcDbLine
 10
2.0
 20
103.0
 30
0.0
 11
3.2
 21
103.9
 31
0.0
  0
LINE
  5
C2
330
1E
100
AcDbEntity
  8
0
100
AcDbLine
 10
3.2
 20
103.9
 30
0.0
 11
4.5
 21
104.4999999999999
 31
0.0
  0
LINE
  5
C3
330
1E
100
AcDbEntity
  8
0
100
AcDbLine
 10
1.8
 20
103.2
 30
0.0
 11
3.0
 21
104.2
 31
0.0
  0
LINE
  5
C4
330
1E
100
AcDbEntity
  8
0
100
AcDbLine
 10
4.5
 20
104.4999999999999
 30
0.0
 11
6.0
 21
104.7
 31
0.0
  0
LINE
  5
C5
330
1E
100
AcDbEntity
  8
0
100
AcDbLine
 10
3.0
 20
104.2
 30
0.0
 11
4.5
 21
104.8
 31
0.0
  0
LINE
  5
C6
330
1E
100
AcDbEntity
  8
0
100
AcDbLine
 10
44.59999999999999
 20
93.49999999999999
 30
0.0
 11
44.9
 21
91.5
 31
0.0
  0
LINE
  5
C7
330
1E
100
AcDbEntity
  8
0
100
AcDbLine
 10
44.59999999999999
 20
93.49999999999999
 30
0.0
 11
44.9
 21
95.5
 31
0.0
  0
LINE
  5
C8
330
1E
100
AcDbEntity
  8
0
100
AcDbLine
 10
44.29999999999999
 20
93.49999999999999
 30
0.0
 11
44.59999999999999
 21
91.4
 31
0.0
  0
LINE
  5
C9
330
1E
100
AcDbEntity
  8
0
100
AcDbLine
 10
44.29999999999999
 20
93.49999999999999
 30
0.0
 11
44.59999999999999
 21
95.6
 31
0.0
  0
LINE
  5
CA
330
1E
100
AcDbEntity
  8
0
100
AcDbLine
 10
44.29999999999999
 20
95.7
 30
0.0
 11
45.1
 21
97.70000000000001
 31
0.0
  0
LINE
  5
CB
330
1E
100
AcDbEntity
  8
0
100
AcDbLine
 10
44.59999999999999
 20
95.6
 30
0.0
 11
45.4
 21
97.59999999999999
 31
0.0
  0
LINE
  5
CC
330
1E
100
AcDbEntity
  8
0
100
AcDbLine
 10
44.0
 20
93.49999999999999
 30
0.0
 11
44.29999999999999
 21
91.3
 31
0.0
  0
LINE
  5
CD
330
1E
100
AcDbEntity
  8
0
100
AcDbLine
 10
44.0
 20
93.49999999999999
 30
0.0
 11
44.29999999999999
 21
95.7
 31
0.0
  0
LINE
  5
CE
330
1E
100
AcDbEntity
  8
0
100
AcDbLine
 10
44.9
 20
95.5
 30
0.0
 11
45.7
 21
97.40000000000001
 31
0.0
  0
LINE
  5
CF
330
1E
100
AcDbEntity
  8
0
100
AcDbLine
 10
45.1
 20
97.70000000000001
 30
0.0
 11
46.5
 21
99.50000000000001
 31
0.0
  0
LINE
  5
D0
330
1E
100
AcDbEntity
  8
0
100
AcDbLine
 10
45.4
 20
97.59999999999999
 30
0.0
 11
46.7
 21
99.29999999999999
 31
0.0
  0
LINE
  5
D1
330
1E
100
AcDbEntity
  8
0
100
AcDbLine
 10
44.9
 20
91.5
 30
0.0
 11
45.7
 21
89.59999999999999
 31
0.0
  0
LINE
  5
D2
330
1E
100
AcDbEntity
  8
0
100
AcDbLine
 10
44.59999999999999
 20
91.4
 30
0.0
 11
45.4
 21
89.40000000000001
 31
0.0
  0
LINE
  5
D3
330
1E
100
AcDbEntity
  8
0
100
AcDbLine
 10
44.29999999999999
 20
91.3
 30
0.0
 11
45.1
 21
89.29999999999999
 31
0.0
  0
LINE
  5
D4
330
1E
100
AcDbEntity
  8
0
100
AcDbLine
 10
45.7
 20
97.40000000000001
 30
0.0
 11
46.9
 21
99.1
 31
0.0
  0
LINE
  5
D5
330
1E
100
AcDbEntity
  8
0
100
AcDbLine
 10
45.7
 20
89.59999999999999
 30
0.0
 11
46.9
 21
87.9
 31
0.0
  0
LINE
  5
D6
330
1E
100
AcDbEntity
  8
0
100
AcDbLine
 10
45.4
 20
89.40000000000001
 30
0.0
 11
46.7
 21
87.70000000000001
 31
0.0
  0
LINE
  5
D7
330
1E
100
AcDbEntity
  8
0
100
AcDbLine
 10
45.1
 20
89.29999999999999
 30
0.0
 11
46.5
 21
87.5
 31
0.0
  0
LINE
  5
D8
330
1E
100
AcDbEntity
  8
0
100
AcDbLine
 10
6.0
 20
104.7
 30
0.0
 11
52.5
 21
104.7
 31
0.0
  0
LINE
  5
D9
330
1E
100
AcDbEntity
  8
0
100
AcDbLine
 10
6.0
 20
105.0
 30
0.0
 11
52.5
 21
105.0
 31
0.0
  0
LINE
  5
DA
330
1E
100
AcDbEntity
  8
0
100
AcDbLine
 10
6.0
 20
104.7
 30
0.0
 11
52.5
 21
104.7
 31
0.0
  0
LINE
  5
DB
330
1E
100
AcDbEntity
  8
0
100
AcDbLine
 10
4.5
 20
104.8
 30
0.0
 11
6.0
 21
105.0
 31
0.0
  0
LINE
  5
DC
330
1E
100
AcDbEntity
  8
0
100
AcDbLine
 10
6.0
 20
105.0
 30
0.0
 11
52.5
 21
105.0
 31
0.0
  0
LINE
  5
DD
330
1E
100
AcDbEntity
  8
0
100
AcDbLine
 10
52.5
 20
85.29999999999999
 30
0.0
 11
54.6
 21
85.6
 31
0.0
  0
LINE
  5
DE
330
1E
100
AcDbEntity
  8
0
100
AcDbLine
 10
52.5
 20
85.0
 30
0.0
 11
54.7
 21
85.29999999999999
 31
0.0
  0
LINE
  5
DF
330
1E
100
AcDbEntity
  8
0
100
AcDbLine
 10
46.7
 20
99.29999999999999
 30
0.0
 11
48.39999999999999
 21
100.6
 31
0.0
  0
LINE
  5
E0
330
1E
100
AcDbEntity
  8
0
100
AcDbLine
 10
46.5
 20
99.50000000000001
 30
0.0
 11
48.3
 21
100.9
 31
0.0
  0
LINE
  5
E1
330
1E
100
AcDbEntity
  8
0
100
AcDbLine
 10
46.9
 20
99.1
 30
0.0
 11
48.6
 21
100.2999999999999
 31
0.0
  0
LINE
  5
E2
330
1E
100
AcDbEntity
  8
0
100
AcDbLine
 10
48.39999999999999
 20
100.6
 30
0.0
 11
50.4
 21
101.4
 31
0.0
  0
LINE
  5
E3
330
1E
100
AcDbEntity
  8
0
100
AcDbLine
 10
48.3
 20
100.9
 30
0.0
 11
50.3
 21
101.7
 31
0.0
  0
LINE
  5
E4
330
1E
100
AcDbEntity
  8
0
100
AcDbLine
 10
46.9
 20
87.9
 30
0.0
 11
48.6
 21
86.69999999999999
 31
0.0
  0
LINE
  5
E5
330
1E
100
AcDbEntity
  8
0
100
AcDbLine
 10
46.7
 20
87.70000000000001
 30
0.0
 11
48.39999999999999
 21
86.4
 31
0.0
  0
LINE
  5
E6
330
1E
100
AcDbEntity
  8
0
100
AcDbLine
 10
46.5
 20
87.5
 30
0.0
 11
48.3
 21
86.09999999999999
 31
0.0
  0
LINE
  5
E7
330
1E
100
AcDbEntity
  8
0
100
AcDbLine
 10
48.6
 20
100.2999999999999
 30
0.0
 11
50.5
 21
101.0999999999999
 31
0.0
  0
LINE
  5
E8
330
1E
100
AcDbEntity
  8
0
100
AcDbLine
 10
50.4
 20
101.4
 30
0.0
 11
52.5
 21
101.7
 31
0.0
  0
LINE
  5
E9
330
1E
100
AcDbEntity
  8
0
100
AcDbLine
 10
50.3
 20
101.7
 30
0.0
 11
52.5
 21
102.0
 31
0.0
  0
LINE
  5
EA
330
1E
100
AcDbEntity
  8
0
100
AcDbLine
 10
48.6
 20
86.69999999999999
 30
0.0
 11
50.5
 21
85.90000000000001
 31
0.0
  0
LINE
  5
EB
330
1E
100
AcDbEntity
  8
0
100
AcDbLine
 10
48.39999999999999
 20
86.4
 30
0.0
 11
50.4
 21
85.6
 31
0.0
  0
LINE
  5
EC
330
1E
100
AcDbEntity
  8
0
100
AcDbLine
 10
48.3
 20
86.09999999999999
 30
0.0
 11
50.3
 21
85.29999999999999
 31
0.0
  0
LINE
  5
ED
330
1E
100
AcDbEntity
  8
0
100
AcDbLine
 10
52.5
 20
85.6
 30
0.0
 11
54.5
 21
85.90000000000001
 31
0.0
  0
LINE
  5
EE
330
1E
100
AcDbEntity
  8
0
100
AcDbLine
 10
52.5
 20
101.4
 30
0.0
 11
54.5
 21
101.0999999999999
 31
0.0
  0
LINE
  5
EF
330
1E
100
AcDbEntity
  8
0
100
AcDbLine
 10
52.5
 20
101.7
 30
0.0
 11
54.6
 21
101.4
 31
0.0
  0
LINE
  5
F0
330
1E
100
AcDbEntity
  8
0
100
AcDbLine
 10
52.5
 20
104.7
 30
0.0
 11
99.0
 21
104.7
 31
0.0
  0
LINE
  5
F1
330
1E
100
AcDbEntity
  8
0
100
AcDbLine
 10
52.5
 20
105.0
 30
0.0
 11
99.0
 21
105.0
 31
0.0
  0
LINE
  5
F2
330
1E
100
AcDbEntity
  8
0
100
AcDbLine
 10
52.5
 20
102.0
 30
0.0
 11
54.7
 21
101.7
 31
0.0
  0
LINE
  5
F3
330
1E
100
AcDbEntity
  8
0
100
AcDbLine
 10
50.5
 20
101.0999999999999
 30
0.0
 11
52.5
 21
101.4
 31
0.0
  0
LINE
  5
F4
330
1E
100
AcDbEntity
  8
0
100
AcDbLine
 10
50.5
 20
85.90000000000001
 30
0.0
 11
52.5
 21
85.6
 31
0.0
  0
LINE
  5
F5
330
1E
100
AcDbEntity
  8
0
100
AcDbLine
 10
50.4
 20
85.6
 30
0.0
 11
52.5
 21
85.29999999999999
 31
0.0
  0
LINE
  5
F6
330
1E
100
AcDbEntity
  8
0
100
AcDbLine
 10
50.3
 20
85.29999999999999
 30
0.0
 11
52.5
 21
85.0
 31
0.0
  0
LINE
  5
F7
330
1E
100
AcDbEntity
  8
0
100
AcDbLine
 10
46.39999999999999
 20
82.146
 30
0.0
 11
46.64399999999988
 21
82.1765
 31
0.0
  0
LINE
  5
F8
330
1E
100
AcDbEntity
  8
0
100
AcDbLine
 10
44.69199999999999
 20
81.902
 30
0.0
 11
52.5
 21
83.0
 31
0.0
  0
LINE
  5
F9
330
1E
100
AcDbEntity
  8
0
100
AcDbLine
 10
54.5
 20
101.0999999999999
 30
0.0
 11
56.4
 21
100.2999999999999
 31
0.0
  0
LINE
  5
FA
330
1E
100
AcDbEntity
  8
0
100
AcDbLine
 10
54.6
 20
101.4
 30
0.0
 11
56.6
 21
100.6
 31
0.0
  0
LINE
  5
FB
330
1E
100
AcDbEntity
  8
0
100
AcDbLine
 10
54.5
 20
85.90000000000001
 30
0.0
 11
56.4
 21
86.69999999999999
 31
0.0
  0
LINE
  5
FC
330
1E
100
AcDbEntity
  8
0
100
AcDbLine
 10
54.6
 20
85.6
 30
0.0
 11
56.6
 21
86.4
 31
0.0
  0
LINE
  5
FD
330
1E
100
AcDbEntity
  8
0
100
AcDbLine
 10
54.7
 20
85.29999999999999
 30
0.0
 11
56.7
 21
86.09999999999999
 31
0.0
  0
LINE
  5
FE
330
1E
100
AcDbEntity
  8
0
100
AcDbLine
 10
56.4
 20
86.69999999999999
 30
0.0
 11
58.1
 21
87.9
 31
0.0
  0
LINE
  5
FF
330
1E
100
AcDbEntity
  8
0
100
AcDbLine
 10
56.6
 20
86.4
 30
0.0
 11
58.3
 21
87.70000000000001
 31
0.0
  0
LINE
  5
100
330
1E
100
AcDbEntity
  8
0
100
AcDbLine
 10
56.7
 20
86.09999999999999
 30
0.0
 11
58.5
 21
87.5
 31
0.0
  0
LINE
  5
101
330
1E
100
AcDbEntity
  8
0
100
AcDbLine
 10
56.4
 20
100.2999999999999
 30
0.0
 11
58.1
 21
99.1
 31
0.0
  0
LINE
  5
102
330
1E
100
AcDbEntity
  8
0
100
AcDbLine
 10
58.1
 20
99.1
 30
0.0
 11
59.29999999999999
 21
97.40000000000001
 31
0.0
  0
LINE
  5
103
330
1E
100
AcDbEntity
  8
0
100
AcDbLine
 10
58.3
 20
99.29999999999999
 30
0.0
 11
59.6
 21
97.59999999999999
 31
0.0
  0
LINE
  5
104
330
1E
100
AcDbEntity
  8
0
100
AcDbLine
 10
56.6
 20
100.6
 30
0.0
 11
58.3
 21
99.29999999999999
 31
0.0
  0
LINE
  5
105
330
1E
100
AcDbEntity
  8
0
100
AcDbLine
 10
58.1
 20
87.9
 30
0.0
 11
59.29999999999999
 21
89.59999999999999
 31
0.0
  0
LINE
  5
106
330
1E
100
AcDbEntity
  8
0
100
AcDbLine
 10
58.3
 20
87.70000000000001
 30
0.0
 11
59.6
 21
89.40000000000001
 31
0.0
  0
LINE
  5
107
330
1E
100
AcDbEntity
  8
0
100
AcDbLine
 10
58.5
 20
87.5
 30
0.0
 11
59.9
 21
89.29999999999999
 31
0.0
  0
LINE
  5
108
330
1E
100
AcDbEntity
  8
0
100
AcDbLine
 10
59.29999999999999
 20
97.40000000000001
 30
0.0
 11
60.1
 21
95.5
 31
0.0
  0
LINE
  5
109
330
1E
100
AcDbEntity
  8
0
100
AcDbLine
 10
59.6
 20
97.59999999999999
 30
0.0
 11
60.4
 21
95.6
 31
0.0
  0
LINE
  5
10A
330
1E
100
AcDbEntity
  8
0
100
AcDbLine
 10
59.29999999999999
 20
89.59999999999999
 30
0.0
 11
60.1
 21
91.5
 31
0.0
  0
LINE
  5
10B
330
1E
100
AcDbEntity
  8
0
100
AcDbLine
 10
59.6
 20
89.40000000000001
 30
0.0
 11
60.4
 21
91.4
 31
0.0
  0
LINE
  5
10C
330
1E
100
AcDbEntity
  8
0
100
AcDbLine
 10
59.9
 20
89.29999999999999
 30
0.0
 11
60.7
 21
91.3
 31
0.0
  0
LINE
  5
10D
330
1E
100
AcDbEntity
  8
0
100
AcDbLine
 10
59.9
 20
97.70000000000001
 30
0.0
 11
60.7
 21
95.7
 31
0.0
  0
LINE
  5
10E
330
1E
100
AcDbEntity
  8
0
100
AcDbLine
 10
58.5
 20
99.50000000000001
 30
0.0
 11
59.9
 21
97.70000000000001
 31
0.0
  0
LINE
  5
10F
330
1E
100
AcDbEntity
  8
0
100
AcDbLine
 10
56.7
 20
100.9
 30
0.0
 11
58.5
 21
99.50000000000001
 31
0.0
  0
LINE
  5
110
330
1E
100
AcDbEntity
  8
0
100
AcDbLine
 10
54.7
 20
101.7
 30
0.0
 11
56.7
 21
100.9
 31
0.0
  0
LINE
  5
111
330
1E
100
AcDbEntity
  8
0
100
AcDbLine
 10
58.35600000000011
 20
82.1765
 30
0.0
 11
58.6
 21
82.146
 31
0.0
  0
LINE
  5
112
330
1E
100
AcDbEntity
  8
0
100
AcDbLine
 10
52.5
 20
83.0
 30
0.0
 11
60.308
 21
81.902
 31
0.0
  0
LINE
  5
113
330
1E
100
AcDbEntity
  8
0
100
AcDbLine
 10
52.5
 20
81.78
 30
0.0
 11
60.06399999999999
 21
80.682
 31
0.0
  0
LINE
  5
114
330
1E
100
AcDbEntity
  8
0
100
AcDbLine
 10
60.1
 20
95.5
 30
0.0
 11
60.4
 21
93.49999999999999
 31
0.0
  0
LINE
  5
115
330
1E
100
AcDbEntity
  8
0
100
AcDbLine
 10
60.4
 20
95.6
 30
0.0
 11
60.7
 21
93.49999999999999
 31
0.0
  0
LINE
  5
116
330
1E
100
AcDbEntity
  8
0
100
AcDbLine
 10
60.1
 20
91.5
 30
0.0
 11
60.4
 21
93.49999999999999
 31
0.0
  0
LINE
  5
117
330
1E
100
AcDbEntity
  8
0
100
AcDbLine
 10
60.4
 20
91.4
 30
0.0
 11
60.7
 21
93.49999999999999
 31
0.0
  0
LINE
  5
118
330
1E
100
AcDbEntity
  8
0
100
AcDbLine
 10
60.7
 20
91.3
 30
0.0
 11
61.0
 21
93.49999999999999
 31
0.0
  0
LINE
  5
119
330
1E
100
AcDbEntity
  8
0
100
AcDbLine
 10
60.7
 20
95.7
 30
0.0
 11
61.0
 21
93.49999999999999
 31
0.0
  0
LINE
  5
11A
330
1E
100
AcDbEntity
  8
0
100
AcDbLine
 10
60.308
 20
81.902
 30
0.0
 11
67.628
 21
78.97399999999999
 31
0.0
  0
LINE
  5
11C
330
1E
100
AcDbEntity
  8
0
100
AcDbLine
 10
60.06399999999999
 20
80.682
 30
0.0
 11
67.14
 21
77.87600000000001
 31
0.0
  0
LINE
  5
11E
330
1E
100
AcDbEntity
  8
0
100
AcDbLine
 10
67.628
 20
78.97399999999999
 30
0.0
 11
74.09399999999999
 21
74.09399999999999
 31
0.0
  0
LINE
  5
11F
330
1E
100
AcDbEntity
  8
0
100
AcDbLine
 10
74.09399999999999
 20
74.09399999999999
 30
0.0
 11
78.97399999999999
 21
67.628
 31
0.0
  0
LINE
  5
120
330
1E
100
AcDbEntity
  8
0
100
AcDbLine
 10
77.87600000000001
 20
67.14
 30
0.0
 11
80.682
 21
60.06399999999999
 31
0.0
  0
LINE
  5
122
330
1E
100
AcDbEntity
  8
0
100
AcDbLine
 10
73.11799999999999
 20
31.882
 30
0.0
 11
77.87600000000001
 21
37.86
 31
0.0
  0
LINE
  5
123
330
1E
100
AcDbEntity
  8
0
100
AcDbLine
 10
78.97399999999999
 20
67.628
 30
0.0
 11
81.902
 21
60.308
 31
0.0
  0
LINE
  5
124
330
1E
100
AcDbEntity
  8
0
100
AcDbLine
 10
77.87600000000001
 20
37.86
 30
0.0
 11
80.682
 21
44.936
 31
0.0
  0
LINE
  5
126
330
1E
100
AcDbEntity
  8
0
100
AcDbLine
 10
78.97399999999999
 20
37.372
 30
0.0
 11
81.902
 21
44.69199999999999
 31
0.0
  0
LINE
  5
128
330
1E
100
AcDbEntity
  8
0
100
AcDbLine
 10
80.08410000000001
 20
29.87709999999999
 30
0.0
 11
80.9063
 21
27.90119999999999
 31
0.0
  0
LINE
  5
129
330
1E
100
AcDbEntity
  8
0
100
AcDbLine
 10
79.8083
 20
31.9993
 30
0.0
 11
80.1154
 21
34.1313
 31
0.0
  0
LINE
  5
12A
330
1E
100
AcDbEntity
  8
0
100
AcDbLine
 10
79.8083
 20
31.9993
 30
0.0
 11
80.08410000000001
 21
29.87709999999999
 31
0.0
  0
LINE
  5
12B
330
1E
100
AcDbEntity
  8
0
100
AcDbLine
 10
80.35729999999999
 20
29.95029999999999
 30
0.0
 11
81.22950000000001
 21
28.061
 31
0.0
  0
LINE
  5
12C
330
1E
100
AcDbEntity
  8
0
100
AcDbLine
 10
80.16809999999999
 20
32.0225
 30
0.0
 11
80.42520000000001
 21
34.0679
 31
0.0
  0
LINE
  5
12D
330
1E
100
AcDbEntity
  8
0
100
AcDbLine
 10
80.16809999999999
 20
32.0225
 30
0.0
 11
80.35729999999999
 21
29.95029999999999
 31
0.0
  0
LINE
  5
12E
330
1E
100
AcDbEntity
  8
0
100
AcDbLine
 10
80.42520000000001
 20
34.0679
 30
0.0
 11
81.1654
 21
35.95
 31
0.0
  0
LINE
  5
12F
330
1E
100
AcDbEntity
  8
0
100
AcDbLine
 10
80.1154
 20
34.1313
 30
0.0
 11
80.90560000000001
 21
36.1
 31
0.0
  0
LINE
  5
130
330
1E
100
AcDbEntity
  8
0
100
AcDbLine
 10
79.8056
 20
34.1947
 30
0.0
 11
80.64579999999999
 21
36.25
 31
0.0
  0
LINE
  5
131
330
1E
100
AcDbEntity
  8
0
100
AcDbLine
 10
79.49850000000001
 20
32.06269999999999
 30
0.0
 11
79.8109
 21
29.8038
 31
0.0
  0
LINE
  5
132
330
1E
100
AcDbEntity
  8
0
100
AcDbLine
 10
79.49850000000001
 20
32.06269999999999
 30
0.0
 11
79.8056
 21
34.1947
 31
0.0
  0
LINE
  5
133
330
1E
100
AcDbEntity
  8
0
100
AcDbLine
 10
79.8109
 20
29.8038
 30
0.0
 11
80.66970000000001
 21
27.6914
 31
0.0
  0
LINE
  5
134
330
1E
100
AcDbEntity
  8
0
100
AcDbLine
 10
85.81229999999999
 20
23.7986
 30
0.0
 11
87.94439999999999
 21
23.49139999999999
 31
0.0
  0
LINE
  5
135
330
1E
100
AcDbEntity
  8
0
100
AcDbLine
 10
88.00769999999999
 20
23.8012
 30
0.0
 11
90.12999999999999
 21
24.0771
 31
0.0
  0
LINE
  5
136
330
1E
100
AcDbEntity
  8
0
100
AcDbLine
 10
87.94439999999999
 20
23.49139999999999
 30
0.0
 11
90.20319999999999
 21
23.8038
 31
0.0
  0
LINE
  5
137
330
1E
100
AcDbEntity
  8
0
100
AcDbLine
 10
87.9845
 20
24.161
 30
0.0
 11
90.05679999999999
 21
24.3503
 31
0.0
  0
LINE
  5
138
330
1E
100
AcDbEntity
  8
0
100
AcDbLine
 10
85.93909999999999
 20
24.41819999999999
 30
0.0
 11
87.9845
 21
24.161
 31
0.0
  0
LINE
  5
139
330
1E
100
AcDbEntity
  8
0
100
AcDbLine
 10
90.05679999999999
 20
24.3503
 30
0.0
 11
91.94599999999999
 21
25.2225
 31
0.0
  0
LINE
  5
13A
330
1E
100
AcDbEntity
  8
0
100
AcDbLine
 10
83.907
 20
24.8986
 30
0.0
 11
85.87569999999999
 21
24.1084
 31
0.0
  0
LINE
  5
13B
330
1E
100
AcDbEntity
  8
0
100
AcDbLine
 10
85.87569999999999
 20
24.1084
 30
0.0
 11
88.00769999999999
 21
23.8012
 31
0.0
  0
LINE
  5
13C
330
1E
100
AcDbEntity
  8
0
100
AcDbLine
 10
90.12999999999999
 20
24.0771
 30
0.0
 11
92.1058
 21
24.8993
 31
0.0
  0
LINE
  5
13D
330
1E
100
AcDbEntity
  8
0
100
AcDbLine
 10
84.05700000000001
 20
25.1584
 30
0.0
 11
85.93909999999999
 21
24.41819999999999
 31
0.0
  0
LINE
  5
13E
330
1E
100
AcDbEntity
  8
0
100
AcDbLine
 10
91.94599999999999
 20
25.2225
 30
0.0
 11
93.5888
 21
26.4679
 31
0.0
  0
LINE
  5
13F
330
1E
100
AcDbEntity
  8
0
100
AcDbLine
 10
92.1058
 20
24.8993
 30
0.0
 11
93.79859999999998
 21
26.2313
 31
0.0
  0
LINE
  5
140
330
1E
100
AcDbEntity
  8
0
100
AcDbLine
 10
83.757
 20
24.6388
 30
0.0
 11
85.81229999999999
 21
23.7986
 31
0.0
  0
LINE
  5
141
330
1E
100
AcDbEntity
  8
0
100
AcDbLine
 10
90.20319999999999
 20
23.8038
 30
0.0
 11
92.31559999999999
 21
24.6627
 31
0.0
  0
LINE
  5
142
330
1E
100
AcDbEntity
  8
0
100
AcDbLine
 10
92.31559999999999
 20
24.6627
 30
0.0
 11
94.0085
 21
25.9947
 31
0.0
  0
LINE
  5
143
330
1E
100
AcDbEntity
  8
0
100
AcDbLine
 10
81.22950000000001
 20
28.061
 30
0.0
 11
82.475
 21
26.4182
 31
0.0
  0
LINE
  5
144
330
1E
100
AcDbEntity
  8
0
100
AcDbLine
 10
80.9063
 20
27.90119999999999
 30
0.0
 11
82.2384
 21
26.2084
 31
0.0
  0
LINE
  5
145
330
1E
100
AcDbEntity
  8
0
100
AcDbLine
 10
81.1654
 20
35.95
 30
0.0
 11
82.4252
 21
37.5321
 31
0.0
  0
LINE
  5
146
330
1E
100
AcDbEntity
  8
0
100
AcDbLine
 10
80.90560000000001
 20
36.1
 30
0.0
 11
82.2154
 21
37.7687
 31
0.0
  0
LINE
  5
147
330
1E
100
AcDbEntity
  8
0
100
AcDbLine
 10
80.66970000000001
 20
27.6914
 30
0.0
 11
82.00180000000001
 21
25.9986
 31
0.0
  0
LINE
  5
148
330
1E
100
AcDbEntity
  8
0
100
AcDbLine
 10
93.79859999999998
 20
26.2313
 30
0.0
 11
95.10850000000001
 21
27.9
 31
0.0
  0
LINE
  5
149
330
1E
100
AcDbEntity
  8
0
100
AcDbLine
 10
93.5888
 20
26.4679
 30
0.0
 11
94.84860000000001
 21
28.05
 31
0.0
  0
LINE
  5
14A
330
1E
100
AcDbEntity
  8
0
100
AcDbLine
 10
82.475
 20
26.4182
 30
0.0
 11
84.05700000000001
 21
25.1584
 31
0.0
  0
LINE
  5
14B
330
1E
100
AcDbEntity
  8
0
100
AcDbLine
 10
82.2384
 20
26.2084
 30
0.0
 11
83.907
 21
24.8986
 31
0.0
  0
LINE
  5
14C
330
1E
100
AcDbEntity
  8
0
100
AcDbLine
 10
94.7845
 20
35.939
 30
0.0
 11
95.6568
 21
34.0497
 31
0.0
  0
LINE
  5
14D
330
1E
100
AcDbEntity
  8
0
100
AcDbLine
 10
94.84860000000001
 20
28.05
 30
0.0
 11
95.5888
 21
29.93209999999999
 31
0.0
  0
LINE
  5
14E
330
1E
100
AcDbEntity
  8
0
100
AcDbLine
 10
95.10769999999999
 20
36.09879999999999
 30
0.0
 11
95.93000000000001
 21
34.1229
 31
0.0
  0
LINE
  5
14F
330
1E
100
AcDbEntity
  8
0
100
AcDbLine
 10
95.10850000000001
 20
27.9
 30
0.0
 11
95.89859999999999
 21
29.8687
 31
0.0
  0
LINE
  5
150
330
1E
100
AcDbEntity
  8
0
100
AcDbLine
 10
82.00180000000001
 20
25.9986
 30
0.0
 11
83.757
 21
24.6388
 31
0.0
  0
LINE
  5
151
330
1E
100
AcDbEntity
  8
0
100
AcDbLine
 10
94.0085
 20
25.9947
 30
0.0
 11
95.3683
 21
27.75
 31
0.0
  0
LINE
  5
152
330
1E
100
AcDbEntity
  8
0
100
AcDbLine
 10
80.64579999999999
 20
36.25
 30
0.0
 11
82.00560000000001
 21
38.0053
 31
0.0
  0
LINE
  5
153
330
1E
100
AcDbEntity
  8
0
100
AcDbLine
 10
82.4252
 20
37.5321
 30
0.0
 11
84.0681
 21
38.7775
 31
0.0
  0
LINE
  5
154
330
1E
100
AcDbEntity
  8
0
100
AcDbLine
 10
82.2154
 20
37.7687
 30
0.0
 11
83.90829999999999
 21
39.1007
 31
0.0
  0
LINE
  5
155
330
1E
100
AcDbEntity
  8
0
100
AcDbLine
 10
82.00560000000001
 20
38.0053
 30
0.0
 11
83.69849999999999
 21
39.3373
 31
0.0
  0
LINE
  5
156
330
1E
100
AcDbEntity
  8
0
100
AcDbLine
 10
93.5391
 20
37.5818
 30
0.0
 11
94.7845
 21
35.939
 31
0.0
  0
LINE
  5
157
330
1E
100
AcDbEntity
  8
0
100
AcDbLine
 10
84.0681
 20
38.7775
 30
0.0
 11
85.95730000000001
 21
39.6497
 31
0.0
  0
LINE
  5
158
330
1E
100
AcDbEntity
  8
0
100
AcDbLine
 10
83.90829999999999
 20
39.1007
 30
0.0
 11
85.88410000000001
 21
39.9229
 31
0.0
  0
LINE
  5
159
330
1E
100
AcDbEntity
  8
0
100
AcDbLine
 10
91.957
 20
38.84159999999999
 30
0.0
 11
93.5391
 21
37.5818
 31
0.0
  0
LINE
  5
15A
330
1E
100
AcDbEntity
  8
0
100
AcDbLine
 10
92.107
 20
39.1014
 30
0.0
 11
93.7757
 21
37.7916
 31
0.0
  0
LINE
  5
15B
330
1E
100
AcDbEntity
  8
0
100
AcDbLine
 10
93.7757
 20
37.7916
 30
0.0
 11
95.10769999999999
 21
36.09879999999999
 31
0.0
  0
LINE
  5
15C
330
1E
100
AcDbEntity
  8
0
100
AcDbLine
 10
83.69849999999999
 20
39.3373
 30
0.0
 11
85.81090000000001
 21
40.19619999999999
 31
0.0
  0
LINE
  5
15D
330
1E
100
AcDbEntity
  8
0
100
AcDbLine
 10
90.075
 20
39.5818
 30
0.0
 11
91.957
 21
38.84159999999999
 31
0.0
  0
LINE
  5
15E
330
1E
100
AcDbEntity
  8
0
100
AcDbLine
 10
88.0295
 20
39.839
 30
0.0
 11
90.075
 21
39.5818
 31
0.0
  0
LINE
  5
15F
330
1E
100
AcDbEntity
  8
0
100
AcDbLine
 10
85.95730000000001
 20
39.6497
 30
0.0
 11
88.0295
 21
39.839
 31
0.0
  0
LINE
  5
160
330
1E
100
AcDbEntity
  8
0
100
AcDbLine
 10
90.1384
 20
39.8916
 30
0.0
 11
92.107
 21
39.1014
 31
0.0
  0
LINE
  5
161
330
1E
100
AcDbEntity
  8
0
100
AcDbLine
 10
88.00629999999999
 20
40.19879999999999
 30
0.0
 11
90.1384
 21
39.8916
 31
0.0
  0
LINE
  5
162
330
1E
100
AcDbEntity
  8
0
100
AcDbLine
 10
85.88410000000001
 20
39.9229
 30
0.0
 11
88.00629999999999
 21
40.19879999999999
 31
0.0
  0
LINE
  5
163
330
1E
100
AcDbEntity
  8
0
100
AcDbLine
 10
85.81090000000001
 20
40.19619999999999
 30
0.0
 11
88.06969999999999
 21
40.5086
 31
0.0
  0
LINE
  5
164
330
1E
100
AcDbEntity
  8
0
100
AcDbLine
 10
88.06969999999999
 20
40.5086
 30
0.0
 11
90.20180000000001
 21
40.2014
 31
0.0
  0
LINE
  5
165
330
1E
100
AcDbEntity
  8
0
100
AcDbLine
 10
90.20180000000001
 20
40.2014
 30
0.0
 11
92.25700000000001
 21
39.36119999999999
 31
0.0
  0
LINE
  5
166
330
1E
100
AcDbEntity
  8
0
100
AcDbLine
 10
92.25700000000001
 20
39.36119999999999
 30
0.0
 11
94.01229999999999
 21
38.00139999999999
 31
0.0
  0
LINE
  5
167
330
1E
100
AcDbEntity
  8
0
100
AcDbLine
 10
94.01229999999999
 20
38.00139999999999
 30
0.0
 11
95.3443
 21
36.3086
 31
0.0
  0
LINE
  5
168
330
1E
100
AcDbEntity
  8
0
100
AcDbLine
 10
95.3443
 20
36.3086
 30
0.0
 11
96.20319999999999
 21
34.1962
 31
0.0
  0
LINE
  5
169
330
1E
100
AcDbEntity
  8
0
100
AcDbLine
 10
100.5
 20
0.199999999999991
 30
0.0
 11
102.0
 21
0.799999999999991
 31
0.0
  0
LINE
  5
16A
330
1E
100
AcDbEntity
  8
0
100
AcDbLine
 10
100.5
 20
0.499999999999992
 30
0.0
 11
101.8
 21
1.09999999999999
 31
0.0
  0
LINE
  5
16B
330
1E
100
AcDbEntity
  8
0
100
AcDbLine
 10
99.0
 20
0.299999999999992
 30
0.0
 11
100.5
 21
0.499999999999992
 31
0.0
  0
LINE
  5
16C
330
1E
100
AcDbEntity
  8
0
100
AcDbLine
 10
103.0
 20
1.999999999999989
 30
0.0
 11
103.9
 21
3.19999999999999
 31
0.0
  0
LINE
  5
16D
330
1E
100
AcDbEntity
  8
0
100
AcDbLine
 10
103.9
 20
3.19999999999999
 30
0.0
 11
104.4999999999999
 21
4.49999999999999
 31
0.0
  0
LINE
  5
16E
330
1E
100
AcDbEntity
  8
0
100
AcDbLine
 10
103.2
 20
1.799999999999989
 30
0.0
 11
104.2
 21
2.99999999999999
 31
0.0
  0
LINE
  5
16F
330
1E
100
AcDbEntity
  8
0
100
AcDbLine
 10
104.7
 20
5.99999999999999
 30
0.0
 11
104.7
 21
52.5
 31
0.0
  0
LINE
  5
170
330
1E
100
AcDbEntity
  8
0
100
AcDbLine
 10
104.4999999999999
 20
4.49999999999999
 30
0.0
 11
104.7
 21
5.99999999999999
 31
0.0
  0
LINE
  5
171
330
1E
100
AcDbEntity
  8
0
100
AcDbLine
 10
105.0
 20
5.99999999999999
 30
0.0
 11
105.0
 21
52.5
 31
0.0
  0
LINE
  5
172
330
1E
100
AcDbEntity
  8
0
100
AcDbLine
 10
104.2
 20
2.99999999999999
 30
0.0
 11
104.8
 21
4.49999999999999
 31
0.0
  0
LINE
  5
173
330
1E
100
AcDbEntity
  8
0
100
AcDbLine
 10
101.8
 20
1.09999999999999
 30
0.0
 11
103.0
 21
1.999999999999989
 31
0.0
  0
LINE
  5
174
330
1E
100
AcDbEntity
  8
0
100
AcDbLine
 10
100.5
 20
0.199999999999991
 30
0.0
 11
102.0
 21
0.799999999999991
 31
0.0
  0
LINE
  5
175
330
1E
100
AcDbEntity
  8
0
100
AcDbLine
 10
95.6568
 20
34.0497
 30
0.0
 11
95.846
 21
31.9775
 31
0.0
  0
LINE
  5
176
330
1E
100
AcDbEntity
  8
0
100
AcDbLine
 10
95.5888
 20
29.93209999999999
 30
0.0
 11
95.846
 21
31.9775
 31
0.0
  0
LINE
  5
177
330
1E
100
AcDbEntity
  8
0
100
AcDbLine
 10
95.93000000000001
 20
34.1229
 30
0.0
 11
96.2058
 21
32.0007
 31
0.0
  0
LINE
  5
178
330
1E
100
AcDbEntity
  8
0
100
AcDbLine
 10
95.89859999999999
 20
29.8687
 30
0.0
 11
96.2058
 21
32.0007
 31
0.0
  0
LINE
  5
179
330
1E
100
AcDbEntity
  8
0
100
AcDbLine
 10
96.20319999999999
 20
34.1962
 30
0.0
 11
96.51560000000001
 21
31.9373
 31
0.0
  0
LINE
  5
17A
330
1E
100
AcDbEntity
  8
0
100
AcDbLine
 10
96.2085
 20
29.80529999999999
 30
0.0
 11
96.51560000000001
 21
31.9373
 31
0.0
  0
LINE
  5
17B
330
1E
100
AcDbEntity
  8
0
100
AcDbLine
 10
95.3683
 20
27.75
 30
0.0
 11
96.2085
 21
29.80529999999999
 31
0.0
  0
LINE
  5
17C
330
1E
100
AcDbEntity
  8
0
100
AcDbLine
 10
80.682
 20
60.06399999999999
 30
0.0
 11
81.78
 21
52.5
 31
0.0
  0
LINE
  5
17D
330
1E
100
AcDbEntity
  8
0
100
AcDbLine
 10
104.7
 20
52.5
 30
0.0
 11
104.7
 21
99.0
 31
0.0
  0
LINE
  5
17E
330
1E
100
AcDbEntity
  8
0
100
AcDbLine
 10
104.7
 20
52.5
 30
0.0
 11
104.7
 21
5.99999999999999
 31
0.0
  0
LINE
  5
17F
330
1E
100
AcDbEntity
  8
0
100
AcDbLine
 10
105.0
 20
52.5
 30
0.0
 11
105.0
 21
99.0
 31
0.0
  0
LINE
  5
180
330
1E
100
AcDbEntity
  8
0
100
AcDbLine
 10
105.0
 20
52.5
 30
0.0
 11
105.0
 21
5.99999999999999
 31
0.0
  0
LINE
  5
181
330
1E
100
AcDbEntity
  8
0
100
AcDbLine
 10
99.0
 20
104.7
 30
0.0
 11
100.5
 21
104.4999999999999
 31
0.0
  0
LINE
  5
182
330
1E
100
AcDbEntity
  8
0
100
AcDbLine
 10
101.8
 20
103.9
 30
0.0
 11
103.0
 21
103.0
 31
0.0
  0
LINE
  5
183
330
1E
100
AcDbEntity
  8
0
100
AcDbLine
 10
100.5
 20
104.4999999999999
 30
0.0
 11
101.8
 21
103.9
 31
0.0
  0
LINE
  5
184
330
1E
100
AcDbEntity
  8
0
100
AcDbLine
 10
104.4999999999999
 20
100.5
 30
0.0
 11
104.7
 21
99.0
 31
0.0
  0
LINE
  5
185
330
1E
100
AcDbEntity
  8
0
100
AcDbLine
 10
104.7
 20
99.0
 30
0.0
 11
104.7
 21
52.5
 31
0.0
  0
LINE
  5
186
330
1E
100
AcDbEntity
  8
0
100
AcDbLine
 10
103.9
 20
101.8
 30
0.0
 11
104.4999999999999
 21
100.5
 31
0.0
  0
LINE
  5
187
330
1E
100
AcDbEntity
  8
0
100
AcDbLine
 10
104.8
 20
100.5
 30
0.0
 11
105.0
 21
99.0
 31
0.0
  0
LINE
  5
188
330
1E
100
AcDbEntity
  8
0
100
AcDbLine
 10
105.0
 20
99.0
 30
0.0
 11
105.0
 21
52.5
 31
0.0
  0
LINE
  5
189
330
1E
100
AcDbEntity
  8
0
100
AcDbLine
 10
103.0
 20
103.0
 30
0.0
 11
103.9
 21
101.8
 31
0.0
  0
LINE
  5
18A
330
1E
100
AcDbEntity
  8
0
100
AcDbLine
 10
103.2
 20
103.2
 30
0.0
 11
104.2
 21
102.0
 31
0.0
  0
LINE
  5
18B
330
1E
100
AcDbEntity
  8
0
100
AcDbLine
 10
104.2
 20
102.0
 30
0.0
 11
104.8
 21
100.5
 31
0.0
  0
LINE
  5
18C
330
1E
100
AcDbEntity
  8
0
100
AcDbLine
 10
102.0
 20
104.2
 30
0.0
 11
103.2
 21
103.2
 31
0.0
  0
LINE
  5
18D
330
1E
100
AcDbEntity
  8
0
100
AcDbLine
 10
100.5
 20
104.8
 30
0.0
 11
102.0
 21
104.2
 31
0.0
  0
LINE
  5
18E
330
1E
100
AcDbEntity
  8
0
100
AcDbLine
 10
99.0
 20
105.0
 30
0.0
 11
100.5
 21
104.8
 31
0.0
  0
LINE
  5
18F
330
1E
100
AcDbEntity
  8
0
100
AcDbLine
 10
81.902
 20
60.308
 30
0.0
 11
83.0
 21
52.5
 31
0.0
  0
LINE
  5
190
330
1E
100
AcDbEntity
  8
0
100
AcDbLine
 10
80.682
 20
44.936
 30
0.0
 11
81.78
 21
52.5
 31
0.0
  0
LINE
  5
191
330
1E
100
AcDbEntity
  8
0
100
AcDbLine
 10
81.902
 20
44.69199999999999
 30
0.0
 11
83.0
 21
52.5
 31
0.0
  0
LINE
  5
192
330
1E
100
AcDbEntity
  8
0
100
AcDbLine
 10
78.97399999999999
 20
37.372
 30
0.0
 11
81.902
 21
44.69199999999999
 31
0.0
  0
LINE
  5
197
330
1E
100
AcDbEntity
  8
0
100
AcDbLine
 10
99.0
 20
-0.0000000000000092
 30
0.0
 11
100.5
 21
0.199999999999991
 31
0.0
  0
LINE
  5
198
330
1E
100
AcDbEntity
  8
0
100
AcDbLine
 10
102.0
 20
0.799999999999991
 30
0.0
 11
103.2
 21
1.799999999999989
 31
0.0
  0
LINE
  5
199
330
1E
100
AcDbEntity
  8
0
100
AcDbLine
 10
104.8
 20
4.49999999999999
 30
0.0
 11
105.0
 21
5.99999999999999
 31
0.0
  0
ENDSEC
  0
SECTION
  2
OBJECTS
  0
DICTIONARY
  5
C
330
0
100
AcDbDictionary
281
     1
  3
ACAD_GROUP
350
D
  3
ACAD_LAYOUT
350
19
  3
ACAD_MLINESTYLE
350
16
  3
ACAD_PLOTSETTINGS
350
18
  3
ACAD_PLOTSTYLENAME
350
E
  3
AcDbVariableDictionary
350
19A
  0
DICTIONARY
  5
D
102
{ACAD_REACTORS
330
C
102
}
330
C
100
AcDbDictionary
281
     1
  0
DICTIONARY
  5
19
102
{ACAD_REACTORS
330
C
102
}
330
C
100
AcDbDictionary
281
     1
  3
Layout1
350
1D
  3
Model
350
21
  0
DICTIONARY
  5
16
102
{ACAD_REACTORS
330
C
102
}
330
C
100
AcDbDictionary
281
     1
  3
Standard
350
17
  0
DICTIONARY
  5
18
102
{ACAD_REACTORS
330
C
102
}
330
C
100
AcDbDictionary
281
     1
  0
ACDBDICTIONARYWDFLT
  5
E
102
{ACAD_REACTORS
330
C
102
}
330
C
100
AcDbDictionary
281
     1
  3
Normal
350
F
100
AcDbDictionaryWithDefault
340
F
  0
DICTIONARY
  5
19A
102
{ACAD_REACTORS
330
C
102
}
330
C
100
AcDbDictionary
281
     1
  3
DIMASSOC
350
19B
  0
LAYOUT
  5
1D
102
{ACAD_REACTORS
330
19
102
}
330
19
100
AcDbPlotSettings
  1

  2
hp deskjet 980c series
  4

  6

 40
0.0
 41
0.0
 42
0.0
 43
0.0
 44
0.0
 45
0.0
 46
0.0
 47
0.0
 48
0.0
 49
0.0
140
0.0
141
0.0
142
1.0
143
1.0
 70
   688
 72
     0
 73
     0
 74
     5
  7

 75
    16
147
1.0
148
0.0
149
0.0
100
AcDbLayout
  1
Layout1
 70
     1
 71
     1
 10
0.0
 20
0.0
 11
12.0
 21
9.0
 12
0.0
 22
0.0
 32
0.0
 14
1.000000000000000E+20
 24
1.000000000000000E+20
 34
1.000000000000000E+20
 15
-1.000000000000000E+20
 25
-1.000000000000000E+20
 35
-1.000000000000000E+20
146
0.0
 13
0.0
 23
0.0
 33
0.0
 16
1.0
 26
0.0
 36
0.0
 17
0.0
 27
1.0
 37
0.0
 76
     0
330
1A
  0
LAYOUT
  5
21
102
{ACAD_REACTORS
330
19
102
}
330
19
100
AcDbPlotSettings
  1

  2
hp deskjet 980c series
  4

  6

 40
0.0
 41
0.0
 42
0.0
 43
0.0
 44
0.0
 45
0.0
 46
0.0
 47
0.0
 48
0.0
 49
0.0
140
0.0
141
0.0
142
1.0
143
1.0
 70
  1712
 72
     0
 73
     0
 74
     0
  7

 75
     0
147
1.0
148
0.0
149
0.0
100
AcDbLayout
  1
Model
 70
     1
 71
     0
 10
0.0
 20
0.0
 11
12.0
 21
9.0
 12
0.0
 22
0.0
 32
0.0
 14
0.0
 24
0.0
 34
0.0
 15
0.0
 25
0.0
 35
0.0
146
0.0
 13
0.0
 23
0.0
 33
0.0
 16
1.0
 26
0.0
 36
0.0
 17
0.0
 27
1.0
 37
0.0
 76
     0
330
1E
  0
MLINESTYLE
  5
17
102
{ACAD_REACTORS
330
16
102
}
330
16
100
AcDbMlineStyle
  2
STANDARD
 70
     0
  3

 62
   256
 51
90.0
 52
90.0
 71
     2
 49
0.5
 62
   256
  6
BYLAYER
 49
-0.5
 62
   256
  6
BYLAYER
  0
ACDBPLACEHOLDER
  5
F
102
{ACAD_REACTORS
330
E
102
}
330
E
  0
DICTIONARYVAR
  5
19B
102
{ACAD_REACTORS
330
19A
102
}
330
19A
100
DictionaryVariables
280
     0
  1
1
  0
ENDSEC
  0
EOF
