  0
SECTION
  2
HEADER
  9
$ACADVER
  1
AC1015
  9
$ACADMAINTVER
 70
    13
  9
$DWGCODEPAGE
  3
ANSI_1252
  9
$INSBASE
 10
0.0
 20
0.0
 30
0.0
  9
$EXTMIN
 10
-0.0000000000000047
 20
-0.0000000000000008
 30
0.0
  9
$EXTMAX
 10
105.0
 20
125.0
 30
0.0
  9
$LIMMIN
 10
0.0
 20
0.0
  9
$LIMMAX
 10
12.0
 20
9.0
  9
$ORTHOMODE
 70
     0
  9
$REGENMODE
 70
     1
  9
$FILLMODE
 70
     1
  9
$QTEXTMODE
 70
     0
  9
$MIRRTEXT
 70
     1
  9
$LTSCALE
 40
1.0
  9
$ATTMODE
 70
     1
  9
$TEXTSIZE
 40
0.2
  9
$TRACEWID
 40
0.05
  9
$TEXTSTYLE
  7
Standard
  9
$CLAYER
  8
0
  9
$CELTYPE
  6
Continuous
  9
$CECOLOR
 62
   256
  9
$CELTSCALE
 40
1.0
  9
$DISPSILH
 70
     0
  9
$DIMSCALE
 40
1.0
  9
$DIMASZ
 40
0.18
  9
$DIMEXO
 40
0.0625
  9
$DIMDLI
 40
0.38
  9
$DIMRND
 40
0.0
  9
$DIMDLE
 40
0.0
  9
$DIMEXE
 40
0.18
  9
$DIMTP
 40
0.0
  9
$DIMTM
 40
0.0
  9
$DIMTXT
 40
0.18
  9
$DIMCEN
 40
0.09
  9
$DIMTSZ
 40
0.0
  9
$DIMTOL
 70
     0
  9
$DIMLIM
 70
     0
  9
$DIMTIH
 70
     1
  9
$DIMTOH
 70
     1
  9
$DIMSE1
 70
     0
  9
$DIMSE2
 70
     0
  9
$DIMTAD
 70
     0
  9
$DIMZIN
 70
     0
  9
$DIMBLK
  1

  9
$DIMASO
 70
     1
  9
$DIMSHO
 70
     1
  9
$DIMPOST
  1

  9
$DIMAPOST
  1

  9
$DIMALT
 70
     0
  9
$DIMALTD
 70
     2
  9
$DIMALTF
 40
25.4
  9
$DIMLFAC
 40
1.0
  9
$DIMTOFL
 70
     0
  9
$DIMTVP
 40
0.0
  9
$DIMTIX
 70
     0
  9
$DIMSOXD
 70
     0
  9
$DIMSAH
 70
     0
  9
$DIMBLK1
  1

  9
$DIMBLK2
  1

  9
$DIMSTYLE
  2
Standard
  9
$DIMCLRD
 70
     0
  9
$DIMCLRE
 70
     0
  9
$DIMCLRT
 70
     0
  9
$DIMTFAC
 40
1.0
  9
$DIMGAP
 40
0.09
  9
$DIMJUST
 70
     0
  9
$DIMSD1
 70
     0
  9
$DIMSD2
 70
     0
  9
$DIMTOLJ
 70
     1
  9
$DIMTZIN
 70
     0
  9
$DIMALTZ
 70
     0
  9
$DIMALTTZ
 70
     0
  9
$DIMUPT
 70
     0
  9
$DIMDEC
 70
     4
  9
$DIMTDEC
 70
     4
  9
$DIMALTU
 70
     2
  9
$DIMALTTD
 70
     2
  9
$DIMTXSTY
  7
Standard
  9
$DIMAUNIT
 70
     0
  9
$DIMADEC
 70
     0
  9
$DIMALTRND
 40
0.0
  9
$DIMAZIN
 70
     0
  9
$DIMDSEP
 70
    46
  9
$DIMATFIT
 70
     3
  9
$DIMFRAC
 70
     0
  9
$DIMLDRBLK
  1

  9
$DIMLUNIT
 70
     2
  9
$DIMLWD
 70
    -2
  9
$DIMLWE
 70
    -2
  9
$DIMTMOVE
 70
     0
  9
$LUNITS
 70
     2
  9
$LUPREC
 70
     4
  9
$SKETCHINC
 40
0.1
  9
$FILLETRAD
 40
0.0
  9
$AUNITS
 70
     0
  9
$AUPREC
 70
     0
  9
$MENU
  1
.
  9
$ELEVATION
 40
0.0
  9
$PELEVATION
 40
0.0
  9
$THICKNESS
 40
0.0
  9
$LIMCHECK
 70
     0
  9
$CHAMFERA
 40
0.0
  9
$CHAMFERB
 40
0.0
  9
$CHAMFERC
 40
0.0
  9
$CHAMFERD
 40
0.0
  9
$SKPOLY
 70
     0
  9
$TDCREATE
 40
2454637.706009085
  9
$TDUCREATE
 40
2454637.622675752
  9
$TDUPDATE
 40
2454637.707979930
  9
$TDUUPDATE
 40
2454637.624646597
  9
$TDINDWG
 40
0.0019710301
  9
$TDUSRTIMER
 40
0.0019710301
  9
$USRTIMER
 70
     1
  9
$ANGBASE
 50
0.0
  9
$ANGDIR
 70
     0
  9
$PDMODE
 70
     0
  9
$PDSIZE
 40
0.0
  9
$PLINEWID
 40
0.0
  9
$SPLFRAME
 70
     0
  9
$SPLINETYPE
 70
     6
  9
$SPLINESEGS
 70
     8
  9
$HANDSEED
  5
241
  9
$SURFTAB1
 70
     6
  9
$SURFTAB2
 70
     6
  9
$SURFTYPE
 70
     6
  9
$SURFU
 70
     6
  9
$SURFV
 70
     6
  9
$UCSBASE
  2

  9
$UCSNAME
  2

  9
$UCSORG
 10
0.0
 20
0.0
 30
0.0
  9
$UCSXDIR
 10
1.0
 20
0.0
 30
0.0
  9
$UCSYDIR
 10
0.0
 20
1.0
 30
0.0
  9
$UCSORTHOREF
  2

  9
$UCSORTHOVIEW
 70
     1
  9
$UCSORGTOP
 10
0.0
 20
0.0
 30
0.0
  9
$UCSORGBOTTOM
 10
0.0
 20
0.0
 30
0.0
  9
$UCSORGLEFT
 10
0.0
 20
0.0
 30
0.0
  9
$UCSORGRIGHT
 10
0.0
 20
0.0
 30
0.0
  9
$UCSORGFRONT
 10
0.0
 20
0.0
 30
0.0
  9
$UCSORGBACK
 10
0.0
 20
0.0
 30
0.0
  9
$PUCSBASE
  2

  9
$PUCSNAME
  2

  9
$PUCSORG
 10
0.0
 20
0.0
 30
0.0
  9
$PUCSXDIR
 10
1.0
 20
0.0
 30
0.0
  9
$PUCSYDIR
 10
0.0
 20
1.0
 30
0.0
  9
$PUCSORTHOREF
  2

  9
$PUCSORTHOVIEW
 70
     0
  9
$PUCSORGTOP
 10
0.0
 20
0.0
 30
0.0
  9
$PUCSORGBOTTOM
 10
0.0
 20
0.0
 30
0.0
  9
$PUCSORGLEFT
 10
0.0
 20
0.0
 30
0.0
  9
$PUCSORGRIGHT
 10
0.0
 20
0.0
 30
0.0
  9
$PUCSORGFRONT
 10
0.0
 20
0.0
 30
0.0
  9
$PUCSORGBACK
 10
0.0
 20
0.0
 30
0.0
  9
$USERI1
 70
     0
  9
$USERI2
 70
     0
  9
$USERI3
 70
     0
  9
$USERI4
 70
     0
  9
$USERI5
 70
     0
  9
$USERR1
 40
0.0
  9
$USERR2
 40
0.0
  9
$USERR3
 40
0.0
  9
$USERR4
 40
0.0
  9
$USERR5
 40
0.0
  9
$WORLDVIEW
 70
     1
  9
$SHADEDGE
 70
     3
  9
$SHADEDIF
 70
    70
  9
$TILEMODE
 70
     1
  9
$MAXACTVP
 70
    64
  9
$PINSBASE
 10
0.0
 20
0.0
 30
0.0
  9
$PLIMCHECK
 70
     0
  9
$PEXTMIN
 10
1.000000000000000E+20
 20
1.000000000000000E+20
 30
1.000000000000000E+20
  9
$PEXTMAX
 10
-1.000000000000000E+20
 20
-1.000000000000000E+20
 30
-1.000000000000000E+20
  9
$PLIMMIN
 10
0.0
 20
0.0
  9
$PLIMMAX
 10
12.0
 20
9.0
  9
$UNITMODE
 70
     0
  9
$VISRETAIN
 70
     1
  9
$PLINEGEN
 70
     0
  9
$PSLTSCALE
 70
     1
  9
$TREEDEPTH
 70
  3020
  9
$CMLSTYLE
  2
Standard
  9
$CMLJUST
 70
     0
  9
$CMLSCALE
 40
1.0
  9
$PROXYGRAPHICS
 70
     1
  9
$MEASUREMENT
 70
     0
  9
$CELWEIGHT
370
    -1
  9
$ENDCAPS
280
     0
  9
$JOINSTYLE
280
     0
  9
$LWDISPLAY
290
     0
  9
$INSUNITS
 70
     0
  9
$HYPERLINKBASE
  1

  9
$STYLESHEET
  1

  9
$XEDIT
290
     1
  9
$CEPSNTYPE
380
     0
  9
$PSTYLEMODE
290
     1
  9
$FINGERPRINTGUID
  2
{41E168AF-F92F-42DE-9656-C1548741FFA4}
  9
$VERSIONGUID
  2
{C51C278C-4B23-4031-9020-92394A418E2E}
  9
$EXTNAMES
290
     1
  9
$PSVPSCALE
 40
0.0
  9
$OLESTARTUP
290
     0
  0
ENDSEC
  0
SECTION
  2
CLASSES
  0
CLASS
  1
ACDBDICTIONARYWDFLT
  2
AcDbDictionaryWithDefault
  3
AutoCAD 2000
 90
        0
280
     0
281
     0
  0
CLASS
  1
ACDBPLACEHOLDER
  2
AcDbPlaceHolder
  3
AutoCAD 2000
 90
        0
280
     0
281
     0
  0
CLASS
  1
LAYOUT
  2
AcDbLayout
  3
AutoCAD 2000
 90
        0
280
     0
281
     0
  0
CLASS
  1
DICTIONARYVAR
  2
AcDbDictionaryVar
  3
AutoCAD 2000
 90
        0
280
     0
281
     0
  0
ENDSEC
  0
SECTION
  2
TABLES
  0
TABLE
  2
VPORT
  5
8
330
0
100
AcDbSymbolTable
 70
     2
  0
VPORT
  5
240
330
8
100
AcDbSymbolTableRecord
100
AcDbViewportTableRecord
  2
*Active
 70
     0
 10
0.0
 20
0.0
 11
1.0
 21
1.0
 12
52.5
 22
62.5
 13
0.0
 23
0.0
 14
1.0
 24
1.0
 15
0.0
 25
0.0
 16
0.0
 26
0.0
 36
1.0
 17
0.0
 27
0.0
 37
0.0
 40
125.9590792838874
 41
2.043533930857874
 42
50.0
 43
0.0
 44
0.0
 50
0.0
 51
0.0
 71
     0
 72
   100
 73
     1
 74
     3
 75
     0
 76
     0
 77
     0
 78
     0
281
     0
 65
     1
110
0.0
120
0.0
130
0.0
111
1.0
121
0.0
131
0.0
112
0.0
122
1.0
132
0.0
 79
     1
146
0.0
  0
ENDTAB
  0
TABLE
  2
LTYPE
  5
5
330
0
100
AcDbSymbolTable
 70
     1
  0
LTYPE
  5
13
330
5
100
AcDbSymbolTableRecord
100
AcDbLinetypeTableRecord
  2
ByBlock
 70
     0
  3

 72
    65
 73
     0
 40
0.0
  0
LTYPE
  5
14
330
5
100
AcDbSymbolTableRecord
100
AcDbLinetypeTableRecord
  2
ByLayer
 70
     0
  3

 72
    65
 73
     0
 40
0.0
  0
LTYPE
  5
15
330
5
100
AcDbSymbolTableRecord
100
AcDbLinetypeTableRecord
  2
Continuous
 70
     0
  3
Solid line
 72
    65
 73
     0
 40
0.0
  0
ENDTAB
  0
TABLE
  2
LAYER
  5
2
330
0
100
AcDbSymbolTable
 70
     1
  0
LAYER
  5
10
330
2
100
AcDbSymbolTableRecord
100
AcDbLayerTableRecord
  2
0
 70
     0
 62
     7
  6
Continuous
370
    -3
390
F
  0
ENDTAB
  0
TABLE
  2
STYLE
  5
3
330
0
100
AcDbSymbolTable
 70
     1
  0
STYLE
  5
11
330
3
100
AcDbSymbolTableRecord
100
AcDbTextStyleTableRecord
  2
Standard
 70
     0
 40
0.0
 41
1.0
 50
0.0
 71
     0
 42
0.2
  3
txt
  4

  0
ENDTAB
  0
TABLE
  2
VIEW
  5
6
330
0
100
AcDbSymbolTable
 70
     0
  0
ENDTAB
  0
TABLE
  2
UCS
  5
7
330
0
100
AcDbSymbolTable
 70
     0
  0
ENDTAB
  0
TABLE
  2
APPID
  5
9
330
0
100
AcDbSymbolTable
 70
     1
  0
APPID
  5
12
330
9
100
AcDbSymbolTableRecord
100
AcDbRegAppTableRecord
  2
ACAD
 70
     0
  0
ENDTAB
  0
TABLE
  2
DIMSTYLE
  5
A
330
0
100
AcDbSymbolTable
 70
     1
100
AcDbDimStyleTable
 71
     0
  0
DIMSTYLE
105
23A
330
A
100
AcDbSymbolTableRecord
100
AcDbDimStyleTableRecord
  2
Standard
 70
     0
340
11
  0
ENDTAB
  0
TABLE
  2
BLOCK_RECORD
  5
1
330
0
100
AcDbSymbolTable
 70
     0
  0
BLOCK_RECORD
  5
1E
330
1
100
AcDbSymbolTableRecord
100
AcDbBlockTableRecord
  2
*Model_Space
340
21
  0
BLOCK_RECORD
  5
1A
330
1
100
AcDbSymbolTableRecord
100
AcDbBlockTableRecord
  2
*Paper_Space
340
1D
  0
ENDTAB
  0
ENDSEC
  0
SECTION
  2
BLOCKS
  0
BLOCK
  5
1F
330
1E
100
AcDbEntity
  8
0
100
AcDbBlockBegin
  2
*Model_Space
 70
     0
 10
0.0
 20
0.0
 30
0.0
  3
*Model_Space
  1

  0
ENDBLK
  5
20
330
1E
100
AcDbEntity
  8
0
100
AcDbBlockEnd
  0
BLOCK
  5
1B
330
1A
100
AcDbEntity
 67
     1
  8
0
100
AcDbBlockBegin
  2
*Paper_Space
 70
     0
 10
0.0
 20
0.0
 30
0.0
  3
*Paper_Space
  1

  0
ENDBLK
  5
1C
330
1A
100
AcDbEntity
 67
     1
  8
0
100
AcDbBlockEnd
  0
ENDSEC
  0
SECTION
  2
ENTITIES
  0
LINE
  5
22
330
1E
100
AcDbEntity
  8
0
100
AcDbLine
 10
52.5
 20
-0.0000000000000008
 30
0.0
 11
76.29000000000001
 21
0.600000999999999
 31
0.0
  0
LINE
  5
23
330
1E
100
AcDbEntity
  8
0
100
AcDbLine
 10
28.71
 20
0.600000999999999
 30
0.0
 11
52.5
 21
-0.0000000000000008
 31
0.0
  0
LINE
  5
24
330
1E
100
AcDbEntity
  8
0
100
AcDbLine
 10
28.71
 20
0.600000999999999
 30
0.0
 11
52.5
 21
-0.0000000000000008
 31
0.0
  0
LINE
  5
25
330
1E
100
AcDbEntity
  8
0
100
AcDbLine
 10
52.5
 20
-0.0000000000000008
 30
0.0
 11
76.29000000000001
 21
0.600000999999999
 31
0.0
  0
LINE
  5
26
330
1E
100
AcDbEntity
  8
0
100
AcDbLine
 10
76.29000000000001
 20
0.600000999999999
 30
0.0
 11
81.78
 21
1.199989999999999
 31
0.0
  0
LINE
  5
27
330
1E
100
AcDbEntity
  8
0
100
AcDbLine
 10
27.124
 20
1.199989999999999
 30
0.0
 11
31.882
 21
1.199989999999999
 31
0.0
  0
LINE
  5
28
330
1E
100
AcDbEntity
  8
0
100
AcDbLine
 10
24.318
 20
1.199989999999999
 30
0.0
 11
27.124
 21
1.199989999999999
 31
0.0
  0
LINE
  5
29
330
1E
100
AcDbEntity
  8
0
100
AcDbLine
 10
23.22
 20
1.199989999999999
 30
0.0
 11
28.71
 21
0.600000999999999
 31
0.0
  0
LINE
  5
2A
330
1E
100
AcDbEntity
  8
0
100
AcDbLine
 10
23.22
 20
1.199989999999999
 30
0.0
 11
24.318
 21
1.199989999999999
 31
0.0
  0
LINE
  5
2B
330
1E
100
AcDbEntity
  8
0
100
AcDbLine
 10
37.86
 20
1.199989999999999
 30
0.0
 11
44.936
 21
1.199989999999999
 31
0.0
  0
LINE
  5
2C
330
1E
100
AcDbEntity
  8
0
100
AcDbLine
 10
31.882
 20
1.199989999999999
 30
0.0
 11
37.86
 21
1.199989999999999
 31
0.0
  0
LINE
  5
2D
330
1E
100
AcDbEntity
  8
0
100
AcDbLine
 10
44.936
 20
1.199989999999999
 30
0.0
 11
52.5
 21
1.199989999999999
 31
0.0
  0
LINE
  5
2E
330
1E
100
AcDbEntity
  8
0
100
AcDbLine
 10
52.5
 20
1.199989999999999
 30
0.0
 11
60.06399999999999
 21
1.199989999999999
 31
0.0
  0
LINE
  5
2F
330
1E
100
AcDbEntity
  8
0
100
AcDbLine
 10
60.06399999999999
 20
1.199989999999999
 30
0.0
 11
67.14
 21
1.199989999999999
 31
0.0
  0
LINE
  5
30
330
1E
100
AcDbEntity
  8
0
100
AcDbLine
 10
67.14
 20
1.199989999999999
 30
0.0
 11
73.11799999999999
 21
1.199989999999999
 31
0.0
  0
LINE
  5
31
330
1E
100
AcDbEntity
  8
0
100
AcDbLine
 10
73.11799999999999
 20
1.199989999999999
 30
0.0
 11
77.87600000000001
 21
1.199989999999999
 31
0.0
  0
LINE
  5
32
330
1E
100
AcDbEntity
  8
0
100
AcDbLine
 10
77.87600000000001
 20
1.199989999999999
 30
0.0
 11
80.682
 21
1.199989999999999
 31
0.0
  0
LINE
  5
33
330
1E
100
AcDbEntity
  8
0
100
AcDbLine
 10
80.682
 20
1.199989999999999
 30
0.0
 11
81.78
 21
1.199989999999999
 31
0.0
  0
LINE
  5
34
330
1E
100
AcDbEntity
  8
0
100
AcDbLine
 10
81.78
 20
1.199989999999999
 30
0.0
 11
83.0
 21
2.399999999999999
 31
0.0
  0
LINE
  5
35
330
1E
100
AcDbEntity
  8
0
100
AcDbLine
 10
31.028
 20
2.399999999999999
 30
0.0
 11
37.372
 21
2.399999999999999
 31
0.0
  0
LINE
  5
36
330
1E
100
AcDbEntity
  8
0
100
AcDbLine
 10
26.026
 20
2.399999999999999
 30
0.0
 11
31.028
 21
2.399999999999999
 31
0.0
  0
LINE
  5
37
330
1E
100
AcDbEntity
  8
0
100
AcDbLine
 10
23.098
 20
2.399999999999999
 30
0.0
 11
26.026
 21
2.399999999999999
 31
0.0
  0
LINE
  5
38
330
1E
100
AcDbEntity
  8
0
100
AcDbLine
 10
22.0
 20
2.399999999999999
 30
0.0
 11
23.098
 21
2.399999999999999
 31
0.0
  0
LINE
  5
39
330
1E
100
AcDbEntity
  8
0
100
AcDbLine
 10
22.0
 20
2.399999999999999
 30
0.0
 11
22.0
 21
52.8001
 31
0.0
  0
LINE
  5
3A
330
1E
100
AcDbEntity
  8
0
100
AcDbLine
 10
22.0
 20
2.399999999999999
 30
0.0
 11
23.22
 21
1.199989999999999
 31
0.0
  0
LINE
  5
3B
330
1E
100
AcDbEntity
  8
0
100
AcDbLine
 10
44.69199999999999
 20
2.399999999999999
 30
0.0
 11
52.5
 21
2.399999999999999
 31
0.0
  0
LINE
  5
3C
330
1E
100
AcDbEntity
  8
0
100
AcDbLine
 10
37.372
 20
2.399999999999999
 30
0.0
 11
44.69199999999999
 21
2.399999999999999
 31
0.0
  0
LINE
  5
3D
330
1E
100
AcDbEntity
  8
0
100
AcDbLine
 10
31.028
 20
52.8001
 30
0.0
 11
37.372
 21
52.8001
 31
0.0
  0
LINE
  5
3E
330
1E
100
AcDbEntity
  8
0
100
AcDbLine
 10
26.026
 20
52.8001
 30
0.0
 11
31.028
 21
52.8001
 31
0.0
  0
LINE
  5
3F
330
1E
100
AcDbEntity
  8
0
100
AcDbLine
 10
23.098
 20
52.8001
 30
0.0
 11
26.026
 21
52.8001
 31
0.0
  0
LINE
  5
40
330
1E
100
AcDbEntity
  8
0
100
AcDbLine
 10
22.0
 20
52.8001
 30
0.0
 11
22.0
 21
2.399999999999999
 31
0.0
  0
LINE
  5
41
330
1E
100
AcDbEntity
  8
0
100
AcDbLine
 10
22.0
 20
52.8001
 30
0.0
 11
23.098
 21
52.8001
 31
0.0
  0
LINE
  5
42
330
1E
100
AcDbEntity
  8
0
100
AcDbLine
 10
22.0
 20
52.8001
 30
0.0
 11
23.22
 21
54.0
 31
0.0
  0
LINE
  5
43
330
1E
100
AcDbEntity
  8
0
100
AcDbLine
 10
44.69199999999999
 20
52.8001
 30
0.0
 11
52.5
 21
52.8001
 31
0.0
  0
LINE
  5
44
330
1E
100
AcDbEntity
  8
0
100
AcDbLine
 10
37.372
 20
52.8001
 30
0.0
 11
44.69199999999999
 21
52.8001
 31
0.0
  0
LINE
  5
45
330
1E
100
AcDbEntity
  8
0
100
AcDbLine
 10
52.5
 20
2.399999999999999
 30
0.0
 11
60.308
 21
2.399999999999999
 31
0.0
  0
LINE
  5
46
330
1E
100
AcDbEntity
  8
0
100
AcDbLine
 10
60.308
 20
2.399999999999999
 30
0.0
 11
67.628
 21
2.399999999999999
 31
0.0
  0
LINE
  5
47
330
1E
100
AcDbEntity
  8
0
100
AcDbLine
 10
52.5
 20
52.8001
 30
0.0
 11
60.308
 21
52.8001
 31
0.0
  0
LINE
  5
48
330
1E
100
AcDbEntity
  8
0
100
AcDbLine
 10
67.628
 20
2.399999999999999
 30
0.0
 11
73.97199999999999
 21
2.399999999999999
 31
0.0
  0
LINE
  5
49
330
1E
100
AcDbEntity
  8
0
100
AcDbLine
 10
73.97199999999999
 20
2.399999999999999
 30
0.0
 11
78.97399999999999
 21
2.399999999999999
 31
0.0
  0
LINE
  5
4A
330
1E
100
AcDbEntity
  8
0
100
AcDbLine
 10
60.308
 20
52.8001
 30
0.0
 11
67.628
 21
52.8001
 31
0.0
  0
LINE
  5
4B
330
1E
100
AcDbEntity
  8
0
100
AcDbLine
 10
67.628
 20
52.8001
 30
0.0
 11
73.97199999999999
 21
52.8001
 31
0.0
  0
LINE
  5
4C
330
1E
100
AcDbEntity
  8
0
100
AcDbLine
 10
78.97399999999999
 20
2.399999999999999
 30
0.0
 11
81.902
 21
2.399999999999999
 31
0.0
  0
LINE
  5
4D
330
1E
100
AcDbEntity
  8
0
100
AcDbLine
 10
73.97199999999999
 20
52.8001
 30
0.0
 11
78.97399999999999
 21
52.8001
 31
0.0
  0
LINE
  5
4E
330
1E
100
AcDbEntity
  8
0
100
AcDbLine
 10
25.0
 20
54.0
 30
0.0
 11
25.0
 21
60.0
 31
0.0
  0
LINE
  5
4F
330
1E
100
AcDbEntity
  8
0
100
AcDbLine
 10
44.936
 20
54.0
 30
0.0
 11
52.5
 21
54.0
 31
0.0
  0
LINE
  5
50
330
1E
100
AcDbEntity
  8
0
100
AcDbLine
 10
37.86
 20
54.0
 30
0.0
 11
44.936
 21
54.0
 31
0.0
  0
LINE
  5
51
330
1E
100
AcDbEntity
  8
0
100
AcDbLine
 10
31.882
 20
54.0
 30
0.0
 11
37.86
 21
54.0
 31
0.0
  0
LINE
  5
52
330
1E
100
AcDbEntity
  8
0
100
AcDbLine
 10
27.124
 20
54.0
 30
0.0
 11
31.882
 21
54.0
 31
0.0
  0
LINE
  5
53
330
1E
100
AcDbEntity
  8
0
100
AcDbLine
 10
24.318
 20
54.0
 30
0.0
 11
27.124
 21
54.0
 31
0.0
  0
LINE
  5
54
330
1E
100
AcDbEntity
  8
0
100
AcDbLine
 10
23.22
 20
54.0
 30
0.0
 11
24.318
 21
54.0
 31
0.0
  0
LINE
  5
55
330
1E
100
AcDbEntity
  8
0
100
AcDbLine
 10
52.5
 20
54.0
 30
0.0
 11
60.06399999999999
 21
54.0
 31
0.0
  0
LINE
  5
56
330
1E
100
AcDbEntity
  8
0
100
AcDbLine
 10
60.06399999999999
 20
54.0
 30
0.0
 11
67.14
 21
54.0
 31
0.0
  0
LINE
  5
57
330
1E
100
AcDbEntity
  8
0
100
AcDbLine
 10
67.14
 20
54.0
 30
0.0
 11
73.11799999999999
 21
54.0
 31
0.0
  0
LINE
  5
58
330
1E
100
AcDbEntity
  8
0
100
AcDbLine
 10
1.7
 20
62.0
 30
0.0
 11
2.5
 21
62.0
 31
0.0
  0
LINE
  5
59
330
1E
100
AcDbEntity
  8
0
100
AcDbLine
 10
1.199999999999999
 20
62.0
 30
0.0
 11
1.7
 21
62.0
 31
0.0
  0
LINE
  5
5A
330
1E
100
AcDbEntity
  8
0
100
AcDbLine
 10
0.999999999999996
 20
62.0
 30
0.0
 11
1.199999999999999
 21
62.0
 31
0.0
  0
LINE
  5
5B
330
1E
100
AcDbEntity
  8
0
100
AcDbLine
 10
2.5
 20
62.0
 30
0.0
 11
3.5
 21
62.0
 31
0.0
  0
LINE
  5
5C
330
1E
100
AcDbEntity
  8
0
100
AcDbLine
 10
3.5
 20
62.0
 30
0.0
 11
4.7
 21
62.0
 31
0.0
  0
LINE
  5
5D
330
1E
100
AcDbEntity
  8
0
100
AcDbLine
 10
4.7
 20
62.0
 30
0.0
 11
6.0
 21
62.0
 31
0.0
  0
LINE
  5
5E
330
1E
100
AcDbEntity
  8
0
100
AcDbLine
 10
6.0
 20
62.0
 30
0.0
 11
22.0
 21
62.0
 31
0.0
  0
LINE
  5
5F
330
1E
100
AcDbEntity
  8
0
100
AcDbLine
 10
8.48437
 20
62.0
 30
0.0
 11
8.79155
 21
62.0
 31
0.0
  0
LINE
  5
60
330
1E
100
AcDbEntity
  8
0
100
AcDbLine
 10
8.48437
 20
62.0
 30
0.0
 11
8.79681
 21
62.0
 31
0.0
  0
LINE
  5
61
330
1E
100
AcDbEntity
  8
0
100
AcDbLine
 10
9.34322
 20
62.0
 30
0.0
 11
10.2155
 21
62.0
 31
0.0
  0
LINE
  5
62
330
1E
100
AcDbEntity
  8
0
100
AcDbLine
 10
9.15399
 20
62.0
 30
0.0
 11
9.41117
 21
62.0
 31
0.0
  0
LINE
  5
63
330
1E
100
AcDbEntity
  8
0
100
AcDbLine
 10
9.15399
 20
62.0
 30
0.0
 11
9.34322
 21
62.0
 31
0.0
  0
LINE
  5
64
330
1E
100
AcDbEntity
  8
0
100
AcDbLine
 10
9.41117
 20
62.0
 30
0.0
 11
10.1514
 21
62.0
 31
0.0
  0
LINE
  5
65
330
1E
100
AcDbEntity
  8
0
100
AcDbLine
 10
10.2155
 20
62.0
 30
0.0
 11
11.4609
 21
62.0
 31
0.0
  0
LINE
  5
66
330
1E
100
AcDbEntity
  8
0
100
AcDbLine
 10
10.9877
 20
62.0
 30
0.0
 11
12.743
 21
62.0
 31
0.0
  0
LINE
  5
67
330
1E
100
AcDbEntity
  8
0
100
AcDbLine
 10
9.655649999999999
 20
62.0
 30
0.0
 11
10.9877
 21
62.0
 31
0.0
  0
LINE
  5
68
330
1E
100
AcDbEntity
  8
0
100
AcDbLine
 10
8.79681
 20
62.0
 30
0.0
 11
9.655649999999999
 21
62.0
 31
0.0
  0
LINE
  5
69
330
1E
100
AcDbEntity
  8
0
100
AcDbLine
 10
8.79155
 20
62.0
 30
0.0
 11
9.631739999999998
 21
62.0
 31
0.0
  0
LINE
  5
6A
330
1E
100
AcDbEntity
  8
0
100
AcDbLine
 10
10.1514
 20
62.0
 30
0.0
 11
11.41119999999999
 21
62.0
 31
0.0
  0
LINE
  5
6B
330
1E
100
AcDbEntity
  8
0
100
AcDbLine
 10
11.4609
 20
62.0
 30
0.0
 11
13.043
 21
62.0
 31
0.0
  0
LINE
  5
6C
330
1E
100
AcDbEntity
  8
0
100
AcDbLine
 10
13.043
 20
62.0
 30
0.0
 11
14.925
 21
62.0
 31
0.0
  0
LINE
  5
6D
330
1E
100
AcDbEntity
  8
0
100
AcDbLine
 10
12.743
 20
62.0
 30
0.0
 11
14.7982
 21
62.0
 31
0.0
  0
LINE
  5
6E
330
1E
100
AcDbEntity
  8
0
100
AcDbLine
 10
13.054
 20
62.0
 30
0.0
 11
14.9432
 21
62.0
 31
0.0
  0
LINE
  5
6F
330
1E
100
AcDbEntity
  8
0
100
AcDbLine
 10
11.41119999999999
 20
62.0
 30
0.0
 11
13.054
 21
62.0
 31
0.0
  0
LINE
  5
70
330
1E
100
AcDbEntity
  8
0
100
AcDbLine
 10
14.925
 20
62.0
 30
0.0
 11
16.9705
 21
62.0
 31
0.0
  0
LINE
  5
71
330
1E
100
AcDbEntity
  8
0
100
AcDbLine
 10
16.9705
 20
62.0
 30
0.0
 11
19.0427
 21
62.0
 31
0.0
  0
LINE
  5
72
330
1E
100
AcDbEntity
  8
0
100
AcDbLine
 10
14.7982
 20
62.0
 30
0.0
 11
16.9303
 21
62.0
 31
0.0
  0
LINE
  5
73
330
1E
100
AcDbEntity
  8
0
100
AcDbLine
 10
16.9303
 20
62.0
 30
0.0
 11
19.1891
 21
62.0
 31
0.0
  0
LINE
  5
74
330
1E
100
AcDbEntity
  8
0
100
AcDbLine
 10
19.0427
 20
62.0
 30
0.0
 11
20.93189999999999
 21
62.0
 31
0.0
  0
LINE
  5
75
330
1E
100
AcDbEntity
  8
0
100
AcDbLine
 10
19.0609
 20
62.0
 30
0.0
 11
20.943
 21
62.0
 31
0.0
  0
LINE
  5
76
330
1E
100
AcDbEntity
  8
0
100
AcDbLine
 10
17.0155
 20
62.0
 30
0.0
 11
19.0609
 21
62.0
 31
0.0
  0
LINE
  5
77
330
1E
100
AcDbEntity
  8
0
100
AcDbLine
 10
14.9432
 20
62.0
 30
0.0
 11
17.0155
 21
62.0
 31
0.0
  0
LINE
  5
78
330
1E
100
AcDbEntity
  8
0
100
AcDbLine
 10
20.93189999999999
 20
62.0
 30
0.0
 11
22.0
 21
62.0
 31
0.0
  0
LINE
  5
79
330
1E
100
AcDbEntity
  8
0
100
AcDbLine
 10
19.1891
 20
62.0
 30
0.0
 11
21.30149999999999
 21
62.0
 31
0.0
  0
LINE
  5
7A
330
1E
100
AcDbEntity
  8
0
100
AcDbLine
 10
21.30149999999999
 20
62.0
 30
0.0
 11
22.0
 21
62.0
 31
0.0
  0
LINE
  5
7B
330
1E
100
AcDbEntity
  8
0
100
AcDbLine
 10
20.943
 20
62.0
 30
0.0
 11
22.0
 21
62.0
 31
0.0
  0
LINE
  5
7C
330
1E
100
AcDbEntity
  8
0
100
AcDbLine
 10
21.243
 20
62.0
 30
0.0
 11
22.0
 21
62.0
 31
0.0
  0
LINE
  5
7D
330
1E
100
AcDbEntity
  8
0
100
AcDbLine
 10
19.1877
 20
62.0
 30
0.0
 11
21.243
 21
62.0
 31
0.0
  0
LINE
  5
7E
330
1E
100
AcDbEntity
  8
0
100
AcDbLine
 10
17.0557
 20
62.0
 30
0.0
 11
19.1877
 21
62.0
 31
0.0
  0
LINE
  5
7F
330
1E
100
AcDbEntity
  8
0
100
AcDbLine
 10
14.7968
 20
62.0
 30
0.0
 11
17.0557
 21
62.0
 31
0.0
  0
LINE
  5
80
330
1E
100
AcDbEntity
  8
0
100
AcDbLine
 10
12.6844
 20
62.0
 30
0.0
 11
14.7968
 21
62.0
 31
0.0
  0
LINE
  5
81
330
1E
100
AcDbEntity
  8
0
100
AcDbLine
 10
10.9916
 20
62.0
 30
0.0
 11
12.6844
 21
62.0
 31
0.0
  0
LINE
  5
82
330
1E
100
AcDbEntity
  8
0
100
AcDbLine
 10
9.631739999999998
 20
62.0
 30
0.0
 11
10.9916
 21
62.0
 31
0.0
  0
LINE
  5
83
330
1E
100
AcDbEntity
  8
0
100
AcDbLine
 10
6.0
 20
62.0
 30
0.0
 11
22.0
 21
62.0
 31
0.0
  0
LINE
  5
84
330
1E
100
AcDbEntity
  8
0
100
AcDbLine
 10
-0.0000000000000047
 20
73.0
 30
0.0
 11
0.199999999999995
 21
73.0
 31
0.0
  0
LINE
  5
85
330
1E
100
AcDbEntity
  8
0
100
AcDbLine
 10
-0.0000000000000047
 20
73.0
 30
0.0
 11
-0.0000000000000047
 21
63.0
 31
0.0
  0
LINE
  5
86
330
1E
100
AcDbEntity
  8
0
100
AcDbLine
 10
-0.0000000000000047
 20
63.0
 30
0.0
 11
0.299999999999995
 21
62.3
 31
0.0
  0
LINE
  5
87
330
1E
100
AcDbEntity
  8
0
100
AcDbLine
 10
-0.0000000000000047
 20
63.0
 30
0.0
 11
-0.0000000000000047
 21
73.0
 31
0.0
  0
LINE
  5
88
330
1E
100
AcDbEntity
  8
0
100
AcDbLine
 10
0.4999999999999951
 20
62.3
 30
0.0
 11
1.1
 21
62.3
 31
0.0
  0
LINE
  5
89
330
1E
100
AcDbEntity
  8
0
100
AcDbLine
 10
0.299999999999995
 20
62.3
 30
0.0
 11
0.4999999999999951
 21
62.3
 31
0.0
  0
LINE
  5
8A
330
1E
100
AcDbEntity
  8
0
100
AcDbLine
 10
0.199999999999995
 20
73.0
 30
0.0
 11
0.799999999999995
 21
73.0
 31
0.0
  0
LINE
  5
8B
330
1E
100
AcDbEntity
  8
0
100
AcDbLine
 10
1.1
 20
62.3
 30
0.0
 11
2.0
 21
62.3
 31
0.0
  0
LINE
  5
8C
330
1E
100
AcDbEntity
  8
0
100
AcDbLine
 10
0.799999999999996
 20
73.0
 30
0.0
 11
1.8
 21
73.0
 31
0.0
  0
LINE
  5
8D
330
1E
100
AcDbEntity
  8
0
100
AcDbLine
 10
0.799999999999995
 20
73.0
 30
0.0
 11
1.8
 21
73.0
 31
0.0
  0
LINE
  5
8E
330
1E
100
AcDbEntity
  8
0
100
AcDbLine
 10
0.199999999999995
 20
73.0
 30
0.0
 11
0.799999999999995
 21
73.0
 31
0.0
  0
LINE
  5
8F
330
1E
100
AcDbEntity
  8
0
100
AcDbLine
 10
2.0
 20
62.3
 30
0.0
 11
3.2
 21
62.3
 31
0.0
  0
LINE
  5
90
330
1E
100
AcDbEntity
  8
0
100
AcDbLine
 10
1.8
 20
73.0
 30
0.0
 11
3.0
 21
73.0
 31
0.0
  0
LINE
  5
91
330
1E
100
AcDbEntity
  8
0
100
AcDbLine
 10
6.0
 20
62.3
 30
0.0
 11
52.5
 21
62.3
 31
0.0
  0
LINE
  5
92
330
1E
100
AcDbEntity
  8
0
100
AcDbLine
 10
3.2
 20
62.3
 30
0.0
 11
4.5
 21
62.3
 31
0.0
  0
LINE
  5
93
330
1E
100
AcDbEntity
  8
0
100
AcDbLine
 10
4.5
 20
62.3
 30
0.0
 11
6.0
 21
62.3
 31
0.0
  0
LINE
  5
94
330
1E
100
AcDbEntity
  8
0
100
AcDbLine
 10
3.0
 20
73.0
 30
0.0
 11
4.5
 21
73.0
 31
0.0
  0
LINE
  5
95
330
1E
100
AcDbEntity
  8
0
100
AcDbLine
 10
4.5
 20
93.244
 30
0.0
 11
4.5
 21
95.964
 31
0.0
  0
LINE
  5
96
330
1E
100
AcDbEntity
  8
0
100
AcDbLine
 10
4.5
 20
93.244
 30
0.0
 11
4.5
 21
91.612
 31
0.0
  0
LINE
  5
97
330
1E
100
AcDbEntity
  8
0
100
AcDbLine
 10
4.5
 20
95.964
 30
0.0
 11
4.5
 21
99.56800000000001
 31
0.0
  0
LINE
  5
98
330
1E
100
AcDbEntity
  8
0
100
AcDbLine
 10
4.5
 20
95.964
 30
0.0
 11
4.5
 21
93.244
 31
0.0
  0
LINE
  5
99
330
1E
100
AcDbEntity
  8
0
100
AcDbLine
 10
4.5
 20
95.35200000000001
 30
0.0
 11
4.5
 21
97.68343000000001
 31
0.0
  0
LINE
  5
9A
330
1E
100
AcDbEntity
  8
0
100
AcDbLine
 10
4.5
 20
95.35200000000001
 30
0.0
 11
4.5
 21
93.95314
 31
0.0
  0
LINE
  5
9B
330
1E
100
AcDbEntity
  8
0
100
AcDbLine
 10
4.5
 20
93.95314
 30
0.0
 11
4.5
 21
95.35200000000001
 31
0.0
  0
LINE
  5
9C
330
1E
100
AcDbEntity
  8
0
100
AcDbLine
 10
4.5
 20
93.95314
 30
0.0
 11
4.5
 21
93.42857
 31
0.0
  0
LINE
  5
9D
330
1E
100
AcDbEntity
  8
0
100
AcDbLine
 10
4.5
 20
93.42857
 30
0.0
 11
4.5
 21
93.95314
 31
0.0
  0
LINE
  5
9E
330
1E
100
AcDbEntity
  8
0
100
AcDbLine
 10
4.5
 20
100.7725699999999
 30
0.0
 11
4.5
 21
104.2696999999999
 31
0.0
  0
LINE
  5
9F
330
1E
100
AcDbEntity
  8
0
100
AcDbLine
 10
4.5
 20
100.7725699999999
 30
0.0
 11
4.5
 21
97.68343000000001
 31
0.0
  0
LINE
  5
A0
330
1E
100
AcDbEntity
  8
0
100
AcDbLine
 10
4.5
 20
97.68343000000001
 30
0.0
 11
4.5
 21
100.7725699999999
 31
0.0
  0
LINE
  5
A1
330
1E
100
AcDbEntity
  8
0
100
AcDbLine
 10
4.5
 20
97.68343000000001
 30
0.0
 11
4.5
 21
95.35200000000001
 31
0.0
  0
LINE
  5
A2
330
1E
100
AcDbEntity
  8
0
100
AcDbLine
 10
4.5
 20
112.352
 30
0.0
 11
4.5
 21
116.432
 31
0.0
  0
LINE
  5
A3
330
1E
100
AcDbEntity
  8
0
100
AcDbLine
 10
4.5
 20
112.352
 30
0.0
 11
4.5
 21
108.0
 31
0.0
  0
LINE
  5
A4
330
1E
100
AcDbEntity
  8
0
100
AcDbLine
 10
4.5
 20
111.7302999999999
 30
0.0
 11
4.5
 21
115.2274
 31
0.0
  0
LINE
  5
A5
330
1E
100
AcDbEntity
  8
0
100
AcDbLine
 10
4.5
 20
111.7302999999999
 30
0.0
 11
4.5
 21
108.0
 31
0.0
  0
LINE
  5
A6
330
1E
100
AcDbEntity
  8
0
100
AcDbLine
 10
4.5
 20
111.7302999999999
 30
0.0
 11
4.5
 21
115.2274
 31
0.0
  0
LINE
  5
A7
330
1E
100
AcDbEntity
  8
0
100
AcDbLine
 10
4.5
 20
115.2274
 30
0.0
 11
4.5
 21
111.7302999999999
 31
0.0
  0
LINE
  5
A8
330
1E
100
AcDbEntity
  8
0
100
AcDbLine
 10
4.5
 20
115.2274
 30
0.0
 11
4.5
 21
118.3165999999999
 31
0.0
  0
LINE
  5
A9
330
1E
100
AcDbEntity
  8
0
100
AcDbLine
 10
4.5
 20
115.2274
 30
0.0
 11
4.5
 21
118.3165999999999
 31
0.0
  0
LINE
  5
AA
330
1E
100
AcDbEntity
  8
0
100
AcDbLine
 10
4.5
 20
115.2274
 30
0.0
 11
4.5
 21
111.7302999999999
 31
0.0
  0
LINE
  5
AB
330
1E
100
AcDbEntity
  8
0
100
AcDbLine
 10
4.5
 20
118.3165999999999
 30
0.0
 11
4.5
 21
120.6479999999999
 31
0.0
  0
LINE
  5
AC
330
1E
100
AcDbEntity
  8
0
100
AcDbLine
 10
4.5
 20
118.3165999999999
 30
0.0
 11
4.5
 21
115.2274
 31
0.0
  0
LINE
  5
AD
330
1E
100
AcDbEntity
  8
0
100
AcDbLine
 10
4.5
 20
118.3165999999999
 30
0.0
 11
4.5
 21
115.2274
 31
0.0
  0
LINE
  5
AE
330
1E
100
AcDbEntity
  8
0
100
AcDbLine
 10
4.5
 20
112.352
 30
0.0
 11
4.5
 21
108.0
 31
0.0
  0
LINE
  5
AF
330
1E
100
AcDbEntity
  8
0
100
AcDbLine
 10
4.5
 20
112.352
 30
0.0
 11
4.5
 21
116.432
 31
0.0
  0
LINE
  5
B0
330
1E
100
AcDbEntity
  8
0
100
AcDbLine
 10
4.5
 20
116.432
 30
0.0
 11
4.5
 21
112.352
 31
0.0
  0
LINE
  5
B1
330
1E
100
AcDbEntity
  8
0
100
AcDbLine
 10
4.5
 20
116.432
 30
0.0
 11
4.5
 21
120.036
 31
0.0
  0
LINE
  5
B2
330
1E
100
AcDbEntity
  8
0
100
AcDbLine
 10
4.5
 20
116.432
 30
0.0
 11
4.5
 21
112.352
 31
0.0
  0
LINE
  5
B3
330
1E
100
AcDbEntity
  8
0
100
AcDbLine
 10
4.5
 20
122.5713999999999
 30
0.0
 11
4.5
 21
122.0469
 31
0.0
  0
LINE
  5
B4
330
1E
100
AcDbEntity
  8
0
100
AcDbLine
 10
4.5
 20
120.6479999999999
 30
0.0
 11
4.5
 21
122.0469
 31
0.0
  0
LINE
  5
B5
330
1E
100
AcDbEntity
  8
0
100
AcDbLine
 10
4.5
 20
120.6479999999999
 30
0.0
 11
4.5
 21
118.3165999999999
 31
0.0
  0
LINE
  5
B6
330
1E
100
AcDbEntity
  8
0
100
AcDbLine
 10
4.5
 20
122.0469
 30
0.0
 11
4.5
 21
122.5713999999999
 31
0.0
  0
LINE
  5
B7
330
1E
100
AcDbEntity
  8
0
100
AcDbLine
 10
4.5
 20
122.0469
 30
0.0
 11
4.5
 21
120.6479999999999
 31
0.0
  0
LINE
  5
B8
330
1E
100
AcDbEntity
  8
0
100
AcDbLine
 10
4.5
 20
120.036
 30
0.0
 11
4.5
 21
116.432
 31
0.0
  0
LINE
  5
B9
330
1E
100
AcDbEntity
  8
0
100
AcDbLine
 10
4.5
 20
120.036
 30
0.0
 11
4.5
 21
122.7559999999999
 31
0.0
  0
LINE
  5
BA
330
1E
100
AcDbEntity
  8
0
100
AcDbLine
 10
4.5
 20
122.7559999999999
 30
0.0
 11
4.5
 21
120.036
 31
0.0
  0
LINE
  5
BB
330
1E
100
AcDbEntity
  8
0
100
AcDbLine
 10
4.5
 20
122.7559999999999
 30
0.0
 11
4.5
 21
124.3879999999999
 31
0.0
  0
LINE
  5
BC
330
1E
100
AcDbEntity
  8
0
100
AcDbLine
 10
4.5
 20
124.3879999999999
 30
0.0
 11
4.5
 21
122.7559999999999
 31
0.0
  0
LINE
  5
BD
330
1E
100
AcDbEntity
  8
0
100
AcDbLine
 10
4.5
 20
124.3879999999999
 30
0.0
 11
4.5
 21
125.0
 31
0.0
  0
LINE
  5
BE
330
1E
100
AcDbEntity
  8
0
100
AcDbLine
 10
4.5
 20
125.0
 30
0.0
 11
4.5
 21
124.3879999999999
 31
0.0
  0
LINE
  5
BF
330
1E
100
AcDbEntity
  8
0
100
AcDbLine
 10
4.5
 20
125.0
 30
0.0
 11
27.5
 21
125.0
 31
0.0
  0
LINE
  5
C0
330
1E
100
AcDbEntity
  8
0
100
AcDbLine
 10
4.5
 20
104.2696999999999
 30
0.0
 11
4.5
 21
108.0
 31
0.0
  0
LINE
  5
C1
330
1E
100
AcDbEntity
  8
0
100
AcDbLine
 10
4.5
 20
104.2696999999999
 30
0.0
 11
4.5
 21
100.7725699999999
 31
0.0
  0
LINE
  5
C2
330
1E
100
AcDbEntity
  8
0
100
AcDbLine
 10
4.5
 20
108.0
 30
0.0
 11
4.5
 21
103.648
 31
0.0
  0
LINE
  5
C3
330
1E
100
AcDbEntity
  8
0
100
AcDbLine
 10
4.5
 20
108.0
 30
0.0
 11
4.5
 21
104.2696999999999
 31
0.0
  0
LINE
  5
C4
330
1E
100
AcDbEntity
  8
0
100
AcDbLine
 10
4.5
 20
108.0
 30
0.0
 11
4.5
 21
111.7302999999999
 31
0.0
  0
LINE
  5
C5
330
1E
100
AcDbEntity
  8
0
100
AcDbLine
 10
4.5
 20
108.0
 30
0.0
 11
4.5
 21
112.352
 31
0.0
  0
LINE
  5
C6
330
1E
100
AcDbEntity
  8
0
100
AcDbLine
 10
4.5
 20
108.0
 30
0.0
 11
4.5
 21
112.352
 31
0.0
  0
LINE
  5
C7
330
1E
100
AcDbEntity
  8
0
100
AcDbLine
 10
4.5
 20
103.648
 30
0.0
 11
4.5
 21
99.56800000000001
 31
0.0
  0
LINE
  5
C8
330
1E
100
AcDbEntity
  8
0
100
AcDbLine
 10
4.5
 20
103.648
 30
0.0
 11
4.5
 21
108.0
 31
0.0
  0
LINE
  5
C9
330
1E
100
AcDbEntity
  8
0
100
AcDbLine
 10
4.5
 20
99.56800000000001
 30
0.0
 11
4.5
 21
95.964
 31
0.0
  0
LINE
  5
CA
330
1E
100
AcDbEntity
  8
0
100
AcDbLine
 10
4.5
 20
99.56800000000001
 30
0.0
 11
4.5
 21
103.648
 31
0.0
  0
LINE
  5
CB
330
1E
100
AcDbEntity
  8
0
100
AcDbLine
 10
4.5
 20
99.56800000000001
 30
0.0
 11
4.5
 21
95.964
 31
0.0
  0
LINE
  5
CC
330
1E
100
AcDbEntity
  8
0
100
AcDbLine
 10
4.5
 20
95.964
 30
0.0
 11
4.5
 21
93.244
 31
0.0
  0
LINE
  5
CD
330
1E
100
AcDbEntity
  8
0
100
AcDbLine
 10
4.5
 20
95.964
 30
0.0
 11
4.5
 21
99.56800000000001
 31
0.0
  0
LINE
  5
CE
330
1E
100
AcDbEntity
  8
0
100
AcDbLine
 10
4.5
 20
93.244
 30
0.0
 11
4.5
 21
91.612
 31
0.0
  0
LINE
  5
CF
330
1E
100
AcDbEntity
  8
0
100
AcDbLine
 10
4.5
 20
93.244
 30
0.0
 11
4.5
 21
95.964
 31
0.0
  0
LINE
  5
D0
330
1E
100
AcDbEntity
  8
0
100
AcDbLine
 10
4.5
 20
91.0
 30
0.0
 11
25.5
 21
91.0
 31
0.0
  0
LINE
  5
D1
330
1E
100
AcDbEntity
  8
0
100
AcDbLine
 10
4.5
 20
91.0
 30
0.0
 11
4.5
 21
91.612
 31
0.0
  0
LINE
  5
D2
330
1E
100
AcDbEntity
  8
0
100
AcDbLine
 10
4.552976894368612
 20
109.5298120501907
 30
0.0
 11
7.29791
 21
109.4999999999999
 31
0.0
  0
LINE
  5
D3
330
1E
100
AcDbEntity
  8
0
100
AcDbLine
 10
4.581007818164493
 20
106.5044407917818
 30
0.0
 11
7.29791
 21
106.4999999999999
 31
0.0
  0
LINE
  5
D4
330
1E
100
AcDbEntity
  8
0
100
AcDbLine
 10
4.581007818164493
 20
106.5044407917818
 30
0.0
 11
7.386219999999999
 21
106.4999999999999
 31
0.0
  0
LINE
  5
D5
330
1E
100
AcDbEntity
  8
0
100
AcDbLine
 10
4.5
 20
91.612
 30
0.0
 11
4.5
 21
91.0
 31
0.0
  0
LINE
  5
D6
330
1E
100
AcDbEntity
  8
0
100
AcDbLine
 10
4.5
 20
91.612
 30
0.0
 11
4.5
 21
93.244
 31
0.0
  0
LINE
  5
D7
330
1E
100
AcDbEntity
  8
0
100
AcDbLine
 10
4.5
 20
91.612
 30
0.0
 11
4.5
 21
93.244
 31
0.0
  0
LINE
  5
D8
330
1E
100
AcDbEntity
  8
0
100
AcDbLine
 10
4.5
 20
73.0
 30
0.0
 11
6.0
 21
73.0
 31
0.0
  0
LINE
  5
D9
330
1E
100
AcDbEntity
  8
0
100
AcDbLine
 10
7.386219999999999
 20
106.4999999999999
 30
0.0
 11
8.888060000000001
 21
106.4999999999999
 31
0.0
  0
LINE
  5
DA
330
1E
100
AcDbEntity
  8
0
100
AcDbLine
 10
16.5
 20
106.4999999999999
 30
0.0
 11
18.77349999999999
 21
106.4999999999999
 31
0.0
  0
LINE
  5
DB
330
1E
100
AcDbEntity
  8
0
100
AcDbLine
 10
16.8457
 20
106.4999999999999
 30
0.0
 11
17.7479
 21
106.4999999999999
 31
0.0
  0
LINE
  5
DC
330
1E
100
AcDbEntity
  8
0
100
AcDbLine
 10
16.5074
 20
106.4999999999999
 30
0.0
 11
16.99609999999999
 21
106.4999999999999
 31
0.0
  0
LINE
  5
DD
330
1E
100
AcDbEntity
  8
0
100
AcDbLine
 10
16.5074
 20
106.4999999999999
 30
0.0
 11
16.8457
 21
106.4999999999999
 31
0.0
  0
LINE
  5
DE
330
1E
100
AcDbEntity
  8
0
100
AcDbLine
 10
18.77349999999999
 20
106.4999999999999
 30
0.0
 11
21.21859999999999
 21
106.4999999999999
 31
0.0
  0
LINE
  5
DF
330
1E
100
AcDbEntity
  8
0
100
AcDbLine
 10
18.3
 20
106.4999999999999
 30
0.0
 11
20.0362
 21
106.4999999999999
 31
0.0
  0
LINE
  5
E0
330
1E
100
AcDbEntity
  8
0
100
AcDbLine
 10
21.21859999999999
 20
106.4999999999999
 30
0.0
 11
24.3972
 21
106.4999999999999
 31
0.0
  0
LINE
  5
E1
330
1E
100
AcDbEntity
  8
0
100
AcDbLine
 10
20.0362
 20
106.4999999999999
 30
0.0
 11
22.1778
 21
106.4999999999999
 31
0.0
  0
LINE
  5
E2
330
1E
100
AcDbEntity
  8
0
100
AcDbLine
 10
21.1499
 20
106.4999999999999
 30
0.0
 11
23.4994
 21
106.4999999999999
 31
0.0
  0
LINE
  5
E3
330
1E
100
AcDbEntity
  8
0
100
AcDbLine
 10
19.27039999999999
 20
106.4999999999999
 30
0.0
 11
21.1499
 21
106.4999999999999
 31
0.0
  0
LINE
  5
E4
330
1E
100
AcDbEntity
  8
0
100
AcDbLine
 10
17.7479
 20
106.4999999999999
 30
0.0
 11
19.27039999999999
 21
106.4999999999999
 31
0.0
  0
LINE
  5
E5
330
1E
100
AcDbEntity
  8
0
100
AcDbLine
 10
16.99609999999999
 20
106.4999999999999
 30
0.0
 11
18.3
 21
106.4999999999999
 31
0.0
  0
LINE
  5
E6
330
1E
100
AcDbEntity
  8
0
100
AcDbLine
 10
15.004
 20
106.4999999999999
 30
0.0
 11
16.5
 21
106.4999999999999
 31
0.0
  0
LINE
  5
E7
330
1E
100
AcDbEntity
  8
0
100
AcDbLine
 10
13.96432
 20
106.4999999999999
 30
0.0
 11
15.004
 21
106.4999999999999
 31
0.0
  0
LINE
  5
E8
330
1E
100
AcDbEntity
  8
0
100
AcDbLine
 10
12.98576
 20
106.4999999999999
 30
0.0
 11
13.96432
 21
106.4999999999999
 31
0.0
  0
LINE
  5
E9
330
1E
100
AcDbEntity
  8
0
100
AcDbLine
 10
12.00721
 20
106.4999999999999
 30
0.0
 11
12.98576
 21
106.4999999999999
 31
0.0
  0
LINE
  5
EA
330
1E
100
AcDbEntity
  8
0
100
AcDbLine
 10
10.41706
 20
106.4999999999999
 30
0.0
 11
12.00721
 21
106.4999999999999
 31
0.0
  0
LINE
  5
EB
330
1E
100
AcDbEntity
  8
0
100
AcDbLine
 10
8.888060000000001
 20
106.4999999999999
 30
0.0
 11
10.41706
 21
106.4999999999999
 31
0.0
  0
LINE
  5
EC
330
1E
100
AcDbEntity
  8
0
100
AcDbLine
 10
21.21859999999999
 20
109.4999999999999
 30
0.0
 11
24.3972
 21
109.4999999999999
 31
0.0
  0
LINE
  5
ED
330
1E
100
AcDbEntity
  8
0
100
AcDbLine
 10
18.77349999999999
 20
109.4999999999999
 30
0.0
 11
21.21859999999999
 21
109.4999999999999
 31
0.0
  0
LINE
  5
EE
330
1E
100
AcDbEntity
  8
0
100
AcDbLine
 10
16.5
 20
109.4999999999999
 30
0.0
 11
18.77349999999999
 21
109.4999999999999
 31
0.0
  0
LINE
  5
EF
330
1E
100
AcDbEntity
  8
0
100
AcDbLine
 10
15.004
 20
109.4999999999999
 30
0.0
 11
16.5
 21
109.4999999999999
 31
0.0
  0
LINE
  5
F0
330
1E
100
AcDbEntity
  8
0
100
AcDbLine
 10
13.96432
 20
109.4999999999999
 30
0.0
 11
15.004
 21
109.4999999999999
 31
0.0
  0
LINE
  5
F1
330
1E
100
AcDbEntity
  8
0
100
AcDbLine
 10
12.98576
 20
109.4999999999999
 30
0.0
 11
13.96432
 21
109.4999999999999
 31
0.0
  0
LINE
  5
F2
330
1E
100
AcDbEntity
  8
0
100
AcDbLine
 10
12.00721
 20
109.4999999999999
 30
0.0
 11
12.98576
 21
109.4999999999999
 31
0.0
  0
LINE
  5
F3
330
1E
100
AcDbEntity
  8
0
100
AcDbLine
 10
10.41706
 20
109.4999999999999
 30
0.0
 11
12.00721
 21
109.4999999999999
 31
0.0
  0
LINE
  5
F4
330
1E
100
AcDbEntity
  8
0
100
AcDbLine
 10
8.888060000000001
 20
109.4999999999999
 30
0.0
 11
10.41706
 21
109.4999999999999
 31
0.0
  0
LINE
  5
F5
330
1E
100
AcDbEntity
  8
0
100
AcDbLine
 10
7.29791
 20
109.4999999999999
 30
0.0
 11
8.888060000000001
 21
109.4999999999999
 31
0.0
  0
LINE
  5
F6
330
1E
100
AcDbEntity
  8
0
100
AcDbLine
 10
7.29791
 20
106.4999999999999
 30
0.0
 11
8.888060000000001
 21
106.4999999999999
 31
0.0
  0
LINE
  5
F7
330
1E
100
AcDbEntity
  8
0
100
AcDbLine
 10
6.0
 20
73.0
 30
0.0
 11
52.5
 21
73.0
 31
0.0
  0
LINE
  5
F8
330
1E
100
AcDbEntity
  8
0
100
AcDbLine
 10
6.0
 20
62.3
 30
0.0
 11
52.5
 21
62.3
 31
0.0
  0
LINE
  5
F9
330
1E
100
AcDbEntity
  8
0
100
AcDbLine
 10
6.0
 20
73.0
 30
0.0
 11
52.5
 21
73.0
 31
0.0
  0
LINE
  5
FA
330
1E
100
AcDbEntity
  8
0
100
AcDbLine
 10
0.299999999999995
 20
62.3
 30
0.0
 11
0.999999999999996
 21
62.0
 31
0.0
  0
LINE
  5
FB
330
1E
100
AcDbEntity
  8
0
100
AcDbLine
 10
22.0
 20
62.0
 30
0.0
 11
22.0
 21
60.0
 31
0.0
  0
LINE
  5
FC
330
1E
100
AcDbEntity
  8
0
100
AcDbLine
 10
22.0
 20
62.0
 30
0.0
 11
23.098
 21
62.0
 31
0.0
  0
LINE
  5
FD
330
1E
100
AcDbEntity
  8
0
100
AcDbLine
 10
25.99
 20
60.0
 30
0.0
 11
28.62999999999999
 21
60.0
 31
0.0
  0
LINE
  5
FE
330
1E
100
AcDbEntity
  8
0
100
AcDbLine
 10
25.0
 20
60.0
 30
0.0
 11
25.0
 21
54.0
 31
0.0
  0
LINE
  5
FF
330
1E
100
AcDbEntity
  8
0
100
AcDbLine
 10
25.0
 20
60.0
 30
0.0
 11
25.99
 21
60.0
 31
0.0
  0
LINE
  5
100
330
1E
100
AcDbEntity
  8
0
100
AcDbLine
 10
28.62999999999999
 20
60.0
 30
0.0
 11
33.03
 21
60.0
 31
0.0
  0
LINE
  5
101
330
1E
100
AcDbEntity
  8
0
100
AcDbLine
 10
38.86
 20
60.0
 30
0.0
 11
45.46
 21
60.0
 31
0.0
  0
LINE
  5
102
330
1E
100
AcDbEntity
  8
0
100
AcDbLine
 10
33.03
 20
60.0
 30
0.0
 11
38.86
 21
60.0
 31
0.0
  0
LINE
  5
103
330
1E
100
AcDbEntity
  8
0
100
AcDbLine
 10
45.46
 20
60.0
 30
0.0
 11
52.5
 21
60.0
 31
0.0
  0
LINE
  5
104
330
1E
100
AcDbEntity
  8
0
100
AcDbLine
 10
44.69199999999999
 20
60.0
 30
0.0
 11
52.5
 21
60.0
 31
0.0
  0
LINE
  5
105
330
1E
100
AcDbEntity
  8
0
100
AcDbLine
 10
37.372
 20
60.0
 30
0.0
 11
44.69199999999999
 21
60.0
 31
0.0
  0
LINE
  5
106
330
1E
100
AcDbEntity
  8
0
100
AcDbLine
 10
30.906
 20
60.0
 30
0.0
 11
37.372
 21
60.0
 31
0.0
  0
LINE
  5
107
330
1E
100
AcDbEntity
  8
0
100
AcDbLine
 10
44.0
 20
62.0
 30
0.0
 11
44.29999999999999
 21
62.0
 31
0.0
  0
LINE
  5
108
330
1E
100
AcDbEntity
  8
0
100
AcDbLine
 10
44.0
 20
62.0
 30
0.0
 11
44.29999999999999
 21
62.0
 31
0.0
  0
LINE
  5
109
330
1E
100
AcDbEntity
  8
0
100
AcDbLine
 10
44.59999999999999
 20
62.0
 30
0.0
 11
44.9
 21
62.0
 31
0.0
  0
LINE
  5
10A
330
1E
100
AcDbEntity
  8
0
100
AcDbLine
 10
44.59999999999999
 20
62.0
 30
0.0
 11
44.9
 21
62.0
 31
0.0
  0
LINE
  5
10B
330
1E
100
AcDbEntity
  8
0
100
AcDbLine
 10
44.9
 20
62.0
 30
0.0
 11
45.7
 21
62.0
 31
0.0
  0
LINE
  5
10C
330
1E
100
AcDbEntity
  8
0
100
AcDbLine
 10
45.7
 20
62.0
 30
0.0
 11
46.9
 21
62.0
 31
0.0
  0
LINE
  5
10D
330
1E
100
AcDbEntity
  8
0
100
AcDbLine
 10
44.29999999999999
 20
62.0
 30
0.0
 11
45.1
 21
62.0
 31
0.0
  0
LINE
  5
10E
330
1E
100
AcDbEntity
  8
0
100
AcDbLine
 10
45.1
 20
62.0
 30
0.0
 11
46.5
 21
62.0
 31
0.0
  0
LINE
  5
10F
330
1E
100
AcDbEntity
  8
0
100
AcDbLine
 10
46.9
 20
62.0
 30
0.0
 11
48.6
 21
62.0
 31
0.0
  0
LINE
  5
110
330
1E
100
AcDbEntity
  8
0
100
AcDbLine
 10
48.6
 20
62.0
 30
0.0
 11
50.5
 21
62.0
 31
0.0
  0
LINE
  5
111
330
1E
100
AcDbEntity
  8
0
100
AcDbLine
 10
46.5
 20
62.0
 30
0.0
 11
48.3
 21
62.0
 31
0.0
  0
LINE
  5
112
330
1E
100
AcDbEntity
  8
0
100
AcDbLine
 10
48.3
 20
62.0
 30
0.0
 11
50.3
 21
62.0
 31
0.0
  0
LINE
  5
113
330
1E
100
AcDbEntity
  8
0
100
AcDbLine
 10
50.5
 20
62.0
 30
0.0
 11
52.5
 21
62.0
 31
0.0
  0
LINE
  5
114
330
1E
100
AcDbEntity
  8
0
100
AcDbLine
 10
50.3
 20
62.0
 30
0.0
 11
52.5
 21
62.0
 31
0.0
  0
LINE
  5
115
330
1E
100
AcDbEntity
  8
0
100
AcDbLine
 10
44.69199999999999
 20
62.0
 30
0.0
 11
52.5
 21
62.0
 31
0.0
  0
LINE
  5
116
330
1E
100
AcDbEntity
  8
0
100
AcDbLine
 10
37.372
 20
62.0
 30
0.0
 11
44.69199999999999
 21
62.0
 31
0.0
  0
LINE
  5
117
330
1E
100
AcDbEntity
  8
0
100
AcDbLine
 10
30.906
 20
62.0
 30
0.0
 11
37.372
 21
62.0
 31
0.0
  0
LINE
  5
118
330
1E
100
AcDbEntity
  8
0
100
AcDbLine
 10
26.026
 20
62.0
 30
0.0
 11
30.906
 21
62.0
 31
0.0
  0
LINE
  5
119
330
1E
100
AcDbEntity
  8
0
100
AcDbLine
 10
26.026
 20
60.0
 30
0.0
 11
30.906
 21
60.0
 31
0.0
  0
LINE
  5
11A
330
1E
100
AcDbEntity
  8
0
100
AcDbLine
 10
23.098
 20
62.0
 30
0.0
 11
26.026
 21
62.0
 31
0.0
  0
LINE
  5
11B
330
1E
100
AcDbEntity
  8
0
100
AcDbLine
 10
52.5
 20
62.0
 30
0.0
 11
60.308
 21
62.0
 31
0.0
  0
LINE
  5
11C
330
1E
100
AcDbEntity
  8
0
100
AcDbLine
 10
52.5
 20
62.0
 30
0.0
 11
54.7
 21
62.0
 31
0.0
  0
LINE
  5
11D
330
1E
100
AcDbEntity
  8
0
100
AcDbLine
 10
52.5
 20
62.0
 30
0.0
 11
54.5
 21
62.0
 31
0.0
  0
LINE
  5
11E
330
1E
100
AcDbEntity
  8
0
100
AcDbLine
 10
56.4
 20
62.0
 30
0.0
 11
58.1
 21
62.0
 31
0.0
  0
LINE
  5
11F
330
1E
100
AcDbEntity
  8
0
100
AcDbLine
 10
54.5
 20
62.0
 30
0.0
 11
56.4
 21
62.0
 31
0.0
  0
LINE
  5
120
330
1E
100
AcDbEntity
  8
0
100
AcDbLine
 10
54.7
 20
62.0
 30
0.0
 11
56.7
 21
62.0
 31
0.0
  0
LINE
  5
121
330
1E
100
AcDbEntity
  8
0
100
AcDbLine
 10
59.29999999999999
 20
62.0
 30
0.0
 11
60.1
 21
62.0
 31
0.0
  0
LINE
  5
122
330
1E
100
AcDbEntity
  8
0
100
AcDbLine
 10
58.1
 20
62.0
 30
0.0
 11
59.29999999999999
 21
62.0
 31
0.0
  0
LINE
  5
123
330
1E
100
AcDbEntity
  8
0
100
AcDbLine
 10
56.7
 20
62.0
 30
0.0
 11
58.5
 21
62.0
 31
0.0
  0
LINE
  5
124
330
1E
100
AcDbEntity
  8
0
100
AcDbLine
 10
58.5
 20
62.0
 30
0.0
 11
59.9
 21
62.0
 31
0.0
  0
LINE
  5
125
330
1E
100
AcDbEntity
  8
0
100
AcDbLine
 10
60.1
 20
62.0
 30
0.0
 11
60.4
 21
62.0
 31
0.0
  0
LINE
  5
126
330
1E
100
AcDbEntity
  8
0
100
AcDbLine
 10
59.9
 20
62.0
 30
0.0
 11
60.7
 21
62.0
 31
0.0
  0
LINE
  5
127
330
1E
100
AcDbEntity
  8
0
100
AcDbLine
 10
59.54
 20
60.0
 30
0.0
 11
66.14
 21
60.0
 31
0.0
  0
LINE
  5
128
330
1E
100
AcDbEntity
  8
0
100
AcDbLine
 10
52.5
 20
60.0
 30
0.0
 11
60.308
 21
60.0
 31
0.0
  0
LINE
  5
129
330
1E
100
AcDbEntity
  8
0
100
AcDbLine
 10
52.5
 20
60.0
 30
0.0
 11
59.54
 21
60.0
 31
0.0
  0
LINE
  5
12A
330
1E
100
AcDbEntity
  8
0
100
AcDbLine
 10
60.308
 20
62.0
 30
0.0
 11
67.628
 21
62.0
 31
0.0
  0
LINE
  5
12B
330
1E
100
AcDbEntity
  8
0
100
AcDbLine
 10
60.7
 20
62.0
 30
0.0
 11
61.0
 21
62.0
 31
0.0
  0
LINE
  5
12C
330
1E
100
AcDbEntity
  8
0
100
AcDbLine
 10
66.14
 20
60.0
 30
0.0
 11
71.97
 21
60.0
 31
0.0
  0
LINE
  5
12D
330
1E
100
AcDbEntity
  8
0
100
AcDbLine
 10
60.308
 20
60.0
 30
0.0
 11
67.628
 21
60.0
 31
0.0
  0
LINE
  5
12E
330
1E
100
AcDbEntity
  8
0
100
AcDbLine
 10
67.628
 20
62.0
 30
0.0
 11
74.09399999999999
 21
62.0
 31
0.0
  0
LINE
  5
12F
330
1E
100
AcDbEntity
  8
0
100
AcDbLine
 10
71.97
 20
60.0
 30
0.0
 11
76.37
 21
60.0
 31
0.0
  0
LINE
  5
130
330
1E
100
AcDbEntity
  8
0
100
AcDbLine
 10
67.628
 20
60.0
 30
0.0
 11
74.09399999999999
 21
60.0
 31
0.0
  0
LINE
  5
131
330
1E
100
AcDbEntity
  8
0
100
AcDbLine
 10
24.4884
 20
106.4999999999999
 30
0.0
 11
26.21669999999999
 21
106.4999999999999
 31
0.0
  0
LINE
  5
132
330
1E
100
AcDbEntity
  8
0
100
AcDbLine
 10
24.3972
 20
106.4999999999999
 30
0.0
 11
27.6369
 21
106.4999999999999
 31
0.0
  0
LINE
  5
133
330
1E
100
AcDbEntity
  8
0
100
AcDbLine
 10
22.1778
 20
106.4999999999999
 30
0.0
 11
24.4884
 21
106.4999999999999
 31
0.0
  0
LINE
  5
134
330
1E
100
AcDbEntity
  8
0
100
AcDbLine
 10
25.285
 20
106.4999999999999
 30
0.0
 11
26.69999999999999
 21
106.4999999999999
 31
0.0
  0
LINE
  5
135
330
1E
100
AcDbEntity
  8
0
100
AcDbLine
 10
24.3972
 20
109.4999999999999
 30
0.0
 11
27.6369
 21
109.4999999999999
 31
0.0
  0
LINE
  5
136
330
1E
100
AcDbEntity
  8
0
100
AcDbLine
 10
23.4994
 20
106.4999999999999
 30
0.0
 11
25.285
 21
106.4999999999999
 31
0.0
  0
LINE
  5
137
330
1E
100
AcDbEntity
  8
0
100
AcDbLine
 10
25.5
 20
91.0
 30
0.0
 11
25.5
 21
76.64
 31
0.0
  0
LINE
  5
138
330
1E
100
AcDbEntity
  8
0
100
AcDbLine
 10
25.5
 20
76.64
 30
0.0
 11
26.47199999999999
 21
76.64
 31
0.0
  0
LINE
  5
139
330
1E
100
AcDbEntity
  8
0
100
AcDbLine
 10
25.5
 20
76.64
 30
0.0
 11
26.148
 21
76.0
 31
0.0
  0
LINE
  5
13A
330
1E
100
AcDbEntity
  8
0
100
AcDbLine
 10
25.5
 20
76.64
 30
0.0
 11
25.5
 21
91.0
 31
0.0
  0
LINE
  5
13B
330
1E
100
AcDbEntity
  8
0
100
AcDbLine
 10
44.9
 20
62.0
 30
0.0
 11
45.7
 21
62.0
 31
0.0
  0
LINE
  5
13C
330
1E
100
AcDbEntity
  8
0
100
AcDbLine
 10
45.7
 20
62.0
 30
0.0
 11
46.9
 21
62.0
 31
0.0
  0
LINE
  5
13D
330
1E
100
AcDbEntity
  8
0
100
AcDbLine
 10
44.29999999999999
 20
62.0
 30
0.0
 11
45.1
 21
62.0
 31
0.0
  0
LINE
  5
13E
330
1E
100
AcDbEntity
  8
0
100
AcDbLine
 10
45.1
 20
62.0
 30
0.0
 11
46.5
 21
62.0
 31
0.0
  0
LINE
  5
13F
330
1E
100
AcDbEntity
  8
0
100
AcDbLine
 10
46.9
 20
62.0
 30
0.0
 11
48.6
 21
62.0
 31
0.0
  0
LINE
  5
140
330
1E
100
AcDbEntity
  8
0
100
AcDbLine
 10
48.6
 20
62.0
 30
0.0
 11
50.5
 21
62.0
 31
0.0
  0
LINE
  5
141
330
1E
100
AcDbEntity
  8
0
100
AcDbLine
 10
46.5
 20
62.0
 30
0.0
 11
48.3
 21
62.0
 31
0.0
  0
LINE
  5
142
330
1E
100
AcDbEntity
  8
0
100
AcDbLine
 10
48.3
 20
62.0
 30
0.0
 11
50.3
 21
62.0
 31
0.0
  0
LINE
  5
143
330
1E
100
AcDbEntity
  8
0
100
AcDbLine
 10
56.4
 20
62.0
 30
0.0
 11
58.1
 21
62.0
 31
0.0
  0
LINE
  5
144
330
1E
100
AcDbEntity
  8
0
100
AcDbLine
 10
54.5
 20
62.0
 30
0.0
 11
56.4
 21
62.0
 31
0.0
  0
LINE
  5
145
330
1E
100
AcDbEntity
  8
0
100
AcDbLine
 10
59.29999999999999
 20
62.0
 30
0.0
 11
60.1
 21
62.0
 31
0.0
  0
LINE
  5
146
330
1E
100
AcDbEntity
  8
0
100
AcDbLine
 10
58.1
 20
62.0
 30
0.0
 11
59.29999999999999
 21
62.0
 31
0.0
  0
LINE
  5
147
330
1E
100
AcDbEntity
  8
0
100
AcDbLine
 10
60.1
 20
62.0
 30
0.0
 11
60.4
 21
62.0
 31
0.0
  0
LINE
  5
148
330
1E
100
AcDbEntity
  8
0
100
AcDbLine
 10
60.7
 20
62.0
 30
0.0
 11
61.0
 21
62.0
 31
0.0
  0
LINE
  5
149
330
1E
100
AcDbEntity
  8
0
100
AcDbLine
 10
59.9
 20
62.0
 30
0.0
 11
60.7
 21
62.0
 31
0.0
  0
LINE
  5
14A
330
1E
100
AcDbEntity
  8
0
100
AcDbLine
 10
58.5
 20
62.0
 30
0.0
 11
59.9
 21
62.0
 31
0.0
  0
LINE
  5
14B
330
1E
100
AcDbEntity
  8
0
100
AcDbLine
 10
56.7
 20
62.0
 30
0.0
 11
58.5
 21
62.0
 31
0.0
  0
LINE
  5
14C
330
1E
100
AcDbEntity
  8
0
100
AcDbLine
 10
54.7
 20
62.0
 30
0.0
 11
56.7
 21
62.0
 31
0.0
  0
LINE
  5
14D
330
1E
100
AcDbEntity
  8
0
100
AcDbLine
 10
52.5
 20
62.0
 30
0.0
 11
54.7
 21
62.0
 31
0.0
  0
LINE
  5
14E
330
1E
100
AcDbEntity
  8
0
100
AcDbLine
 10
52.5
 20
62.0
 30
0.0
 11
54.5
 21
62.0
 31
0.0
  0
LINE
  5
14F
330
1E
100
AcDbEntity
  8
0
100
AcDbLine
 10
50.5
 20
62.0
 30
0.0
 11
52.5
 21
62.0
 31
0.0
  0
LINE
  5
150
330
1E
100
AcDbEntity
  8
0
100
AcDbLine
 10
50.3
 20
62.0
 30
0.0
 11
52.5
 21
62.0
 31
0.0
  0
LINE
  5
151
330
1E
100
AcDbEntity
  8
0
100
AcDbLine
 10
26.148
 20
76.0
 30
0.0
 11
27.12
 21
76.0
 31
0.0
  0
LINE
  5
152
330
1E
100
AcDbEntity
  8
0
100
AcDbLine
 10
28.5
 20
73.36
 30
0.0
 11
29.364
 21
73.36
 31
0.0
  0
LINE
  5
153
330
1E
100
AcDbEntity
  8
0
100
AcDbLine
 10
28.5
 20
73.36
 30
0.0
 11
29.076
 21
73.0
 31
0.0
  0
LINE
  5
154
330
1E
100
AcDbEntity
  8
0
100
AcDbLine
 10
28.5
 20
73.36
 30
0.0
 11
28.5
 21
76.0
 31
0.0
  0
LINE
  5
155
330
1E
100
AcDbEntity
  8
0
100
AcDbLine
 10
29.364
 20
73.36
 30
0.0
 11
31.668
 21
73.36
 31
0.0
  0
LINE
  5
156
330
1E
100
AcDbEntity
  8
0
100
AcDbLine
 10
28.5
 20
76.0
 30
0.0
 11
28.5
 21
73.36
 31
0.0
  0
LINE
  5
157
330
1E
100
AcDbEntity
  8
0
100
AcDbLine
 10
28.5
 20
76.0
 30
0.0
 11
29.364
 21
76.0
 31
0.0
  0
LINE
  5
158
330
1E
100
AcDbEntity
  8
0
100
AcDbLine
 10
29.364
 20
76.0
 30
0.0
 11
31.668
 21
76.0
 31
0.0
  0
LINE
  5
159
330
1E
100
AcDbEntity
  8
0
100
AcDbLine
 10
31.668
 20
76.0
 30
0.0
 11
35.508
 21
76.0
 31
0.0
  0
LINE
  5
15A
330
1E
100
AcDbEntity
  8
0
100
AcDbLine
 10
31.668
 20
73.36
 30
0.0
 11
35.508
 21
73.36
 31
0.0
  0
LINE
  5
15B
330
1E
100
AcDbEntity
  8
0
100
AcDbLine
 10
27.12
 20
76.0
 30
0.0
 11
29.71199999999999
 21
76.0
 31
0.0
  0
LINE
  5
15C
330
1E
100
AcDbEntity
  8
0
100
AcDbLine
 10
27.12
 20
76.0
 30
0.0
 11
28.5
 21
76.0
 31
0.0
  0
LINE
  5
15D
330
1E
100
AcDbEntity
  8
0
100
AcDbLine
 10
29.71199999999999
 20
76.0
 30
0.0
 11
33.924
 21
76.0
 31
0.0
  0
LINE
  5
15E
330
1E
100
AcDbEntity
  8
0
100
AcDbLine
 10
26.47199999999999
 20
76.64
 30
0.0
 11
29.064
 21
76.64
 31
0.0
  0
LINE
  5
15F
330
1E
100
AcDbEntity
  8
0
100
AcDbLine
 10
26.69999999999999
 20
106.4999999999999
 30
0.0
 11
27.7946
 21
106.4999999999999
 31
0.0
  0
LINE
  5
160
330
1E
100
AcDbEntity
  8
0
100
AcDbLine
 10
27.5504
 20
106.4999999999999
 30
0.0
 11
28.37699999999999
 21
106.4999999999999
 31
0.0
  0
LINE
  5
161
330
1E
100
AcDbEntity
  8
0
100
AcDbLine
 10
26.21669999999999
 20
106.4999999999999
 30
0.0
 11
27.5504
 21
106.4999999999999
 31
0.0
  0
LINE
  5
162
330
1E
100
AcDbEntity
  8
0
100
AcDbLine
 10
27.7946
 20
106.4999999999999
 30
0.0
 11
28.43339999999999
 21
106.4999999999999
 31
0.0
  0
LINE
  5
163
330
1E
100
AcDbEntity
  8
0
100
AcDbLine
 10
28.37699999999999
 20
106.4999999999999
 30
0.0
 11
28.43339999999999
 21
106.4999999999999
 31
0.0
  0
LINE
  5
164
330
1E
100
AcDbEntity
  8
0
100
AcDbLine
 10
33.1383
 20
106.4999999999999
 30
0.0
 11
34.8538
 21
106.4999999999999
 31
0.0
  0
LINE
  5
165
330
1E
100
AcDbEntity
  8
0
100
AcDbLine
 10
33.1383
 20
106.4999999999999
 30
0.0
 11
34.84989999999999
 21
106.4999999999999
 31
0.0
  0
LINE
  5
166
330
1E
100
AcDbEntity
  8
0
100
AcDbLine
 10
30.6933
 20
106.4999999999999
 30
0.0
 11
33.1383
 21
106.4999999999999
 31
0.0
  0
LINE
  5
167
330
1E
100
AcDbEntity
  8
0
100
AcDbLine
 10
27.6369
 20
106.4999999999999
 30
0.0
 11
30.6933
 21
106.4999999999999
 31
0.0
  0
LINE
  5
168
330
1E
100
AcDbEntity
  8
0
100
AcDbLine
 10
29.064
 20
76.64
 30
0.0
 11
33.384
 21
76.64
 31
0.0
  0
LINE
  5
169
330
1E
100
AcDbEntity
  8
0
100
AcDbLine
 10
35.508
 20
76.0
 30
0.0
 11
40.59599999999999
 21
76.0
 31
0.0
  0
LINE
  5
16A
330
1E
100
AcDbEntity
  8
0
100
AcDbLine
 10
35.508
 20
73.36
 30
0.0
 11
40.59599999999999
 21
73.36
 31
0.0
  0
LINE
  5
16B
330
1E
100
AcDbEntity
  8
0
100
AcDbLine
 10
34.84989999999999
 20
106.4999999999999
 30
0.0
 11
35.7109375
 21
106.4999999999999
 31
0.0
  0
LINE
  5
16C
330
1E
100
AcDbEntity
  8
0
100
AcDbLine
 10
34.8538
 20
106.4999999999999
 30
0.0
 11
35.7109375
 21
106.4999999999999
 31
0.0
  0
LINE
  5
16D
330
1E
100
AcDbEntity
  8
0
100
AcDbLine
 10
35.5
 20
108.0
 30
0.0
 11
36.11199999999999
 21
103.648
 31
0.0
  0
LINE
  5
16E
330
1E
100
AcDbEntity
  8
0
100
AcDbLine
 10
35.5
 20
108.0
 30
0.0
 11
36.11199999999999
 21
112.352
 31
0.0
  0
LINE
  5
16F
330
1E
100
AcDbEntity
  8
0
100
AcDbLine
 10
38.45309999999999
 20
104.2696999999999
 30
0.0
 11
39.85199999999999
 21
100.7725699999999
 31
0.0
  0
LINE
  5
170
330
1E
100
AcDbEntity
  8
0
100
AcDbLine
 10
36.11199999999999
 20
103.648
 30
0.0
 11
37.74399999999999
 21
99.56800000000001
 31
0.0
  0
LINE
  5
171
330
1E
100
AcDbEntity
  8
0
100
AcDbLine
 10
37.74399999999999
 20
99.56800000000001
 30
0.0
 11
40.464
 21
95.964
 31
0.0
  0
LINE
  5
172
330
1E
100
AcDbEntity
  8
0
100
AcDbLine
 10
33.924
 20
76.0
 30
0.0
 11
39.43199999999999
 21
76.0
 31
0.0
  0
LINE
  5
174
330
1E
100
AcDbEntity
  8
0
100
AcDbLine
 10
37.9286
 20
108.0
 30
0.0
 11
38.45309999999999
 21
104.2696999999999
 31
0.0
  0
LINE
  5
175
330
1E
100
AcDbEntity
  8
0
100
AcDbLine
 10
37.9286
 20
108.0
 30
0.0
 11
38.45309999999999
 21
111.7302999999999
 31
0.0
  0
LINE
  5
176
330
1E
100
AcDbEntity
  8
0
100
AcDbLine
 10
33.384
 20
76.64
 30
0.0
 11
39.108
 21
76.64
 31
0.0
  0
LINE
  5
178
330
1E
100
AcDbEntity
  8
0
100
AcDbLine
 10
40.59599999999999
 20
76.0
 30
0.0
 11
46.356
 21
76.0
 31
0.0
  0
LINE
  5
179
330
1E
100
AcDbEntity
  8
0
100
AcDbLine
 10
40.59599999999999
 20
73.36
 30
0.0
 11
46.356
 21
73.36
 31
0.0
  0
LINE
  5
17A
330
1E
100
AcDbEntity
  8
0
100
AcDbLine
 10
39.85199999999999
 20
100.7725699999999
 30
0.0
 11
42.1834
 21
97.68343000000001
 31
0.0
  0
LINE
  5
17B
330
1E
100
AcDbEntity
  8
0
100
AcDbLine
 10
42.1834
 20
97.68343000000001
 30
0.0
 11
45.2726
 21
95.35200000000001
 31
0.0
  0
LINE
  5
17C
330
1E
100
AcDbEntity
  8
0
100
AcDbLine
 10
40.464
 20
95.964
 30
0.0
 11
44.068
 21
93.244
 31
0.0
  0
LINE
  5
17D
330
1E
100
AcDbEntity
  8
0
100
AcDbLine
 10
45.2726
 20
95.35200000000001
 30
0.0
 11
48.7697
 21
93.95314
 31
0.0
  0
LINE
  5
17E
330
1E
100
AcDbEntity
  8
0
100
AcDbLine
 10
44.068
 20
93.244
 30
0.0
 11
48.148
 21
91.612
 31
0.0
  0
LINE
  5
17F
330
1E
100
AcDbEntity
  8
0
100
AcDbLine
 10
39.43199999999999
 20
76.0
 30
0.0
 11
45.696
 21
76.0
 31
0.0
  0
LINE
  5
180
330
1E
100
AcDbEntity
  8
0
100
AcDbLine
 10
39.108
 20
76.64
 30
0.0
 11
45.588
 21
76.64
 31
0.0
  0
LINE
  5
181
330
1E
100
AcDbEntity
  8
0
100
AcDbLine
 10
33.1383
 20
109.4999999999999
 30
0.0
 11
34.84989999999999
 21
109.4999999999999
 31
0.0
  0
LINE
  5
182
330
1E
100
AcDbEntity
  8
0
100
AcDbLine
 10
34.84989999999999
 20
109.4999999999999
 30
0.0
 11
35.7109375
 21
109.4999999999999
 31
0.0
  0
LINE
  5
183
330
1E
100
AcDbEntity
  8
0
100
AcDbLine
 10
30.6933
 20
109.4999999999999
 30
0.0
 11
33.1383
 21
109.4999999999999
 31
0.0
  0
LINE
  5
184
330
1E
100
AcDbEntity
  8
0
100
AcDbLine
 10
27.6369
 20
109.4999999999999
 30
0.0
 11
30.6933
 21
109.4999999999999
 31
0.0
  0
LINE
  5
185
330
1E
100
AcDbEntity
  8
0
100
AcDbLine
 10
38.45309999999999
 20
111.7302999999999
 30
0.0
 11
39.85199999999999
 21
115.2274
 31
0.0
  0
LINE
  5
186
330
1E
100
AcDbEntity
  8
0
100
AcDbLine
 10
38.45309999999999
 20
111.7302999999999
 30
0.0
 11
39.85199999999999
 21
115.2274
 31
0.0
  0
LINE
  5
187
330
1E
100
AcDbEntity
  8
0
100
AcDbLine
 10
39.85199999999999
 20
115.2274
 30
0.0
 11
42.1834
 21
118.3165999999999
 31
0.0
  0
LINE
  5
188
330
1E
100
AcDbEntity
  8
0
100
AcDbLine
 10
37.74399999999999
 20
116.432
 30
0.0
 11
40.464
 21
120.036
 31
0.0
  0
LINE
  5
189
330
1E
100
AcDbEntity
  8
0
100
AcDbLine
 10
39.85199999999999
 20
115.2274
 30
0.0
 11
42.1834
 21
118.3165999999999
 31
0.0
  0
LINE
  5
18A
330
1E
100
AcDbEntity
  8
0
100
AcDbLine
 10
36.11199999999999
 20
112.352
 30
0.0
 11
37.74399999999999
 21
116.432
 31
0.0
  0
LINE
  5
18B
330
1E
100
AcDbEntity
  8
0
100
AcDbLine
 10
42.1834
 20
118.3165999999999
 30
0.0
 11
45.2726
 21
120.6479999999999
 31
0.0
  0
LINE
  5
18C
330
1E
100
AcDbEntity
  8
0
100
AcDbLine
 10
40.464
 20
120.036
 30
0.0
 11
44.068
 21
122.7559999999999
 31
0.0
  0
LINE
  5
18D
330
1E
100
AcDbEntity
  8
0
100
AcDbLine
 10
42.1834
 20
118.3165999999999
 30
0.0
 11
45.2726
 21
120.6479999999999
 31
0.0
  0
LINE
  5
18E
330
1E
100
AcDbEntity
  8
0
100
AcDbLine
 10
42.1834
 20
118.3165999999999
 30
0.0
 11
45.2726
 21
120.6479999999999
 31
0.0
  0
LINE
  5
18F
330
1E
100
AcDbEntity
  8
0
100
AcDbLine
 10
44.068
 20
122.7559999999999
 30
0.0
 11
48.148
 21
124.3879999999999
 31
0.0
  0
LINE
  5
190
330
1E
100
AcDbEntity
  8
0
100
AcDbLine
 10
45.2726
 20
120.6479999999999
 30
0.0
 11
48.7697
 21
122.0469
 31
0.0
  0
LINE
  5
191
330
1E
100
AcDbEntity
  8
0
100
AcDbLine
 10
45.2726
 20
120.6479999999999
 30
0.0
 11
48.7697
 21
122.0469
 31
0.0
  0
LINE
  5
192
330
1E
100
AcDbEntity
  8
0
100
AcDbLine
 10
45.1777
 20
125.0
 30
0.0
 11
49.1506
 21
125.0
 31
0.0
  0
LINE
  5
193
330
1E
100
AcDbEntity
  8
0
100
AcDbLine
 10
40.0
 20
125.0
 30
0.0
 11
45.1777
 21
125.0
 31
0.0
  0
LINE
  5
194
330
1E
100
AcDbEntity
  8
0
100
AcDbLine
 10
33.9705
 20
125.0
 30
0.0
 11
40.0
 21
125.0
 31
0.0
  0
LINE
  5
195
330
1E
100
AcDbEntity
  8
0
100
AcDbLine
 10
27.5
 20
125.0
 30
0.0
 11
33.9705
 21
125.0
 31
0.0
  0
LINE
  5
197
330
1E
100
AcDbEntity
  8
0
100
AcDbLine
 10
46.356
 20
76.0
 30
0.0
 11
52.5
 21
76.0
 31
0.0
  0
LINE
  5
198
330
1E
100
AcDbEntity
  8
0
100
AcDbLine
 10
52.5
 20
76.0
 30
0.0
 11
58.64399999999999
 21
76.0
 31
0.0
  0
LINE
  5
199
330
1E
100
AcDbEntity
  8
0
100
AcDbLine
 10
52.5
 20
76.0
 30
0.0
 11
59.30399999999999
 21
76.0
 31
0.0
  0
LINE
  5
19A
330
1E
100
AcDbEntity
  8
0
100
AcDbLine
 10
52.5
 20
73.36
 30
0.0
 11
58.64399999999999
 21
73.36
 31
0.0
  0
LINE
  5
19B
330
1E
100
AcDbEntity
  8
0
100
AcDbLine
 10
46.356
 20
73.36
 30
0.0
 11
52.5
 21
73.36
 31
0.0
  0
LINE
  5
19C
330
1E
100
AcDbEntity
  8
0
100
AcDbLine
 10
48.148
 20
124.3879999999999
 30
0.0
 11
52.5
 21
125.0
 31
0.0
  0
LINE
  5
19D
330
1E
100
AcDbEntity
  8
0
100
AcDbLine
 10
52.5
 20
93.42857
 30
0.0
 11
56.23029999999999
 21
93.95314
 31
0.0
  0
LINE
  5
19E
330
1E
100
AcDbEntity
  8
0
100
AcDbLine
 10
52.5
 20
91.0
 30
0.0
 11
56.852
 21
91.612
 31
0.0
  0
LINE
  5
19F
330
1E
100
AcDbEntity
  8
0
100
AcDbLine
 10
52.5
 20
76.64
 30
0.0
 11
59.412
 21
76.64
 31
0.0
  0
LINE
  5
1A0
330
1E
100
AcDbEntity
  8
0
100
AcDbLine
 10
48.7697
 20
122.0469
 30
0.0
 11
52.5
 21
122.5713999999999
 31
0.0
  0
LINE
  5
1A2
330
1E
100
AcDbEntity
  8
0
100
AcDbLine
 10
52.5
 20
122.5713999999999
 30
0.0
 11
56.23029999999999
 21
122.0469
 31
0.0
  0
LINE
  5
1A4
330
1E
100
AcDbEntity
  8
0
100
AcDbLine
 10
52.5
 20
125.0
 30
0.0
 11
56.852
 21
124.3879999999999
 31
0.0
  0
LINE
  5
1A5
330
1E
100
AcDbEntity
  8
0
100
AcDbLine
 10
52.5
 20
125.0
 30
0.0
 11
59.412
 21
125.0
 31
0.0
  0
LINE
  5
1A6
330
1E
100
AcDbEntity
  8
0
100
AcDbLine
 10
51.6481
 20
125.0
 30
0.0
 11
52.5
 21
125.0
 31
0.0
  0
LINE
  5
1A7
330
1E
100
AcDbEntity
  8
0
100
AcDbLine
 10
49.1506
 20
125.0
 30
0.0
 11
51.6481
 21
125.0
 31
0.0
  0
LINE
  5
1A8
330
1E
100
AcDbEntity
  8
0
100
AcDbLine
 10
48.7697
 20
93.95314
 30
0.0
 11
52.5
 21
93.42857
 31
0.0
  0
LINE
  5
1A9
330
1E
100
AcDbEntity
  8
0
100
AcDbLine
 10
48.148
 20
91.612
 30
0.0
 11
52.5
 21
91.0
 31
0.0
  0
LINE
  5
1AA
330
1E
100
AcDbEntity
  8
0
100
AcDbLine
 10
45.696
 20
76.0
 30
0.0
 11
52.5
 21
76.0
 31
0.0
  0
LINE
  5
1AB
330
1E
100
AcDbEntity
  8
0
100
AcDbLine
 10
45.588
 20
76.64
 30
0.0
 11
52.5
 21
76.64
 31
0.0
  0
LINE
  5
1AC
330
1E
100
AcDbEntity
  8
0
100
AcDbLine
 10
52.5
 20
62.3
 30
0.0
 11
99.0
 21
62.3
 31
0.0
  0
LINE
  5
1AD
330
1E
100
AcDbEntity
  8
0
100
AcDbLine
 10
73.33199999999999
 20
73.36
 30
0.0
 11
75.636
 21
73.36
 31
0.0
  0
LINE
  5
1AE
330
1E
100
AcDbEntity
  8
0
100
AcDbLine
 10
69.49200000000001
 20
73.36
 30
0.0
 11
73.33199999999999
 21
73.36
 31
0.0
  0
LINE
  5
1AF
330
1E
100
AcDbEntity
  8
0
100
AcDbLine
 10
64.404
 20
73.36
 30
0.0
 11
69.49200000000001
 21
73.36
 31
0.0
  0
LINE
  5
1B0
330
1E
100
AcDbEntity
  8
0
100
AcDbLine
 10
56.23029999999999
 20
122.0469
 30
0.0
 11
59.7274
 21
120.6479999999999
 31
0.0
  0
LINE
  5
1B1
330
1E
100
AcDbEntity
  8
0
100
AcDbLine
 10
56.852
 20
124.3879999999999
 30
0.0
 11
60.93199999999999
 21
122.7559999999999
 31
0.0
  0
LINE
  5
1B2
330
1E
100
AcDbEntity
  8
0
100
AcDbLine
 10
56.23029999999999
 20
93.95314
 30
0.0
 11
59.7274
 21
95.35200000000001
 31
0.0
  0
LINE
  5
1B3
330
1E
100
AcDbEntity
  8
0
100
AcDbLine
 10
56.852
 20
91.612
 30
0.0
 11
60.93199999999999
 21
93.244
 31
0.0
  0
LINE
  5
1B4
330
1E
100
AcDbEntity
  8
0
100
AcDbLine
 10
65.56799999999999
 20
76.0
 30
0.0
 11
71.07600000000001
 21
76.0
 31
0.0
  0
LINE
  5
1B5
330
1E
100
AcDbEntity
  8
0
100
AcDbLine
 10
59.30399999999999
 20
76.0
 30
0.0
 11
65.56799999999999
 21
76.0
 31
0.0
  0
LINE
  5
1B6
330
1E
100
AcDbEntity
  8
0
100
AcDbLine
 10
71.07600000000001
 20
76.0
 30
0.0
 11
75.288
 21
76.0
 31
0.0
  0
LINE
  5
1B7
330
1E
100
AcDbEntity
  8
0
100
AcDbLine
 10
73.33199999999999
 20
76.0
 30
0.0
 11
75.636
 21
76.0
 31
0.0
  0
LINE
  5
1B8
330
1E
100
AcDbEntity
  8
0
100
AcDbLine
 10
69.49200000000001
 20
76.0
 30
0.0
 11
73.33199999999999
 21
76.0
 31
0.0
  0
LINE
  5
1B9
330
1E
100
AcDbEntity
  8
0
100
AcDbLine
 10
59.412
 20
125.0
 30
0.0
 11
65.89199999999999
 21
125.0
 31
0.0
  0
LINE
  5
1BA
330
1E
100
AcDbEntity
  8
0
100
AcDbLine
 10
71.61599999999999
 20
76.64
 30
0.0
 11
75.93600000000001
 21
76.64
 31
0.0
  0
LINE
  5
1BB
330
1E
100
AcDbEntity
  8
0
100
AcDbLine
 10
59.7274
 20
120.6479999999999
 30
0.0
 11
62.8166
 21
118.3165999999999
 31
0.0
  0
LINE
  5
1BC
330
1E
100
AcDbEntity
  8
0
100
AcDbLine
 10
60.93199999999999
 20
122.7559999999999
 30
0.0
 11
64.536
 21
120.036
 31
0.0
  0
LINE
  5
1BD
330
1E
100
AcDbEntity
  8
0
100
AcDbLine
 10
59.7274
 20
95.35200000000001
 30
0.0
 11
62.8166
 21
97.68343000000001
 31
0.0
  0
LINE
  5
1BE
330
1E
100
AcDbEntity
  8
0
100
AcDbLine
 10
62.8166
 20
118.3165999999999
 30
0.0
 11
65.148
 21
115.2274
 31
0.0
  0
LINE
  5
1BF
330
1E
100
AcDbEntity
  8
0
100
AcDbLine
 10
66.54689999999999
 20
111.7302999999999
 30
0.0
 11
67.07139999999999
 21
108.0
 31
0.0
  0
LINE
  5
1C0
330
1E
100
AcDbEntity
  8
0
100
AcDbLine
 10
65.148
 20
115.2274
 30
0.0
 11
66.54689999999999
 21
111.7302999999999
 31
0.0
  0
LINE
  5
1C1
330
1E
100
AcDbEntity
  8
0
100
AcDbLine
 10
65.89199999999999
 20
125.0
 30
0.0
 11
71.61599999999999
 21
125.0
 31
0.0
  0
LINE
  5
1C2
330
1E
100
AcDbEntity
  8
0
100
AcDbLine
 10
64.536
 20
120.036
 30
0.0
 11
67.256
 21
116.432
 31
0.0
  0
LINE
  5
1C3
330
1E
100
AcDbEntity
  8
0
100
AcDbLine
 10
67.256
 20
116.432
 30
0.0
 11
68.888
 21
112.352
 31
0.0
  0
LINE
  5
1C4
330
1E
100
AcDbEntity
  8
0
100
AcDbLine
 10
66.54689999999999
 20
104.2696999999999
 30
0.0
 11
67.07139999999999
 21
108.0
 31
0.0
  0
LINE
  5
1C5
330
1E
100
AcDbEntity
  8
0
100
AcDbLine
 10
65.148
 20
100.7725699999999
 30
0.0
 11
66.54689999999999
 21
104.2696999999999
 31
0.0
  0
LINE
  5
1C6
330
1E
100
AcDbEntity
  8
0
100
AcDbLine
 10
62.8166
 20
97.68343000000001
 30
0.0
 11
65.148
 21
100.7725699999999
 31
0.0
  0
LINE
  5
1C7
330
1E
100
AcDbEntity
  8
0
100
AcDbLine
 10
61.715459160649
 20
96.85239517315551
 30
0.0
 11
62.8166
 21
97.68343000000001
 31
0.0
  0
LINE
  5
1C8
330
1E
100
AcDbEntity
  8
0
100
AcDbLine
 10
71.61599999999999
 20
125.0
 30
0.0
 11
75.93600000000001
 21
125.0
 31
0.0
  0
LINE
  5
1C9
330
1E
100
AcDbEntity
  8
0
100
AcDbLine
 10
68.888
 20
112.352
 30
0.0
 11
69.5
 21
108.0
 31
0.0
  0
LINE
  5
1CA
330
1E
100
AcDbEntity
  8
0
100
AcDbLine
 10
68.888
 20
103.648
 30
0.0
 11
69.5
 21
108.0
 31
0.0
  0
LINE
  5
1CB
330
1E
100
AcDbEntity
  8
0
100
AcDbLine
 10
67.256
 20
99.56800000000001
 30
0.0
 11
68.888
 21
103.648
 31
0.0
  0
LINE
  5
1CC
330
1E
100
AcDbEntity
  8
0
100
AcDbLine
 10
64.536
 20
95.964
 30
0.0
 11
67.256
 21
99.56800000000001
 31
0.0
  0
LINE
  5
1CD
330
1E
100
AcDbEntity
  8
0
100
AcDbLine
 10
60.93199999999999
 20
93.244
 30
0.0
 11
64.536
 21
95.964
 31
0.0
  0
LINE
  5
1CE
330
1E
100
AcDbEntity
  8
0
100
AcDbLine
 10
65.89199999999999
 20
76.64
 30
0.0
 11
71.61599999999999
 21
76.64
 31
0.0
  0
LINE
  5
1CF
330
1E
100
AcDbEntity
  8
0
100
AcDbLine
 10
59.412
 20
76.64
 30
0.0
 11
65.89199999999999
 21
76.64
 31
0.0
  0
LINE
  5
1D0
330
1E
100
AcDbEntity
  8
0
100
AcDbLine
 10
64.404
 20
76.0
 30
0.0
 11
69.49200000000001
 21
76.0
 31
0.0
  0
LINE
  5
1D1
330
1E
100
AcDbEntity
  8
0
100
AcDbLine
 10
58.64399999999999
 20
76.0
 30
0.0
 11
64.404
 21
76.0
 31
0.0
  0
LINE
  5
1D2
330
1E
100
AcDbEntity
  8
0
100
AcDbLine
 10
58.64399999999999
 20
73.36
 30
0.0
 11
64.404
 21
73.36
 31
0.0
  0
LINE
  5
1D3
330
1E
100
AcDbEntity
  8
0
100
AcDbLine
 10
52.5
 20
73.0
 30
0.0
 11
99.0
 21
73.0
 31
0.0
  0
LINE
  5
1D4
330
1E
100
AcDbEntity
  8
0
100
AcDbLine
 10
74.09399999999999
 20
62.0
 30
0.0
 11
78.97399999999999
 21
62.0
 31
0.0
  0
LINE
  5
1D5
330
1E
100
AcDbEntity
  8
0
100
AcDbLine
 10
75.92399999999999
 20
73.0
 30
0.0
 11
76.5
 21
73.36
 31
0.0
  0
LINE
  5
1D6
330
1E
100
AcDbEntity
  8
0
100
AcDbLine
 10
75.288
 20
76.0
 30
0.0
 11
77.88
 21
76.0
 31
0.0
  0
LINE
  5
1D7
330
1E
100
AcDbEntity
  8
0
100
AcDbLine
 10
75.93600000000001
 20
125.0
 30
0.0
 11
78.52800000000001
 21
125.0
 31
0.0
  0
LINE
  5
1D8
330
1E
100
AcDbEntity
  8
0
100
AcDbLine
 10
75.93600000000001
 20
76.64
 30
0.0
 11
78.52800000000001
 21
76.64
 31
0.0
  0
LINE
  5
1D9
330
1E
100
AcDbEntity
  8
0
100
AcDbLine
 10
76.5
 20
76.0
 30
0.0
 11
76.5
 21
73.36
 31
0.0
  0
LINE
  5
1DA
330
1E
100
AcDbEntity
  8
0
100
AcDbLine
 10
76.5
 20
76.0
 30
0.0
 11
77.88
 21
76.0
 31
0.0
  0
LINE
  5
1DB
330
1E
100
AcDbEntity
  8
0
100
AcDbLine
 10
75.636
 20
76.0
 30
0.0
 11
76.5
 21
76.0
 31
0.0
  0
LINE
  5
1DC
330
1E
100
AcDbEntity
  8
0
100
AcDbLine
 10
75.636
 20
73.36
 30
0.0
 11
76.5
 21
73.36
 31
0.0
  0
LINE
  5
1DD
330
1E
100
AcDbEntity
  8
0
100
AcDbLine
 10
76.5
 20
73.36
 30
0.0
 11
76.5
 21
76.0
 31
0.0
  0
LINE
  5
1DE
330
1E
100
AcDbEntity
  8
0
100
AcDbLine
 10
76.37
 20
60.0
 30
0.0
 11
79.01
 21
60.0
 31
0.0
  0
LINE
  5
1DF
330
1E
100
AcDbEntity
  8
0
100
AcDbLine
 10
74.09399999999999
 20
60.0
 30
0.0
 11
78.97399999999999
 21
60.0
 31
0.0
  0
LINE
  5
1E0
330
1E
100
AcDbEntity
  8
0
100
AcDbLine
 10
23.098
 20
60.0
 30
0.0
 11
25.0
 21
60.0
 31
0.0
  0
LINE
  5
1E1
330
1E
100
AcDbEntity
  8
0
100
AcDbLine
 10
23.098
 20
60.0
 30
0.0
 11
26.026
 21
60.0
 31
0.0
  0
LINE
  5
1E2
330
1E
100
AcDbEntity
  8
0
100
AcDbLine
 10
22.0
 20
60.0
 30
0.0
 11
22.0
 21
62.0
 31
0.0
  0
LINE
  5
1E3
330
1E
100
AcDbEntity
  8
0
100
AcDbLine
 10
22.0
 20
60.0
 30
0.0
 11
23.098
 21
60.0
 31
0.0
  0
LINE
  5
1E4
330
1E
100
AcDbEntity
  8
0
100
AcDbLine
 10
73.11799999999999
 20
54.0
 30
0.0
 11
77.87600000000001
 21
54.0
 31
0.0
  0
LINE
  5
1E5
330
1E
100
AcDbEntity
  8
0
100
AcDbLine
 10
79.01
 20
60.0
 30
0.0
 11
80.0
 21
60.0
 31
0.0
  0
LINE
  5
1E6
330
1E
100
AcDbEntity
  8
0
100
AcDbLine
 10
80.0
 20
54.0
 30
0.0
 11
80.0
 21
60.0
 31
0.0
  0
LINE
  5
1E7
330
1E
100
AcDbEntity
  8
0
100
AcDbLine
 10
78.52800000000001
 20
125.0
 30
0.0
 11
79.5
 21
125.0
 31
0.0
  0
LINE
  5
1E8
330
1E
100
AcDbEntity
  8
0
100
AcDbLine
 10
77.88
 20
76.0
 30
0.0
 11
78.85200000000001
 21
76.0
 31
0.0
  0
LINE
  5
1E9
330
1E
100
AcDbEntity
  8
0
100
AcDbLine
 10
78.85200000000001
 20
76.0
 30
0.0
 11
79.5
 21
76.64
 31
0.0
  0
LINE
  5
1EA
330
1E
100
AcDbEntity
  8
0
100
AcDbLine
 10
78.52800000000001
 20
76.64
 30
0.0
 11
79.5
 21
76.64
 31
0.0
  0
LINE
  5
1EB
330
1E
100
AcDbEntity
  8
0
100
AcDbLine
 10
78.97399999999999
 20
62.0
 30
0.0
 11
81.902
 21
62.0
 31
0.0
  0
LINE
  5
1EC
330
1E
100
AcDbEntity
  8
0
100
AcDbLine
 10
79.5
 20
125.0
 30
0.0
 11
79.5
 21
108.0
 31
0.0
  0
LINE
  5
1ED
330
1E
100
AcDbEntity
  8
0
100
AcDbLine
 10
79.5
 20
108.0
 30
0.0
 11
79.5
 21
76.64
 31
0.0
  0
LINE
  5
1EE
330
1E
100
AcDbEntity
  8
0
100
AcDbLine
 10
79.5
 20
108.0
 30
0.0
 11
79.5
 21
125.0
 31
0.0
  0
LINE
  5
1EF
330
1E
100
AcDbEntity
  8
0
100
AcDbLine
 10
79.5
 20
76.64
 30
0.0
 11
79.5
 21
108.0
 31
0.0
  0
LINE
  5
1F0
330
1E
100
AcDbEntity
  8
0
100
AcDbLine
 10
78.97399999999999
 20
60.0
 30
0.0
 11
81.902
 21
60.0
 31
0.0
  0
LINE
  5
1F1
330
1E
100
AcDbEntity
  8
0
100
AcDbLine
 10
80.0
 20
60.0
 30
0.0
 11
81.902
 21
60.0
 31
0.0
  0
LINE
  5
1F2
330
1E
100
AcDbEntity
  8
0
100
AcDbLine
 10
80.0
 20
60.0
 30
0.0
 11
80.0
 21
54.0
 31
0.0
  0
LINE
  5
1F3
330
1E
100
AcDbEntity
  8
0
100
AcDbLine
 10
77.87600000000001
 20
54.0
 30
0.0
 11
80.682
 21
54.0
 31
0.0
  0
LINE
  5
1F4
330
1E
100
AcDbEntity
  8
0
100
AcDbLine
 10
78.97399999999999
 20
52.8001
 30
0.0
 11
81.902
 21
52.8001
 31
0.0
  0
LINE
  5
1F5
330
1E
100
AcDbEntity
  8
0
100
AcDbLine
 10
80.682
 20
54.0
 30
0.0
 11
81.78
 21
54.0
 31
0.0
  0
LINE
  5
1F6
330
1E
100
AcDbEntity
  8
0
100
AcDbLine
 10
81.902
 20
2.399999999999999
 30
0.0
 11
83.0
 21
2.399999999999999
 31
0.0
  0
LINE
  5
1F7
330
1E
100
AcDbEntity
  8
0
100
AcDbLine
 10
81.902
 20
52.8001
 30
0.0
 11
83.0
 21
52.8001
 31
0.0
  0
LINE
  5
1F8
330
1E
100
AcDbEntity
  8
0
100
AcDbLine
 10
83.0
 20
2.399999999999999
 30
0.0
 11
83.0
 21
52.8001
 31
0.0
  0
LINE
  5
1F9
330
1E
100
AcDbEntity
  8
0
100
AcDbLine
 10
81.902
 20
62.0
 30
0.0
 11
83.0
 21
62.0
 31
0.0
  0
LINE
  5
1FA
330
1E
100
AcDbEntity
  8
0
100
AcDbLine
 10
84.05700000000001
 20
62.0
 30
0.0
 11
85.93909999999999
 21
62.0
 31
0.0
  0
LINE
  5
1FB
330
1E
100
AcDbEntity
  8
0
100
AcDbLine
 10
84.0681
 20
62.0
 30
0.0
 11
85.95730000000001
 21
62.0
 31
0.0
  0
LINE
  5
1FC
330
1E
100
AcDbEntity
  8
0
100
AcDbLine
 10
83.757
 20
62.0
 30
0.0
 11
85.81229999999999
 21
62.0
 31
0.0
  0
LINE
  5
1FD
330
1E
100
AcDbEntity
  8
0
100
AcDbLine
 10
85.93909999999999
 20
62.0
 30
0.0
 11
87.9845
 21
62.0
 31
0.0
  0
LINE
  5
1FE
330
1E
100
AcDbEntity
  8
0
100
AcDbLine
 10
87.9845
 20
62.0
 30
0.0
 11
90.05679999999999
 21
62.0
 31
0.0
  0
LINE
  5
1FF
330
1E
100
AcDbEntity
  8
0
100
AcDbLine
 10
88.0295
 20
62.0
 30
0.0
 11
90.075
 21
62.0
 31
0.0
  0
LINE
  5
200
330
1E
100
AcDbEntity
  8
0
100
AcDbLine
 10
85.95730000000001
 20
62.0
 30
0.0
 11
88.0295
 21
62.0
 31
0.0
  0
LINE
  5
201
330
1E
100
AcDbEntity
  8
0
100
AcDbLine
 10
85.81229999999999
 20
62.0
 30
0.0
 11
87.94439999999999
 21
62.0
 31
0.0
  0
LINE
  5
202
330
1E
100
AcDbEntity
  8
0
100
AcDbLine
 10
87.94439999999999
 20
62.0
 30
0.0
 11
90.20319999999999
 21
62.0
 31
0.0
  0
LINE
  5
203
330
1E
100
AcDbEntity
  8
0
100
AcDbLine
 10
83.69849999999999
 20
62.0
 30
0.0
 11
85.81090000000001
 21
62.0
 31
0.0
  0
LINE
  5
204
330
1E
100
AcDbEntity
  8
0
100
AcDbLine
 10
85.81090000000001
 20
62.0
 30
0.0
 11
88.06969999999999
 21
62.0
 31
0.0
  0
LINE
  5
205
330
1E
100
AcDbEntity
  8
0
100
AcDbLine
 10
90.05679999999999
 20
62.0
 30
0.0
 11
91.94599999999999
 21
62.0
 31
0.0
  0
LINE
  5
206
330
1E
100
AcDbEntity
  8
0
100
AcDbLine
 10
91.94599999999999
 20
62.0
 30
0.0
 11
93.5888
 21
62.0
 31
0.0
  0
LINE
  5
207
330
1E
100
AcDbEntity
  8
0
100
AcDbLine
 10
90.075
 20
62.0
 30
0.0
 11
91.957
 21
62.0
 31
0.0
  0
LINE
  5
208
330
1E
100
AcDbEntity
  8
0
100
AcDbLine
 10
91.957
 20
62.0
 30
0.0
 11
93.5391
 21
62.0
 31
0.0
  0
LINE
  5
209
330
1E
100
AcDbEntity
  8
0
100
AcDbLine
 10
90.20319999999999
 20
62.0
 30
0.0
 11
92.31559999999999
 21
62.0
 31
0.0
  0
LINE
  5
20A
330
1E
100
AcDbEntity
  8
0
100
AcDbLine
 10
88.06969999999999
 20
62.0
 30
0.0
 11
90.20180000000001
 21
62.0
 31
0.0
  0
LINE
  5
20B
330
1E
100
AcDbEntity
  8
0
100
AcDbLine
 10
90.20180000000001
 20
62.0
 30
0.0
 11
92.25700000000001
 21
62.0
 31
0.0
  0
LINE
  5
20C
330
1E
100
AcDbEntity
  8
0
100
AcDbLine
 10
93.5888
 20
62.0
 30
0.0
 11
94.84860000000001
 21
62.0
 31
0.0
  0
LINE
  5
20D
330
1E
100
AcDbEntity
  8
0
100
AcDbLine
 10
93.5391
 20
62.0
 30
0.0
 11
94.7845
 21
62.0
 31
0.0
  0
LINE
  5
20E
330
1E
100
AcDbEntity
  8
0
100
AcDbLine
 10
94.7845
 20
62.0
 30
0.0
 11
95.6568
 21
62.0
 31
0.0
  0
LINE
  5
20F
330
1E
100
AcDbEntity
  8
0
100
AcDbLine
 10
94.84860000000001
 20
62.0
 30
0.0
 11
95.5888
 21
62.0
 31
0.0
  0
LINE
  5
210
330
1E
100
AcDbEntity
  8
0
100
AcDbLine
 10
92.31559999999999
 20
62.0
 30
0.0
 11
94.0085
 21
62.0
 31
0.0
  0
LINE
  5
211
330
1E
100
AcDbEntity
  8
0
100
AcDbLine
 10
94.0085
 20
62.0
 30
0.0
 11
95.3683
 21
62.0
 31
0.0
  0
LINE
  5
212
330
1E
100
AcDbEntity
  8
0
100
AcDbLine
 10
92.25700000000001
 20
62.0
 30
0.0
 11
94.01229999999999
 21
62.0
 31
0.0
  0
LINE
  5
213
330
1E
100
AcDbEntity
  8
0
100
AcDbLine
 10
94.01229999999999
 20
62.0
 30
0.0
 11
95.3443
 21
62.0
 31
0.0
  0
LINE
  5
214
330
1E
100
AcDbEntity
  8
0
100
AcDbLine
 10
95.6568
 20
62.0
 30
0.0
 11
95.846
 21
62.0
 31
0.0
  0
LINE
  5
215
330
1E
100
AcDbEntity
  8
0
100
AcDbLine
 10
95.5888
 20
62.0
 30
0.0
 11
95.846
 21
62.0
 31
0.0
  0
LINE
  5
216
330
1E
100
AcDbEntity
  8
0
100
AcDbLine
 10
95.3443
 20
62.0
 30
0.0
 11
96.20319999999999
 21
62.0
 31
0.0
  0
LINE
  5
217
330
1E
100
AcDbEntity
  8
0
100
AcDbLine
 10
96.20319999999999
 20
62.0
 30
0.0
 11
96.51560000000001
 21
62.0
 31
0.0
  0
LINE
  5
218
330
1E
100
AcDbEntity
  8
0
100
AcDbLine
 10
99.0
 20
62.0
 30
0.0
 11
100.2999999999999
 21
62.0
 31
0.0
  0
LINE
  5
219
330
1E
100
AcDbEntity
  8
0
100
AcDbLine
 10
100.2999999999999
 20
62.0
 30
0.0
 11
101.5
 21
62.0
 31
0.0
  0
LINE
  5
21A
330
1E
100
AcDbEntity
  8
0
100
AcDbLine
 10
101.5
 20
62.0
 30
0.0
 11
102.4999999999999
 21
62.0
 31
0.0
  0
LINE
  5
21B
330
1E
100
AcDbEntity
  8
0
100
AcDbLine
 10
102.4999999999999
 20
62.0
 30
0.0
 11
103.2999999999999
 21
62.0
 31
0.0
  0
LINE
  5
21C
330
1E
100
AcDbEntity
  8
0
100
AcDbLine
 10
104.0
 20
62.0
 30
0.0
 11
104.7
 21
62.3
 31
0.0
  0
LINE
  5
21D
330
1E
100
AcDbEntity
  8
0
100
AcDbLine
 10
103.2999999999999
 20
62.0
 30
0.0
 11
103.8
 21
62.0
 31
0.0
  0
LINE
  5
21E
330
1E
100
AcDbEntity
  8
0
100
AcDbLine
 10
103.8
 20
62.0
 30
0.0
 11
104.0
 21
62.0
 31
0.0
  0
LINE
  5
21F
330
1E
100
AcDbEntity
  8
0
100
AcDbLine
 10
96.2085
 20
62.0
 30
0.0
 11
96.51560000000001
 21
62.0
 31
0.0
  0
LINE
  5
220
330
1E
100
AcDbEntity
  8
0
100
AcDbLine
 10
95.3683
 20
62.0
 30
0.0
 11
96.2085
 21
62.0
 31
0.0
  0
LINE
  5
221
330
1E
100
AcDbEntity
  8
0
100
AcDbLine
 10
83.0
 20
60.0
 30
0.0
 11
83.0
 21
62.0
 31
0.0
  0
LINE
  5
222
330
1E
100
AcDbEntity
  8
0
100
AcDbLine
 10
99.0
 20
62.3
 30
0.0
 11
100.5
 21
62.3
 31
0.0
  0
LINE
  5
223
330
1E
100
AcDbEntity
  8
0
100
AcDbLine
 10
101.8
 20
62.3
 30
0.0
 11
103.0
 21
62.3
 31
0.0
  0
LINE
  5
224
330
1E
100
AcDbEntity
  8
0
100
AcDbLine
 10
100.5
 20
62.3
 30
0.0
 11
101.8
 21
62.3
 31
0.0
  0
LINE
  5
225
330
1E
100
AcDbEntity
  8
0
100
AcDbLine
 10
103.0
 20
62.3
 30
0.0
 11
103.9
 21
62.3
 31
0.0
  0
LINE
  5
226
330
1E
100
AcDbEntity
  8
0
100
AcDbLine
 10
103.9
 20
62.3
 30
0.0
 11
104.4999999999999
 21
62.3
 31
0.0
  0
LINE
  5
227
330
1E
100
AcDbEntity
  8
0
100
AcDbLine
 10
103.2
 20
73.0
 30
0.0
 11
104.2
 21
73.0
 31
0.0
  0
LINE
  5
228
330
1E
100
AcDbEntity
  8
0
100
AcDbLine
 10
104.4999999999999
 20
62.3
 30
0.0
 11
104.7
 21
62.3
 31
0.0
  0
LINE
  5
229
330
1E
100
AcDbEntity
  8
0
100
AcDbLine
 10
104.7
 20
62.3
 30
0.0
 11
105.0
 21
63.0
 31
0.0
  0
LINE
  5
22A
330
1E
100
AcDbEntity
  8
0
100
AcDbLine
 10
105.0
 20
63.0
 30
0.0
 11
105.0
 21
73.0
 31
0.0
  0
LINE
  5
22B
330
1E
100
AcDbEntity
  8
0
100
AcDbLine
 10
105.0
 20
73.0
 30
0.0
 11
105.0
 21
63.0
 31
0.0
  0
LINE
  5
22C
330
1E
100
AcDbEntity
  8
0
100
AcDbLine
 10
104.2
 20
73.0
 30
0.0
 11
104.8
 21
73.0
 31
0.0
  0
LINE
  5
22D
330
1E
100
AcDbEntity
  8
0
100
AcDbLine
 10
104.8
 20
73.0
 30
0.0
 11
105.0
 21
73.0
 31
0.0
  0
LINE
  5
22E
330
1E
100
AcDbEntity
  8
0
100
AcDbLine
 10
102.0
 20
73.0
 30
0.0
 11
103.2
 21
73.0
 31
0.0
  0
LINE
  5
22F
330
1E
100
AcDbEntity
  8
0
100
AcDbLine
 10
100.5
 20
73.0
 30
0.0
 11
102.0
 21
73.0
 31
0.0
  0
LINE
  5
230
330
1E
100
AcDbEntity
  8
0
100
AcDbLine
 10
99.0
 20
73.0
 30
0.0
 11
100.5
 21
73.0
 31
0.0
  0
LINE
  5
231
330
1E
100
AcDbEntity
  8
0
100
AcDbLine
 10
83.0
 20
62.0
 30
0.0
 11
83.0
 21
60.0
 31
0.0
  0
LINE
  5
232
330
1E
100
AcDbEntity
  8
0
100
AcDbLine
 10
83.0
 20
62.0
 30
0.0
 11
83.69849999999999
 21
62.0
 31
0.0
  0
LINE
  5
233
330
1E
100
AcDbEntity
  8
0
100
AcDbLine
 10
83.0
 20
62.0
 30
0.0
 11
83.757
 21
62.0
 31
0.0
  0
LINE
  5
234
330
1E
100
AcDbEntity
  8
0
100
AcDbLine
 10
83.0
 20
62.0
 30
0.0
 11
99.0
 21
62.0
 31
0.0
  0
LINE
  5
235
330
1E
100
AcDbEntity
  8
0
100
AcDbLine
 10
83.0
 20
62.0
 30
0.0
 11
84.0681
 21
62.0
 31
0.0
  0
LINE
  5
236
330
1E
100
AcDbEntity
  8
0
100
AcDbLine
 10
83.0
 20
62.0
 30
0.0
 11
84.05700000000001
 21
62.0
 31
0.0
  0
LINE
  5
237
330
1E
100
AcDbEntity
  8
0
100
AcDbLine
 10
81.902
 20
60.0
 30
0.0
 11
83.0
 21
60.0
 31
0.0
  0
LINE
  5
238
330
1E
100
AcDbEntity
  8
0
100
AcDbLine
 10
83.0
 20
52.8001
 30
0.0
 11
83.0
 21
2.399999999999999
 31
0.0
  0
LINE
  5
239
330
1E
100
AcDbEntity
  8
0
100
AcDbLine
 10
81.78
 20
54.0
 30
0.0
 11
83.0
 21
52.8001
 31
0.0
  0
ENDSEC
  0
SECTION
  2
OBJECTS
  0
DICTIONARY
  5
C
330
0
100
AcDbDictionary
281
     1
  3
ACAD_GROUP
350
D
  3
ACAD_LAYOUT
350
19
  3
ACAD_MLINESTYLE
350
16
  3
ACAD_PLOTSETTINGS
350
18
  3
ACAD_PLOTSTYLENAME
350
E
  3
AcDbVariableDictionary
350
23E
  0
DICTIONARY
  5
D
102
{ACAD_REACTORS
330
C
102
}
330
C
100
AcDbDictionary
281
     1
  0
DICTIONARY
  5
19
102
{ACAD_REACTORS
330
C
102
}
330
C
100
AcDbDictionary
281
     1
  3
Layout1
350
1D
  3
Model
350
21
  0
DICTIONARY
  5
16
102
{ACAD_REACTORS
330
C
102
}
330
C
100
AcDbDictionary
281
     1
  3
Standard
350
17
  0
DICTIONARY
  5
18
102
{ACAD_REACTORS
330
C
102
}
330
C
100
AcDbDictionary
281
     1
  0
ACDBDICTIONARYWDFLT
  5
E
102
{ACAD_REACTORS
330
C
102
}
330
C
100
AcDbDictionary
281
     1
  3
Normal
350
F
100
AcDbDictionaryWithDefault
340
F
  0
DICTIONARY
  5
23E
102
{ACAD_REACTORS
330
C
102
}
330
C
100
AcDbDictionary
281
     1
  3
DIMASSOC
350
23F
  0
LAYOUT
  5
1D
102
{ACAD_REACTORS
330
19
102
}
330
19
100
AcDbPlotSettings
  1

  2
hp deskjet 980c series
  4

  6

 40
0.0
 41
0.0
 42
0.0
 43
0.0
 44
0.0
 45
0.0
 46
0.0
 47
0.0
 48
0.0
 49
0.0
140
0.0
141
0.0
142
1.0
143
1.0
 70
   688
 72
     0
 73
     0
 74
     5
  7

 75
    16
147
1.0
148
0.0
149
0.0
100
AcDbLayout
  1
Layout1
 70
     1
 71
     1
 10
0.0
 20
0.0
 11
12.0
 21
9.0
 12
0.0
 22
0.0
 32
0.0
 14
1.000000000000000E+20
 24
1.000000000000000E+20
 34
1.000000000000000E+20
 15
-1.000000000000000E+20
 25
-1.000000000000000E+20
 35
-1.000000000000000E+20
146
0.0
 13
0.0
 23
0.0
 33
0.0
 16
1.0
 26
0.0
 36
0.0
 17
0.0
 27
1.0
 37
0.0
 76
     0
330
1A
  0
LAYOUT
  5
21
102
{ACAD_REACTORS
330
19
102
}
330
19
100
AcDbPlotSettings
  1

  2
hp deskjet 980c series
  4

  6

 40
0.0
 41
0.0
 42
0.0
 43
0.0
 44
0.0
 45
0.0
 46
0.0
 47
0.0
 48
0.0
 49
0.0
140
0.0
141
0.0
142
1.0
143
1.0
 70
  1712
 72
     0
 73
     0
 74
     0
  7

 75
     0
147
1.0
148
0.0
149
0.0
100
AcDbLayout
  1
Model
 70
     1
 71
     0
 10
0.0
 20
0.0
 11
12.0
 21
9.0
 12
0.0
 22
0.0
 32
0.0
 14
0.0
 24
0.0
 34
0.0
 15
0.0
 25
0.0
 35
0.0
146
0.0
 13
0.0
 23
0.0
 33
0.0
 16
1.0
 26
0.0
 36
0.0
 17
0.0
 27
1.0
 37
0.0
 76
     0
330
1E
  0
MLINESTYLE
  5
17
102
{ACAD_REACTORS
330
16
102
}
330
16
100
AcDbMlineStyle
  2
STANDARD
 70
     0
  3

 62
   256
 51
90.0
 52
90.0
 71
     2
 49
0.5
 62
   256
  6
BYLAYER
 49
-0.5
 62
   256
  6
BYLAYER
  0
ACDBPLACEHOLDER
  5
F
102
{ACAD_REACTORS
330
E
102
}
330
E
  0
DICTIONARYVAR
  5
23F
102
{ACAD_REACTORS
330
23E
102
}
330
23E
100
DictionaryVariables
280
     0
  1
1
  0
ENDSEC
  0
EOF
