  0
SECTION
  2
HEADER
  9
$ACADVER
  1
AC1015
  9
$ACADMAINTVER
 70
    13
  9
$DWGCODEPAGE
  3
ANSI_1252
  9
$INSBASE
 10
0.0
 20
0.0
 30
0.0
  9
$EXTMIN
 10
0.0000000000000012
 20
0.0000000000000124
 30
0.0
  9
$EXTMAX
 10
170.0
 20
194.0
 30
0.0
  9
$LIMMIN
 10
0.0
 20
0.0
  9
$LIMMAX
 10
12.0
 20
9.0
  9
$ORTHOMODE
 70
     0
  9
$REGENMODE
 70
     1
  9
$FILLMODE
 70
     1
  9
$QTEXTMODE
 70
     0
  9
$MIRRTEXT
 70
     1
  9
$LTSCALE
 40
1.0
  9
$ATTMODE
 70
     1
  9
$TEXTSIZE
 40
0.2
  9
$TRACEWID
 40
0.05
  9
$TEXTSTYLE
  7
Standard
  9
$CLAYER
  8
0
  9
$CELTYPE
  6
Continuous
  9
$CECOLOR
 62
   256
  9
$CELTSCALE
 40
1.0
  9
$DISPSILH
 70
     0
  9
$DIMSCALE
 40
1.0
  9
$DIMASZ
 40
0.18
  9
$DIMEXO
 40
0.0625
  9
$DIMDLI
 40
0.38
  9
$DIMRND
 40
0.0
  9
$DIMDLE
 40
0.0
  9
$DIMEXE
 40
0.18
  9
$DIMTP
 40
0.0
  9
$DIMTM
 40
0.0
  9
$DIMTXT
 40
0.18
  9
$DIMCEN
 40
0.09
  9
$DIMTSZ
 40
0.0
  9
$DIMTOL
 70
     0
  9
$DIMLIM
 70
     0
  9
$DIMTIH
 70
     1
  9
$DIMTOH
 70
     1
  9
$DIMSE1
 70
     0
  9
$DIMSE2
 70
     0
  9
$DIMTAD
 70
     0
  9
$DIMZIN
 70
     0
  9
$DIMBLK
  1

  9
$DIMASO
 70
     1
  9
$DIMSHO
 70
     1
  9
$DIMPOST
  1

  9
$DIMAPOST
  1

  9
$DIMALT
 70
     0
  9
$DIMALTD
 70
     2
  9
$DIMALTF
 40
25.4
  9
$DIMLFAC
 40
1.0
  9
$DIMTOFL
 70
     0
  9
$DIMTVP
 40
0.0
  9
$DIMTIX
 70
     0
  9
$DIMSOXD
 70
     0
  9
$DIMSAH
 70
     0
  9
$DIMBLK1
  1

  9
$DIMBLK2
  1

  9
$DIMSTYLE
  2
Standard
  9
$DIMCLRD
 70
     0
  9
$DIMCLRE
 70
     0
  9
$DIMCLRT
 70
     0
  9
$DIMTFAC
 40
1.0
  9
$DIMGAP
 40
0.09
  9
$DIMJUST
 70
     0
  9
$DIMSD1
 70
     0
  9
$DIMSD2
 70
     0
  9
$DIMTOLJ
 70
     1
  9
$DIMTZIN
 70
     0
  9
$DIMALTZ
 70
     0
  9
$DIMALTTZ
 70
     0
  9
$DIMUPT
 70
     0
  9
$DIMDEC
 70
     4
  9
$DIMTDEC
 70
     4
  9
$DIMALTU
 70
     2
  9
$DIMALTTD
 70
     2
  9
$DIMTXSTY
  7
Standard
  9
$DIMAUNIT
 70
     0
  9
$DIMADEC
 70
     0
  9
$DIMALTRND
 40
0.0
  9
$DIMAZIN
 70
     0
  9
$DIMDSEP
 70
    46
  9
$DIMATFIT
 70
     3
  9
$DIMFRAC
 70
     0
  9
$DIMLDRBLK
  1

  9
$DIMLUNIT
 70
     2
  9
$DIMLWD
 70
    -2
  9
$DIMLWE
 70
    -2
  9
$DIMTMOVE
 70
     0
  9
$LUNITS
 70
     2
  9
$LUPREC
 70
     4
  9
$SKETCHINC
 40
0.1
  9
$FILLETRAD
 40
0.0
  9
$AUNITS
 70
     0
  9
$AUPREC
 70
     0
  9
$MENU
  1
.
  9
$ELEVATION
 40
0.0
  9
$PELEVATION
 40
0.0
  9
$THICKNESS
 40
0.0
  9
$LIMCHECK
 70
     0
  9
$CHAMFERA
 40
0.0
  9
$CHAMFERB
 40
0.0
  9
$CHAMFERC
 40
0.0
  9
$CHAMFERD
 40
0.0
  9
$SKPOLY
 70
     0
  9
$TDCREATE
 40
2454637.693045220
  9
$TDUCREATE
 40
2454637.609711886
  9
$TDUPDATE
 40
2454637.695059826
  9
$TDUUPDATE
 40
2454637.611726493
  9
$TDINDWG
 40
0.0020147917
  9
$TDUSRTIMER
 40
0.0020147917
  9
$USRTIMER
 70
     1
  9
$ANGBASE
 50
0.0
  9
$ANGDIR
 70
     0
  9
$PDMODE
 70
     0
  9
$PDSIZE
 40
0.0
  9
$PLINEWID
 40
0.0
  9
$SPLFRAME
 70
     0
  9
$SPLINETYPE
 70
     6
  9
$SPLINESEGS
 70
     8
  9
$HANDSEED
  5
311
  9
$SURFTAB1
 70
     6
  9
$SURFTAB2
 70
     6
  9
$SURFTYPE
 70
     6
  9
$SURFU
 70
     6
  9
$SURFV
 70
     6
  9
$UCSBASE
  2

  9
$UCSNAME
  2

  9
$UCSORG
 10
0.0
 20
0.0
 30
0.0
  9
$UCSXDIR
 10
1.0
 20
0.0
 30
0.0
  9
$UCSYDIR
 10
0.0
 20
1.0
 30
0.0
  9
$UCSORTHOREF
  2

  9
$UCSORTHOVIEW
 70
     1
  9
$UCSORGTOP
 10
0.0
 20
0.0
 30
0.0
  9
$UCSORGBOTTOM
 10
0.0
 20
0.0
 30
0.0
  9
$UCSORGLEFT
 10
0.0
 20
0.0
 30
0.0
  9
$UCSORGRIGHT
 10
0.0
 20
0.0
 30
0.0
  9
$UCSORGFRONT
 10
0.0
 20
0.0
 30
0.0
  9
$UCSORGBACK
 10
0.0
 20
0.0
 30
0.0
  9
$PUCSBASE
  2

  9
$PUCSNAME
  2

  9
$PUCSORG
 10
0.0
 20
0.0
 30
0.0
  9
$PUCSXDIR
 10
1.0
 20
0.0
 30
0.0
  9
$PUCSYDIR
 10
0.0
 20
1.0
 30
0.0
  9
$PUCSORTHOREF
  2

  9
$PUCSORTHOVIEW
 70
     0
  9
$PUCSORGTOP
 10
0.0
 20
0.0
 30
0.0
  9
$PUCSORGBOTTOM
 10
0.0
 20
0.0
 30
0.0
  9
$PUCSORGLEFT
 10
0.0
 20
0.0
 30
0.0
  9
$PUCSORGRIGHT
 10
0.0
 20
0.0
 30
0.0
  9
$PUCSORGFRONT
 10
0.0
 20
0.0
 30
0.0
  9
$PUCSORGBACK
 10
0.0
 20
0.0
 30
0.0
  9
$USERI1
 70
     0
  9
$USERI2
 70
     0
  9
$USERI3
 70
     0
  9
$USERI4
 70
     0
  9
$USERI5
 70
     0
  9
$USERR1
 40
0.0
  9
$USERR2
 40
0.0
  9
$USERR3
 40
0.0
  9
$USERR4
 40
0.0
  9
$USERR5
 40
0.0
  9
$WORLDVIEW
 70
     1
  9
$SHADEDGE
 70
     3
  9
$SHADEDIF
 70
    70
  9
$TILEMODE
 70
     1
  9
$MAXACTVP
 70
    64
  9
$PINSBASE
 10
0.0
 20
0.0
 30
0.0
  9
$PLIMCHECK
 70
     0
  9
$PEXTMIN
 10
1.000000000000000E+20
 20
1.000000000000000E+20
 30
1.000000000000000E+20
  9
$PEXTMAX
 10
-1.000000000000000E+20
 20
-1.000000000000000E+20
 30
-1.000000000000000E+20
  9
$PLIMMIN
 10
0.0
 20
0.0
  9
$PLIMMAX
 10
12.0
 20
9.0
  9
$UNITMODE
 70
     0
  9
$VISRETAIN
 70
     1
  9
$PLINEGEN
 70
     0
  9
$PSLTSCALE
 70
     1
  9
$TREEDEPTH
 70
  3020
  9
$CMLSTYLE
  2
Standard
  9
$CMLJUST
 70
     0
  9
$CMLSCALE
 40
1.0
  9
$PROXYGRAPHICS
 70
     1
  9
$MEASUREMENT
 70
     0
  9
$CELWEIGHT
370
    -1
  9
$ENDCAPS
280
     0
  9
$JOINSTYLE
280
     0
  9
$LWDISPLAY
290
     0
  9
$INSUNITS
 70
     0
  9
$HYPERLINKBASE
  1

  9
$STYLESHEET
  1

  9
$XEDIT
290
     1
  9
$CEPSNTYPE
380
     0
  9
$PSTYLEMODE
290
     1
  9
$FINGERPRINTGUID
  2
{F62F0688-BEF6-4997-B520-325EEA18D49B}
  9
$VERSIONGUID
  2
{E7D15FCF-E1AC-4974-9380-7CA264B52071}
  9
$EXTNAMES
290
     1
  9
$PSVPSCALE
 40
0.0
  9
$OLESTARTUP
290
     0
  0
ENDSEC
  0
SECTION
  2
CLASSES
  0
CLASS
  1
ACDBDICTIONARYWDFLT
  2
AcDbDictionaryWithDefault
  3
AutoCAD 2000
 90
        0
280
     0
281
     0
  0
CLASS
  1
ACDBPLACEHOLDER
  2
AcDbPlaceHolder
  3
AutoCAD 2000
 90
        0
280
     0
281
     0
  0
CLASS
  1
LAYOUT
  2
AcDbLayout
  3
AutoCAD 2000
 90
        0
280
     0
281
     0
  0
CLASS
  1
DICTIONARYVAR
  2
AcDbDictionaryVar
  3
AutoCAD 2000
 90
        0
280
     0
281
     0
  0
ENDSEC
  0
SECTION
  2
TABLES
  0
TABLE
  2
VPORT
  5
8
330
0
100
AcDbSymbolTable
 70
     3
  0
VPORT
  5
310
330
8
100
AcDbSymbolTableRecord
100
AcDbViewportTableRecord
  2
*Active
 70
     0
 10
0.0
 20
0.0
 11
1.0
 21
1.0
 12
85.0
 22
97.00000000000002
 13
0.0
 23
0.0
 14
1.0
 24
1.0
 15
0.0
 25
0.0
 16
0.0
 26
0.0
 36
1.0
 17
0.0
 27
0.0
 37
0.0
 40
195.4884910485933
 41
2.043533930857874
 42
50.0
 43
0.0
 44
0.0
 50
0.0
 51
0.0
 71
     0
 72
   100
 73
     1
 74
     3
 75
     0
 76
     0
 77
     0
 78
     0
281
     0
 65
     1
110
0.0
120
0.0
130
0.0
111
1.0
121
0.0
131
0.0
112
0.0
122
1.0
132
0.0
 79
     1
146
0.0
  0
ENDTAB
  0
TABLE
  2
LTYPE
  5
5
330
0
100
AcDbSymbolTable
 70
     1
  0
LTYPE
  5
13
330
5
100
AcDbSymbolTableRecord
100
AcDbLinetypeTableRecord
  2
ByBlock
 70
     0
  3

 72
    65
 73
     0
 40
0.0
  0
LTYPE
  5
14
330
5
100
AcDbSymbolTableRecord
100
AcDbLinetypeTableRecord
  2
ByLayer
 70
     0
  3

 72
    65
 73
     0
 40
0.0
  0
LTYPE
  5
15
330
5
100
AcDbSymbolTableRecord
100
AcDbLinetypeTableRecord
  2
Continuous
 70
     0
  3
Solid line
 72
    65
 73
     0
 40
0.0
  0
ENDTAB
  0
TABLE
  2
LAYER
  5
2
330
0
100
AcDbSymbolTable
 70
     1
  0
LAYER
  5
10
330
2
100
AcDbSymbolTableRecord
100
AcDbLayerTableRecord
  2
0
 70
     0
 62
     7
  6
Continuous
370
    -3
390
F
  0
ENDTAB
  0
TABLE
  2
STYLE
  5
3
330
0
100
AcDbSymbolTable
 70
     1
  0
STYLE
  5
11
330
3
100
AcDbSymbolTableRecord
100
AcDbTextStyleTableRecord
  2
Standard
 70
     0
 40
0.0
 41
1.0
 50
0.0
 71
     0
 42
0.2
  3
txt
  4

  0
ENDTAB
  0
TABLE
  2
VIEW
  5
6
330
0
100
AcDbSymbolTable
 70
     0
  0
ENDTAB
  0
TABLE
  2
UCS
  5
7
330
0
100
AcDbSymbolTable
 70
     0
  0
ENDTAB
  0
TABLE
  2
APPID
  5
9
330
0
100
AcDbSymbolTable
 70
     1
  0
APPID
  5
12
330
9
100
AcDbSymbolTableRecord
100
AcDbRegAppTableRecord
  2
ACAD
 70
     0
  0
ENDTAB
  0
TABLE
  2
DIMSTYLE
  5
A
330
0
100
AcDbSymbolTable
 70
     1
100
AcDbDimStyleTable
 71
     0
  0
DIMSTYLE
105
308
330
A
100
AcDbSymbolTableRecord
100
AcDbDimStyleTableRecord
  2
Standard
 70
     0
340
11
  0
ENDTAB
  0
TABLE
  2
BLOCK_RECORD
  5
1
330
0
100
AcDbSymbolTable
 70
     0
  0
BLOCK_RECORD
  5
1E
330
1
100
AcDbSymbolTableRecord
100
AcDbBlockTableRecord
  2
*Model_Space
340
21
  0
BLOCK_RECORD
  5
1A
330
1
100
AcDbSymbolTableRecord
100
AcDbBlockTableRecord
  2
*Paper_Space
340
1D
  0
ENDTAB
  0
ENDSEC
  0
SECTION
  2
BLOCKS
  0
BLOCK
  5
1F
330
1E
100
AcDbEntity
  8
0
100
AcDbBlockBegin
  2
*Model_Space
 70
     0
 10
0.0
 20
0.0
 30
0.0
  3
*Model_Space
  1

  0
ENDBLK
  5
20
330
1E
100
AcDbEntity
  8
0
100
AcDbBlockEnd
  0
BLOCK
  5
1B
330
1A
100
AcDbEntity
 67
     1
  8
0
100
AcDbBlockBegin
  2
*Paper_Space
 70
     0
 10
0.0
 20
0.0
 30
0.0
  3
*Paper_Space
  1

  0
ENDBLK
  5
1C
330
1A
100
AcDbEntity
 67
     1
  8
0
100
AcDbBlockEnd
  0
ENDSEC
  0
SECTION
  2
ENTITIES
  0
LINE
  5
22
330
1E
100
AcDbEntity
  8
0
100
AcDbLine
 10
0.0000000000000012
 20
86.0
 30
0.0
 11
0.4000000000000011
 21
86.0
 31
0.0
  0
LINE
  5
23
330
1E
100
AcDbEntity
  8
0
100
AcDbLine
 10
0.0000000000000012
 20
86.0
 30
0.0
 11
0.0000000000000012
 21
75.0
 31
0.0
  0
LINE
  5
24
330
1E
100
AcDbEntity
  8
0
100
AcDbLine
 10
4.2
 20
74.0
 30
0.0
 11
6.508519999999999
 21
74.0
 31
0.0
  0
LINE
  5
25
330
1E
100
AcDbEntity
  8
0
100
AcDbLine
 10
6.508519999999999
 20
74.0
 30
0.0
 11
9.163059999999999
 21
74.0
 31
0.0
  0
LINE
  5
26
330
1E
100
AcDbEntity
  8
0
100
AcDbLine
 10
9.163059999999999
 20
74.0
 30
0.0
 11
12.0
 21
74.0
 31
0.0
  0
LINE
  5
27
330
1E
100
AcDbEntity
  8
0
100
AcDbLine
 10
58.5
 20
1.000000000000009
 30
0.0
 11
60.0
 21
0.500000000000013
 31
0.0
  0
LINE
  5
28
330
1E
100
AcDbEntity
  8
0
100
AcDbLine
 10
60.0
 20
0.500000000000013
 30
0.0
 11
70.0
 21
0.0000000000000133
 31
0.0
  0
LINE
  5
29
330
1E
100
AcDbEntity
  8
0
100
AcDbLine
 10
60.0
 20
0.500000000000013
 30
0.0
 11
70.0
 21
0.0000000000000133
 31
0.0
  0
LINE
  5
2A
330
1E
100
AcDbEntity
  8
0
100
AcDbLine
 10
59.0
 20
50.0
 30
0.0
 11
61.6
 21
50.0
 31
0.0
  0
LINE
  5
2B
330
1E
100
AcDbEntity
  8
0
100
AcDbLine
 10
59.0
 20
1.50000000000001
 30
0.0
 11
61.6
 21
1.50000000000001
 31
0.0
  0
LINE
  5
2C
330
1E
100
AcDbEntity
  8
0
100
AcDbLine
 10
58.0
 20
50.0
 30
0.0
 11
58.0
 21
1.500000000000019
 31
0.0
  0
LINE
  5
2D
330
1E
100
AcDbEntity
  8
0
100
AcDbLine
 10
58.0
 20
50.0
 30
0.0
 11
59.0
 21
50.0
 31
0.0
  0
LINE
  5
2E
330
1E
100
AcDbEntity
  8
0
100
AcDbLine
 10
58.0
 20
1.50000000000001
 30
0.0
 11
58.0
 21
50.0
 31
0.0
  0
LINE
  5
2F
330
1E
100
AcDbEntity
  8
0
100
AcDbLine
 10
58.0
 20
1.50000000000001
 30
0.0
 11
58.5
 21
1.000000000000009
 31
0.0
  0
LINE
  5
30
330
1E
100
AcDbEntity
  8
0
100
AcDbLine
 10
58.0
 20
1.50000000000001
 30
0.0
 11
59.0
 21
1.50000000000001
 31
0.0
  0
LINE
  5
31
330
1E
100
AcDbEntity
  8
0
100
AcDbLine
 10
74.40000000000001
 20
0.0000000000000126
 30
0.0
 11
77.40000000000001
 21
0.0000000000000125
 31
0.0
  0
LINE
  5
32
330
1E
100
AcDbEntity
  8
0
100
AcDbLine
 10
77.40000000000001
 20
0.0000000000000125
 30
0.0
 11
81.09999999999999
 21
0.0000000000000124
 31
0.0
  0
LINE
  5
33
330
1E
100
AcDbEntity
  8
0
100
AcDbLine
 10
95.6
 20
0.0000000000000126
 30
0.0
 11
98.0
 21
0.0000000000000128
 31
0.0
  0
LINE
  5
34
330
1E
100
AcDbEntity
  8
0
100
AcDbLine
 10
98.0
 20
0.0000000000000128
 30
0.0
 11
99.50000000000001
 21
0.000000000000013
 31
0.0
  0
LINE
  5
35
330
1E
100
AcDbEntity
  8
0
100
AcDbLine
 10
92.59999999999999
 20
0.0000000000000125
 30
0.0
 11
95.6
 21
0.0000000000000126
 31
0.0
  0
LINE
  5
36
330
1E
100
AcDbEntity
  8
0
100
AcDbLine
 10
88.9
 20
0.0000000000000124
 30
0.0
 11
92.59999999999999
 21
0.0000000000000125
 31
0.0
  0
LINE
  5
37
330
1E
100
AcDbEntity
  8
0
100
AcDbLine
 10
85.0
 20
0.0000000000000124
 30
0.0
 11
88.9
 21
0.0000000000000124
 31
0.0
  0
LINE
  5
38
330
1E
100
AcDbEntity
  8
0
100
AcDbLine
 10
81.09999999999999
 20
0.0000000000000124
 30
0.0
 11
85.0
 21
0.0000000000000124
 31
0.0
  0
LINE
  5
39
330
1E
100
AcDbEntity
  8
0
100
AcDbLine
 10
100.0
 20
0.0000000000000133
 30
0.0
 11
110.0
 21
0.500000000000013
 31
0.0
  0
LINE
  5
3A
330
1E
100
AcDbEntity
  8
0
100
AcDbLine
 10
99.50000000000001
 20
0.000000000000013
 30
0.0
 11
100.0
 21
0.0000000000000133
 31
0.0
  0
LINE
  5
3B
330
1E
100
AcDbEntity
  8
0
100
AcDbLine
 10
72.0
 20
0.0000000000000128
 30
0.0
 11
74.40000000000001
 21
0.0000000000000126
 31
0.0
  0
LINE
  5
3C
330
1E
100
AcDbEntity
  8
0
100
AcDbLine
 10
70.5
 20
0.000000000000013
 30
0.0
 11
72.0
 21
0.0000000000000128
 31
0.0
  0
LINE
  5
3D
330
1E
100
AcDbEntity
  8
0
100
AcDbLine
 10
100.0
 20
0.0000000000000133
 30
0.0
 11
110.0
 21
0.500000000000013
 31
0.0
  0
LINE
  5
3E
330
1E
100
AcDbEntity
  8
0
100
AcDbLine
 10
110.0
 20
0.500000000000013
 30
0.0
 11
111.4999999999999
 21
1.000000000000009
 31
0.0
  0
LINE
  5
3F
330
1E
100
AcDbEntity
  8
0
100
AcDbLine
 10
111.4999999999999
 20
1.000000000000009
 30
0.0
 11
112.0
 21
1.50000000000001
 31
0.0
  0
LINE
  5
40
330
1E
100
AcDbEntity
  8
0
100
AcDbLine
 10
61.6
 20
1.50000000000001
 30
0.0
 11
65.9
 21
1.50000000000001
 31
0.0
  0
LINE
  5
41
330
1E
100
AcDbEntity
  8
0
100
AcDbLine
 10
65.9
 20
1.50000000000001
 30
0.0
 11
71.6
 21
1.50000000000001
 31
0.0
  0
LINE
  5
42
330
1E
100
AcDbEntity
  8
0
100
AcDbLine
 10
71.6
 20
1.50000000000001
 30
0.0
 11
78.09999999999999
 21
1.500000000000019
 31
0.0
  0
LINE
  5
43
330
1E
100
AcDbEntity
  8
0
100
AcDbLine
 10
78.09999999999999
 20
1.500000000000019
 30
0.0
 11
85.0
 21
1.500000000000019
 31
0.0
  0
LINE
  5
44
330
1E
100
AcDbEntity
  8
0
100
AcDbLine
 10
98.40000000000001
 20
1.50000000000001
 30
0.0
 11
104.0999999999999
 21
1.50000000000001
 31
0.0
  0
LINE
  5
45
330
1E
100
AcDbEntity
  8
0
100
AcDbLine
 10
91.90000000000001
 20
1.500000000000019
 30
0.0
 11
98.40000000000001
 21
1.50000000000001
 31
0.0
  0
LINE
  5
46
330
1E
100
AcDbEntity
  8
0
100
AcDbLine
 10
61.6
 20
50.0
 30
0.0
 11
65.9
 21
50.0
 31
0.0
  0
LINE
  5
47
330
1E
100
AcDbEntity
  8
0
100
AcDbLine
 10
65.9
 20
50.0
 30
0.0
 11
71.6
 21
50.0
 31
0.0
  0
LINE
  5
48
330
1E
100
AcDbEntity
  8
0
100
AcDbLine
 10
82.51850000000001
 20
21.66669999999999
 30
0.0
 11
83.7222
 21
21.18519999999999
 31
0.0
  0
LINE
  5
49
330
1E
100
AcDbEntity
  8
0
100
AcDbLine
 10
85.0
 20
21.0
 30
0.0
 11
86.27779999999999
 21
21.18519999999999
 31
0.0
  0
LINE
  5
4A
330
1E
100
AcDbEntity
  8
0
100
AcDbLine
 10
83.7222
 20
21.18519999999999
 30
0.0
 11
85.0
 21
21.0
 31
0.0
  0
LINE
  5
4B
330
1E
100
AcDbEntity
  8
0
100
AcDbLine
 10
80.6667
 20
23.5185
 30
0.0
 11
81.46300000000001
 21
22.463
 31
0.0
  0
LINE
  5
4C
330
1E
100
AcDbEntity
  8
0
100
AcDbLine
 10
81.46300000000001
 20
22.463
 30
0.0
 11
82.51850000000001
 21
21.66669999999999
 31
0.0
  0
LINE
  5
4D
330
1E
100
AcDbEntity
  8
0
100
AcDbLine
 10
80.6667
 20
28.4815
 30
0.0
 11
81.46300000000001
 21
29.53699999999999
 31
0.0
  0
LINE
  5
4E
330
1E
100
AcDbEntity
  8
0
100
AcDbLine
 10
80.1852
 20
27.2778
 30
0.0
 11
80.6667
 21
28.4815
 31
0.0
  0
LINE
  5
4F
330
1E
100
AcDbEntity
  8
0
100
AcDbLine
 10
81.46300000000001
 20
29.53699999999999
 30
0.0
 11
82.51850000000001
 21
30.3333
 31
0.0
  0
LINE
  5
50
330
1E
100
AcDbEntity
  8
0
100
AcDbLine
 10
82.51850000000001
 20
30.3333
 30
0.0
 11
83.7222
 21
30.8148
 31
0.0
  0
LINE
  5
51
330
1E
100
AcDbEntity
  8
0
100
AcDbLine
 10
83.7222
 20
30.8148
 30
0.0
 11
85.0
 21
31.0
 31
0.0
  0
LINE
  5
52
330
1E
100
AcDbEntity
  8
0
100
AcDbLine
 10
85.0
 20
31.0
 30
0.0
 11
86.27779999999999
 21
30.8148
 31
0.0
  0
LINE
  5
53
330
1E
100
AcDbEntity
  8
0
100
AcDbLine
 10
80.0
 20
26.0
 30
0.0
 11
80.1852
 21
24.7222
 31
0.0
  0
LINE
  5
54
330
1E
100
AcDbEntity
  8
0
100
AcDbLine
 10
80.0
 20
26.0
 30
0.0
 11
80.1852
 21
27.2778
 31
0.0
  0
LINE
  5
55
330
1E
100
AcDbEntity
  8
0
100
AcDbLine
 10
80.1852
 20
24.7222
 30
0.0
 11
80.6667
 21
23.5185
 31
0.0
  0
LINE
  5
56
330
1E
100
AcDbEntity
  8
0
100
AcDbLine
 10
71.6
 20
50.0
 30
0.0
 11
78.09999999999999
 21
50.0
 31
0.0
  0
LINE
  5
57
330
1E
100
AcDbEntity
  8
0
100
AcDbLine
 10
78.09999999999999
 20
50.0
 30
0.0
 11
85.0
 21
50.0
 31
0.0
  0
LINE
  5
58
330
1E
100
AcDbEntity
  8
0
100
AcDbLine
 10
87.4815
 20
30.3333
 30
0.0
 11
88.53700000000001
 21
29.53699999999999
 31
0.0
  0
LINE
  5
59
330
1E
100
AcDbEntity
  8
0
100
AcDbLine
 10
86.27779999999999
 20
30.8148
 30
0.0
 11
87.4815
 21
30.3333
 31
0.0
  0
LINE
  5
5A
330
1E
100
AcDbEntity
  8
0
100
AcDbLine
 10
88.53700000000001
 20
22.463
 30
0.0
 11
89.33329999999999
 21
23.5185
 31
0.0
  0
LINE
  5
5B
330
1E
100
AcDbEntity
  8
0
100
AcDbLine
 10
89.33329999999999
 20
23.5185
 30
0.0
 11
89.81480000000001
 21
24.7222
 31
0.0
  0
LINE
  5
5C
330
1E
100
AcDbEntity
  8
0
100
AcDbLine
 10
88.53700000000001
 20
29.53699999999999
 30
0.0
 11
89.33329999999999
 21
28.4815
 31
0.0
  0
LINE
  5
5D
330
1E
100
AcDbEntity
  8
0
100
AcDbLine
 10
89.33329999999999
 20
28.4815
 30
0.0
 11
89.81480000000001
 21
27.2778
 31
0.0
  0
LINE
  5
5E
330
1E
100
AcDbEntity
  8
0
100
AcDbLine
 10
89.81480000000001
 20
27.2778
 30
0.0
 11
90.0
 21
26.0
 31
0.0
  0
LINE
  5
5F
330
1E
100
AcDbEntity
  8
0
100
AcDbLine
 10
89.81480000000001
 20
24.7222
 30
0.0
 11
90.0
 21
26.0
 31
0.0
  0
LINE
  5
60
330
1E
100
AcDbEntity
  8
0
100
AcDbLine
 10
87.4815
 20
21.66669999999999
 30
0.0
 11
88.53700000000001
 21
22.463
 31
0.0
  0
LINE
  5
61
330
1E
100
AcDbEntity
  8
0
100
AcDbLine
 10
86.27779999999999
 20
21.18519999999999
 30
0.0
 11
87.4815
 21
21.66669999999999
 31
0.0
  0
LINE
  5
62
330
1E
100
AcDbEntity
  8
0
100
AcDbLine
 10
98.40000000000001
 20
50.0
 30
0.0
 11
104.0999999999999
 21
50.0
 31
0.0
  0
LINE
  5
63
330
1E
100
AcDbEntity
  8
0
100
AcDbLine
 10
91.90000000000001
 20
50.0
 30
0.0
 11
98.40000000000001
 21
50.0
 31
0.0
  0
LINE
  5
64
330
1E
100
AcDbEntity
  8
0
100
AcDbLine
 10
85.0
 20
50.0
 30
0.0
 11
91.90000000000001
 21
50.0
 31
0.0
  0
LINE
  5
65
330
1E
100
AcDbEntity
  8
0
100
AcDbLine
 10
85.0
 20
1.500000000000019
 30
0.0
 11
91.90000000000001
 21
1.500000000000019
 31
0.0
  0
LINE
  5
66
330
1E
100
AcDbEntity
  8
0
100
AcDbLine
 10
104.0999999999999
 20
50.0
 30
0.0
 11
108.4
 21
50.0
 31
0.0
  0
LINE
  5
67
330
1E
100
AcDbEntity
  8
0
100
AcDbLine
 10
104.0999999999999
 20
1.50000000000001
 30
0.0
 11
108.4
 21
1.50000000000001
 31
0.0
  0
LINE
  5
68
330
1E
100
AcDbEntity
  8
0
100
AcDbLine
 10
109.0
 20
50.0
 30
0.0
 11
109.0
 21
74.0
 31
0.0
  0
LINE
  5
69
330
1E
100
AcDbEntity
  8
0
100
AcDbLine
 10
108.4
 20
50.0
 30
0.0
 11
111.0
 21
50.0
 31
0.0
  0
LINE
  5
6A
330
1E
100
AcDbEntity
  8
0
100
AcDbLine
 10
108.4
 20
1.50000000000001
 30
0.0
 11
111.0
 21
1.50000000000001
 31
0.0
  0
LINE
  5
6B
330
1E
100
AcDbEntity
  8
0
100
AcDbLine
 10
111.0
 20
50.0
 30
0.0
 11
112.0
 21
50.0
 31
0.0
  0
LINE
  5
6C
330
1E
100
AcDbEntity
  8
0
100
AcDbLine
 10
111.0
 20
1.50000000000001
 30
0.0
 11
112.0
 21
1.50000000000001
 31
0.0
  0
LINE
  5
6D
330
1E
100
AcDbEntity
  8
0
100
AcDbLine
 10
112.0
 20
1.50000000000001
 30
0.0
 11
112.0
 21
50.0
 31
0.0
  0
LINE
  5
6E
330
1E
100
AcDbEntity
  8
0
100
AcDbLine
 10
109.0
 20
74.0
 30
0.0
 11
158.0
 21
74.0
 31
0.0
  0
LINE
  5
6F
330
1E
100
AcDbEntity
  8
0
100
AcDbLine
 10
158.0
 20
74.0
 30
0.0
 11
160.837
 21
74.0
 31
0.0
  0
LINE
  5
70
330
1E
100
AcDbEntity
  8
0
100
AcDbLine
 10
160.837
 20
74.0
 30
0.0
 11
163.491
 21
74.0
 31
0.0
  0
LINE
  5
71
330
1E
100
AcDbEntity
  8
0
100
AcDbLine
 10
163.491
 20
74.0
 30
0.0
 11
165.8
 21
74.0
 31
0.0
  0
LINE
  5
72
330
1E
100
AcDbEntity
  8
0
100
AcDbLine
 10
165.8
 20
74.0
 30
0.0
 11
167.5119999999999
 21
74.0
 31
0.0
  0
LINE
  5
73
330
1E
100
AcDbEntity
  8
0
100
AcDbLine
 10
169.0
 20
74.0
 30
0.0
 11
169.6999999999999
 21
74.29999999999999
 31
0.0
  0
LINE
  5
74
330
1E
100
AcDbEntity
  8
0
100
AcDbLine
 10
167.5119999999999
 20
74.0
 30
0.0
 11
168.5599999999999
 21
74.0
 31
0.0
  0
LINE
  5
75
330
1E
100
AcDbEntity
  8
0
100
AcDbLine
 10
168.5599999999999
 20
74.0
 30
0.0
 11
169.0
 21
74.0
 31
0.0
  0
LINE
  5
76
330
1E
100
AcDbEntity
  8
0
100
AcDbLine
 10
112.0
 20
50.0
 30
0.0
 11
112.0
 21
1.500000000000019
 31
0.0
  0
LINE
  5
77
330
1E
100
AcDbEntity
  8
0
100
AcDbLine
 10
70.0
 20
0.0000000000000133
 30
0.0
 11
70.5
 21
0.000000000000013
 31
0.0
  0
LINE
  5
78
330
1E
100
AcDbEntity
  8
0
100
AcDbLine
 10
61.0
 20
50.0
 30
0.0
 11
61.0
 21
74.0
 31
0.0
  0
LINE
  5
79
330
1E
100
AcDbEntity
  8
0
100
AcDbLine
 10
12.0
 20
74.0
 30
0.0
 11
61.0
 21
74.0
 31
0.0
  0
LINE
  5
7A
330
1E
100
AcDbEntity
  8
0
100
AcDbLine
 10
12.0
 20
74.0
 30
0.0
 11
61.0
 21
74.0
 31
0.0
  0
LINE
  5
7B
330
1E
100
AcDbEntity
  8
0
100
AcDbLine
 10
2.488449999999999
 20
74.0
 30
0.0
 11
4.2
 21
74.0
 31
0.0
  0
LINE
  5
7C
330
1E
100
AcDbEntity
  8
0
100
AcDbLine
 10
1.440039999999999
 20
74.0
 30
0.0
 11
2.488449999999999
 21
74.0
 31
0.0
  0
LINE
  5
7D
330
1E
100
AcDbEntity
  8
0
100
AcDbLine
 10
49.5
 20
74.0
 30
0.0
 11
50.8
 21
74.0
 31
0.0
  0
LINE
  5
7E
330
1E
100
AcDbEntity
  8
0
100
AcDbLine
 10
54.29999999999999
 20
74.0
 30
0.0
 11
59.9
 21
74.0
 31
0.0
  0
LINE
  5
7F
330
1E
100
AcDbEntity
  8
0
100
AcDbLine
 10
50.8
 20
74.0
 30
0.0
 11
54.29999999999999
 21
74.0
 31
0.0
  0
LINE
  5
80
330
1E
100
AcDbEntity
  8
0
100
AcDbLine
 10
59.9
 20
74.0
 30
0.0
 11
67.3
 21
74.0
 31
0.0
  0
LINE
  5
81
330
1E
100
AcDbEntity
  8
0
100
AcDbLine
 10
61.0
 20
74.0
 30
0.0
 11
61.0
 21
50.0
 31
0.0
  0
LINE
  5
82
330
1E
100
AcDbEntity
  8
0
100
AcDbLine
 10
63.79999999999999
 20
74.0
 30
0.0
 11
67.7
 21
74.0
 31
0.0
  0
LINE
  5
83
330
1E
100
AcDbEntity
  8
0
100
AcDbLine
 10
61.4
 20
74.0
 30
0.0
 11
63.79999999999999
 21
74.0
 31
0.0
  0
LINE
  5
84
330
1E
100
AcDbEntity
  8
0
100
AcDbLine
 10
67.7
 20
74.0
 30
0.0
 11
72.8
 21
74.0
 31
0.0
  0
LINE
  5
85
330
1E
100
AcDbEntity
  8
0
100
AcDbLine
 10
72.8
 20
74.0
 30
0.0
 11
78.7
 21
74.0
 31
0.0
  0
LINE
  5
86
330
1E
100
AcDbEntity
  8
0
100
AcDbLine
 10
78.7
 20
74.0
 30
0.0
 11
85.0
 21
74.0
 31
0.0
  0
LINE
  5
87
330
1E
100
AcDbEntity
  8
0
100
AcDbLine
 10
91.3
 20
74.0
 30
0.0
 11
97.2
 21
74.0
 31
0.0
  0
LINE
  5
88
330
1E
100
AcDbEntity
  8
0
100
AcDbLine
 10
85.0
 20
74.0
 30
0.0
 11
94.1
 21
74.0
 31
0.0
  0
LINE
  5
89
330
1E
100
AcDbEntity
  8
0
100
AcDbLine
 10
85.0
 20
74.0
 30
0.0
 11
91.3
 21
74.0
 31
0.0
  0
LINE
  5
8A
330
1E
100
AcDbEntity
  8
0
100
AcDbLine
 10
102.2999999999999
 20
74.0
 30
0.0
 11
106.2
 21
74.0
 31
0.0
  0
LINE
  5
8B
330
1E
100
AcDbEntity
  8
0
100
AcDbLine
 10
106.2
 20
74.0
 30
0.0
 11
108.6
 21
74.0
 31
0.0
  0
LINE
  5
8C
330
1E
100
AcDbEntity
  8
0
100
AcDbLine
 10
108.6
 20
74.0
 30
0.0
 11
109.4999999999999
 21
74.0
 31
0.0
  0
LINE
  5
8D
330
1E
100
AcDbEntity
  8
0
100
AcDbLine
 10
97.2
 20
74.0
 30
0.0
 11
102.2999999999999
 21
74.0
 31
0.0
  0
LINE
  5
8E
330
1E
100
AcDbEntity
  8
0
100
AcDbLine
 10
94.1
 20
74.0
 30
0.0
 11
102.7
 21
74.0
 31
0.0
  0
LINE
  5
8F
330
1E
100
AcDbEntity
  8
0
100
AcDbLine
 10
102.7
 20
74.0
 30
0.0
 11
110.0999999999999
 21
74.0
 31
0.0
  0
LINE
  5
90
330
1E
100
AcDbEntity
  8
0
100
AcDbLine
 10
75.9
 20
74.0
 30
0.0
 11
85.0
 21
74.0
 31
0.0
  0
LINE
  5
91
330
1E
100
AcDbEntity
  8
0
100
AcDbLine
 10
67.3
 20
74.0
 30
0.0
 11
75.9
 21
74.0
 31
0.0
  0
LINE
  5
92
330
1E
100
AcDbEntity
  8
0
100
AcDbLine
 10
110.0999999999999
 20
74.0
 30
0.0
 11
115.7
 21
74.0
 31
0.0
  0
LINE
  5
93
330
1E
100
AcDbEntity
  8
0
100
AcDbLine
 10
115.7
 20
74.0
 30
0.0
 11
119.1999999999999
 21
74.0
 31
0.0
  0
LINE
  5
94
330
1E
100
AcDbEntity
  8
0
100
AcDbLine
 10
109.4
 20
74.0
 30
0.0
 11
115.0
 21
74.0
 31
0.0
  0
LINE
  5
95
330
1E
100
AcDbEntity
  8
0
100
AcDbLine
 10
115.0
 20
74.0
 30
0.0
 11
118.3
 21
74.0
 31
0.0
  0
LINE
  5
96
330
1E
100
AcDbEntity
  8
0
100
AcDbLine
 10
119.1999999999999
 20
74.0
 30
0.0
 11
120.5
 21
74.0
 31
0.0
  0
LINE
  5
97
330
1E
100
AcDbEntity
  8
0
100
AcDbLine
 10
118.3
 20
74.0
 30
0.0
 11
119.5999999999999
 21
74.0
 31
0.0
  0
LINE
  5
98
330
1E
100
AcDbEntity
  8
0
100
AcDbLine
 10
109.0
 20
74.0
 30
0.0
 11
109.0
 21
50.0
 31
0.0
  0
LINE
  5
99
330
1E
100
AcDbEntity
  8
0
100
AcDbLine
 10
109.0
 20
74.0
 30
0.0
 11
109.4
 21
74.0
 31
0.0
  0
LINE
  5
9A
330
1E
100
AcDbEntity
  8
0
100
AcDbLine
 10
109.0
 20
74.0
 30
0.0
 11
109.4999999999999
 21
74.0
 31
0.0
  0
LINE
  5
9B
330
1E
100
AcDbEntity
  8
0
100
AcDbLine
 10
60.5
 20
74.0
 30
0.0
 11
61.0
 21
74.0
 31
0.0
  0
LINE
  5
9C
330
1E
100
AcDbEntity
  8
0
100
AcDbLine
 10
60.5
 20
74.0
 30
0.0
 11
61.4
 21
74.0
 31
0.0
  0
LINE
  5
9D
330
1E
100
AcDbEntity
  8
0
100
AcDbLine
 10
60.6
 20
74.0
 30
0.0
 11
61.0
 21
74.0
 31
0.0
  0
LINE
  5
9E
330
1E
100
AcDbEntity
  8
0
100
AcDbLine
 10
55.0
 20
74.0
 30
0.0
 11
60.6
 21
74.0
 31
0.0
  0
LINE
  5
9F
330
1E
100
AcDbEntity
  8
0
100
AcDbLine
 10
51.7
 20
74.0
 30
0.0
 11
55.0
 21
74.0
 31
0.0
  0
LINE
  5
A0
330
1E
100
AcDbEntity
  8
0
100
AcDbLine
 10
50.4
 20
74.0
 30
0.0
 11
51.7
 21
74.0
 31
0.0
  0
LINE
  5
A1
330
1E
100
AcDbEntity
  8
0
100
AcDbLine
 10
1.0
 20
74.0
 30
0.0
 11
1.440039999999999
 21
74.0
 31
0.0
  0
LINE
  5
A2
330
1E
100
AcDbEntity
  8
0
100
AcDbLine
 10
0.3000000000000011
 20
74.29999999999999
 30
0.0
 11
1.0
 21
74.0
 31
0.0
  0
LINE
  5
A3
330
1E
100
AcDbEntity
  8
0
100
AcDbLine
 10
0.3000000000000011
 20
74.29999999999999
 30
0.0
 11
0.7411040000000011
 21
74.29999999999999
 31
0.0
  0
LINE
  5
A4
330
1E
100
AcDbEntity
  8
0
100
AcDbLine
 10
1.859399999999999
 20
74.29999999999999
 30
0.0
 11
3.7
 21
74.29999999999999
 31
0.0
  0
LINE
  5
A5
330
1E
100
AcDbEntity
  8
0
100
AcDbLine
 10
0.7411040000000011
 20
74.29999999999999
 30
0.0
 11
1.859399999999999
 21
74.29999999999999
 31
0.0
  0
LINE
  5
A6
330
1E
100
AcDbEntity
  8
0
100
AcDbLine
 10
3.7
 20
74.29999999999999
 30
0.0
 11
6.15924
 21
74.29999999999999
 31
0.0
  0
LINE
  5
A7
330
1E
100
AcDbEntity
  8
0
100
AcDbLine
 10
12.0
 20
74.29999999999999
 30
0.0
 11
85.0
 21
74.29999999999999
 31
0.0
  0
LINE
  5
A8
330
1E
100
AcDbEntity
  8
0
100
AcDbLine
 10
6.15924
 20
74.29999999999999
 30
0.0
 11
8.976779999999999
 21
74.29999999999999
 31
0.0
  0
LINE
  5
A9
330
1E
100
AcDbEntity
  8
0
100
AcDbLine
 10
8.976779999999999
 20
74.29999999999999
 30
0.0
 11
12.0
 21
74.29999999999999
 31
0.0
  0
LINE
  5
AA
330
1E
100
AcDbEntity
  8
0
100
AcDbLine
 10
161.023
 20
74.29999999999999
 30
0.0
 11
163.8409999999999
 21
74.29999999999999
 31
0.0
  0
LINE
  5
AB
330
1E
100
AcDbEntity
  8
0
100
AcDbLine
 10
158.0
 20
74.29999999999999
 30
0.0
 11
161.023
 21
74.29999999999999
 31
0.0
  0
LINE
  5
AC
330
1E
100
AcDbEntity
  8
0
100
AcDbLine
 10
85.0
 20
74.29999999999999
 30
0.0
 11
158.0
 21
74.29999999999999
 31
0.0
  0
LINE
  5
AD
330
1E
100
AcDbEntity
  8
0
100
AcDbLine
 10
12.0
 20
74.29999999999999
 30
0.0
 11
85.0
 21
74.29999999999999
 31
0.0
  0
LINE
  5
AE
330
1E
100
AcDbEntity
  8
0
100
AcDbLine
 10
163.8409999999999
 20
74.29999999999999
 30
0.0
 11
166.3
 21
74.29999999999999
 31
0.0
  0
LINE
  5
AF
330
1E
100
AcDbEntity
  8
0
100
AcDbLine
 10
166.3
 20
74.29999999999999
 30
0.0
 11
168.1409999999999
 21
74.29999999999999
 31
0.0
  0
LINE
  5
B0
330
1E
100
AcDbEntity
  8
0
100
AcDbLine
 10
168.1409999999999
 20
74.29999999999999
 30
0.0
 11
169.259
 21
74.29999999999999
 31
0.0
  0
LINE
  5
B1
330
1E
100
AcDbEntity
  8
0
100
AcDbLine
 10
169.259
 20
74.29999999999999
 30
0.0
 11
169.6999999999999
 21
74.29999999999999
 31
0.0
  0
LINE
  5
B2
330
1E
100
AcDbEntity
  8
0
100
AcDbLine
 10
170.0
 20
75.0
 30
0.0
 11
170.0
 21
86.0
 31
0.0
  0
LINE
  5
B3
330
1E
100
AcDbEntity
  8
0
100
AcDbLine
 10
0.4000000000000011
 20
86.0
 30
0.0
 11
1.6
 21
86.0
 31
0.0
  0
LINE
  5
B4
330
1E
100
AcDbEntity
  8
0
100
AcDbLine
 10
24.0
 20
86.0
 30
0.0
 11
24.0
 21
121.0
 31
0.0
  0
LINE
  5
B5
330
1E
100
AcDbEntity
  8
0
100
AcDbLine
 10
146.0
 20
86.0
 30
0.0
 11
146.0
 21
121.0
 31
0.0
  0
LINE
  5
B6
330
1E
100
AcDbEntity
  8
0
100
AcDbLine
 10
85.0
 20
86.0
 30
0.0
 11
158.0
 21
86.0
 31
0.0
  0
LINE
  5
B7
330
1E
100
AcDbEntity
  8
0
100
AcDbLine
 10
158.0
 20
86.0
 30
0.0
 11
161.0999999999999
 21
86.0
 31
0.0
  0
LINE
  5
B8
330
1E
100
AcDbEntity
  8
0
100
AcDbLine
 10
161.0999999999999
 20
86.0
 30
0.0
 11
164.0
 21
86.0
 31
0.0
  0
LINE
  5
B9
330
1E
100
AcDbEntity
  8
0
100
AcDbLine
 10
164.0
 20
86.0
 30
0.0
 11
166.5
 21
86.0
 31
0.0
  0
LINE
  5
BA
330
1E
100
AcDbEntity
  8
0
100
AcDbLine
 10
166.5
 20
86.0
 30
0.0
 11
168.4
 21
86.0
 31
0.0
  0
LINE
  5
BB
330
1E
100
AcDbEntity
  8
0
100
AcDbLine
 10
168.4
 20
86.0
 30
0.0
 11
169.5999999999999
 21
86.0
 31
0.0
  0
LINE
  5
BC
330
1E
100
AcDbEntity
  8
0
100
AcDbLine
 10
169.5999999999999
 20
86.0
 30
0.0
 11
170.0
 21
86.0
 31
0.0
  0
LINE
  5
BD
330
1E
100
AcDbEntity
  8
0
100
AcDbLine
 10
170.0
 20
86.0
 30
0.0
 11
170.0
 21
75.0
 31
0.0
  0
LINE
  5
BE
330
1E
100
AcDbEntity
  8
0
100
AcDbLine
 10
12.0
 20
86.0
 30
0.0
 11
85.0
 21
86.0
 31
0.0
  0
LINE
  5
BF
330
1E
100
AcDbEntity
  8
0
100
AcDbLine
 10
12.0
 20
86.0
 30
0.0
 11
85.0
 21
86.0
 31
0.0
  0
LINE
  5
C0
330
1E
100
AcDbEntity
  8
0
100
AcDbLine
 10
8.9
 20
86.0
 30
0.0
 11
12.0
 21
86.0
 31
0.0
  0
LINE
  5
C1
330
1E
100
AcDbEntity
  8
0
100
AcDbLine
 10
6.0
 20
86.0
 30
0.0
 11
8.9
 21
86.0
 31
0.0
  0
LINE
  5
C2
330
1E
100
AcDbEntity
  8
0
100
AcDbLine
 10
3.5
 20
86.0
 30
0.0
 11
6.0
 21
86.0
 31
0.0
  0
LINE
  5
C3
330
1E
100
AcDbEntity
  8
0
100
AcDbLine
 10
9.644
 20
121.0
 30
0.0
 11
10.02799999999999
 21
121.0
 31
0.0
  0
LINE
  5
C4
330
1E
100
AcDbEntity
  8
0
100
AcDbLine
 10
10.02799999999999
 20
121.0
 30
0.0
 11
10.66799999999999
 21
121.0
 31
0.0
  0
LINE
  5
C5
330
1E
100
AcDbEntity
  8
0
100
AcDbLine
 10
10.66799999999999
 20
121.0
 30
0.0
 11
11.51599999999999
 21
121.0
 31
0.0
  0
LINE
  5
C6
330
1E
100
AcDbEntity
  8
0
100
AcDbLine
 10
10.5
 20
121.0
 30
0.0
 11
15.5
 21
121.0
 31
0.0
  0
LINE
  5
C7
330
1E
100
AcDbEntity
  8
0
100
AcDbLine
 10
11.51599999999999
 20
121.0
 30
0.0
 11
12.476
 21
121.0
 31
0.0
  0
LINE
  5
C8
330
1E
100
AcDbEntity
  8
0
100
AcDbLine
 10
13.5
 20
121.0
 30
0.0
 11
14.524
 21
121.0
 31
0.0
  0
LINE
  5
C9
330
1E
100
AcDbEntity
  8
0
100
AcDbLine
 10
12.476
 20
121.0
 30
0.0
 11
13.5
 21
121.0
 31
0.0
  0
LINE
  5
CA
330
1E
100
AcDbEntity
  8
0
100
AcDbLine
 10
12.4374
 20
121.0
 30
0.0
 11
24.0
 21
121.0
 31
0.0
  0
LINE
  5
CB
330
1E
100
AcDbEntity
  8
0
100
AcDbLine
 10
12.4374
 20
121.0
 30
0.0
 11
36.16179999999999
 21
121.0
 31
0.0
  0
LINE
  5
CC
330
1E
100
AcDbEntity
  8
0
100
AcDbLine
 10
14.524
 20
121.0
 30
0.0
 11
15.484
 21
121.0
 31
0.0
  0
LINE
  5
CD
330
1E
100
AcDbEntity
  8
0
100
AcDbLine
 10
15.11032
 20
121.0
 30
0.0
 11
15.25432
 21
121.0
 31
0.0
  0
LINE
  5
CE
330
1E
100
AcDbEntity
  8
0
100
AcDbLine
 10
15.484
 20
121.0
 30
0.0
 11
16.332
 21
121.0
 31
0.0
  0
LINE
  5
CF
330
1E
100
AcDbEntity
  8
0
100
AcDbLine
 10
15.25432
 20
121.0
 30
0.0
 11
15.63832
 21
121.0
 31
0.0
  0
LINE
  5
D0
330
1E
100
AcDbEntity
  8
0
100
AcDbLine
 10
15.63832
 20
121.0
 30
0.0
 11
16.27832
 21
121.0
 31
0.0
  0
LINE
  5
D1
330
1E
100
AcDbEntity
  8
0
100
AcDbLine
 10
16.972
 20
121.0
 30
0.0
 11
17.35599999999999
 21
121.0
 31
0.0
  0
LINE
  5
D2
330
1E
100
AcDbEntity
  8
0
100
AcDbLine
 10
16.332
 20
121.0
 30
0.0
 11
16.972
 21
121.0
 31
0.0
  0
LINE
  5
D3
330
1E
100
AcDbEntity
  8
0
100
AcDbLine
 10
16.27832
 20
121.0
 30
0.0
 11
17.12632
 21
121.0
 31
0.0
  0
LINE
  5
D4
330
1E
100
AcDbEntity
  8
0
100
AcDbLine
 10
17.35599999999999
 20
121.0
 30
0.0
 11
17.5
 21
121.0
 31
0.0
  0
LINE
  5
D5
330
1E
100
AcDbEntity
  8
0
100
AcDbLine
 10
21.9423
 20
121.0
 30
0.0
 11
22.5823
 21
121.0
 31
0.0
  0
LINE
  5
D6
330
1E
100
AcDbEntity
  8
0
100
AcDbLine
 10
21.0943
 20
121.0
 30
0.0
 11
21.9423
 21
121.0
 31
0.0
  0
LINE
  5
D7
330
1E
100
AcDbEntity
  8
0
100
AcDbLine
 10
20.1343
 20
121.0
 30
0.0
 11
21.0943
 21
121.0
 31
0.0
  0
LINE
  5
D8
330
1E
100
AcDbEntity
  8
0
100
AcDbLine
 10
19.11032
 20
121.0
 30
0.0
 11
20.1343
 21
121.0
 31
0.0
  0
LINE
  5
D9
330
1E
100
AcDbEntity
  8
0
100
AcDbLine
 10
17.12632
 20
121.0
 30
0.0
 11
18.08632
 21
121.0
 31
0.0
  0
LINE
  5
DA
330
1E
100
AcDbEntity
  8
0
100
AcDbLine
 10
18.08632
 20
121.0
 30
0.0
 11
19.11032
 21
121.0
 31
0.0
  0
LINE
  5
DB
330
1E
100
AcDbEntity
  8
0
100
AcDbLine
 10
16.18492
 20
121.0
 30
0.0
 11
24.0
 21
121.0
 31
0.0
  0
LINE
  5
DC
330
1E
100
AcDbEntity
  8
0
100
AcDbLine
 10
16.18492
 20
121.0
 30
0.0
 11
27.355
 21
121.0
 31
0.0
  0
LINE
  5
DD
330
1E
100
AcDbEntity
  8
0
100
AcDbLine
 10
15.84241
 20
121.0
 30
0.0
 11
16.18492
 21
121.0
 31
0.0
  0
LINE
  5
DE
330
1E
100
AcDbEntity
  8
0
100
AcDbLine
 10
15.84241
 20
121.0
 30
0.0
 11
24.0
 21
121.0
 31
0.0
  0
LINE
  5
DF
330
1E
100
AcDbEntity
  8
0
100
AcDbLine
 10
15.84241
 20
121.0
 30
0.0
 11
26.54619999999999
 21
121.0
 31
0.0
  0
LINE
  5
E0
330
1E
100
AcDbEntity
  8
0
100
AcDbLine
 10
13.69551
 20
121.0
 30
0.0
 11
24.0
 21
121.0
 31
0.0
  0
LINE
  5
E1
330
1E
100
AcDbEntity
  8
0
100
AcDbLine
 10
13.69551
 20
121.0
 30
0.0
 11
34.8138
 21
121.0
 31
0.0
  0
LINE
  5
E2
330
1E
100
AcDbEntity
  8
0
100
AcDbLine
 10
12.4374
 20
121.0
 30
0.0
 11
13.69551
 21
121.0
 31
0.0
  0
LINE
  5
E3
330
1E
100
AcDbEntity
  8
0
100
AcDbLine
 10
12.4374
 20
121.0
 30
0.0
 11
24.0
 21
121.0
 31
0.0
  0
LINE
  5
E4
330
1E
100
AcDbEntity
  8
0
100
AcDbLine
 10
12.4374
 20
121.0
 30
0.0
 11
36.16179999999999
 21
121.0
 31
0.0
  0
LINE
  5
E5
330
1E
100
AcDbEntity
  8
0
100
AcDbLine
 10
11.5
 20
121.0
 30
0.0
 11
60.3
 21
121.0
 31
0.0
  0
LINE
  5
E6
330
1E
100
AcDbEntity
  8
0
100
AcDbLine
 10
11.5
 20
121.0
 30
0.0
 11
24.0
 21
121.0
 31
0.0
  0
LINE
  5
E7
330
1E
100
AcDbEntity
  8
0
100
AcDbLine
 10
9.5
 20
121.0
 30
0.0
 11
24.0
 21
121.0
 31
0.0
  0
LINE
  5
E8
330
1E
100
AcDbEntity
  8
0
100
AcDbLine
 10
9.5
 20
121.0
 30
0.0
 11
59.5
 21
121.0
 31
0.0
  0
LINE
  5
E9
330
1E
100
AcDbEntity
  8
0
100
AcDbLine
 10
9.5
 20
121.0
 30
0.0
 11
9.5
 21
125.0
 31
0.0
  0
LINE
  5
EA
330
1E
100
AcDbEntity
  8
0
100
AcDbLine
 10
9.5
 20
121.0
 30
0.0
 11
11.5
 21
121.0
 31
0.0
  0
LINE
  5
EB
330
1E
100
AcDbEntity
  8
0
100
AcDbLine
 10
9.5
 20
121.0
 30
0.0
 11
24.0
 21
121.0
 31
0.0
  0
LINE
  5
EC
330
1E
100
AcDbEntity
  8
0
100
AcDbLine
 10
9.5
 20
121.0
 30
0.0
 11
59.5
 21
121.0
 31
0.0
  0
LINE
  5
ED
330
1E
100
AcDbEntity
  8
0
100
AcDbLine
 10
9.5
 20
121.0
 30
0.0
 11
9.644
 21
121.0
 31
0.0
  0
LINE
  5
EE
330
1E
100
AcDbEntity
  8
0
100
AcDbLine
 10
22.96629999999999
 20
121.0
 30
0.0
 11
23.1103
 21
121.0
 31
0.0
  0
LINE
  5
EF
330
1E
100
AcDbEntity
  8
0
100
AcDbLine
 10
22.5823
 20
121.0
 30
0.0
 11
22.96629999999999
 21
121.0
 31
0.0
  0
LINE
  5
F0
330
1E
100
AcDbEntity
  8
0
100
AcDbLine
 10
22.756
 20
121.0
 30
0.0
 11
24.0
 21
121.0
 31
0.0
  0
LINE
  5
F1
330
1E
100
AcDbEntity
  8
0
100
AcDbLine
 10
22.756
 20
121.0
 30
0.0
 11
24.268
 21
121.0
 31
0.0
  0
LINE
  5
F2
330
1E
100
AcDbEntity
  8
0
100
AcDbLine
 10
22.0
 20
121.0
 30
0.0
 11
22.756
 21
121.0
 31
0.0
  0
LINE
  5
F3
330
1E
100
AcDbEntity
  8
0
100
AcDbLine
 10
22.0
 20
152.72
 30
0.0
 11
22.0
 21
154.64
 31
0.0
  0
LINE
  5
F4
330
1E
100
AcDbEntity
  8
0
100
AcDbLine
 10
22.0
 20
152.72
 30
0.0
 11
22.0
 21
152.0
 31
0.0
  0
LINE
  5
F5
330
1E
100
AcDbEntity
  8
0
100
AcDbLine
 10
22.0
 20
152.72
 30
0.0
 11
22.0
 21
154.64
 31
0.0
  0
LINE
  5
F6
330
1E
100
AcDbEntity
  8
0
100
AcDbLine
 10
22.0
 20
152.0
 30
0.0
 11
22.0
 21
152.72
 31
0.0
  0
LINE
  5
F7
330
1E
100
AcDbEntity
  8
0
100
AcDbLine
 10
22.0
 20
152.0
 30
0.0
 11
24.0
 21
152.0
 31
0.0
  0
LINE
  5
F8
330
1E
100
AcDbEntity
  8
0
100
AcDbLine
 10
9.5
 20
125.0
 30
0.0
 11
59.5
 21
125.0
 31
0.0
  0
LINE
  5
F9
330
1E
100
AcDbEntity
  8
0
100
AcDbLine
 10
9.5
 20
125.0
 30
0.0
 11
9.5
 21
121.0
 31
0.0
  0
LINE
  5
FA
330
1E
100
AcDbEntity
  8
0
100
AcDbLine
 10
22.0
 20
154.64
 30
0.0
 11
22.0
 21
157.84
 31
0.0
  0
LINE
  5
FB
330
1E
100
AcDbEntity
  8
0
100
AcDbLine
 10
22.0
 20
154.64
 30
0.0
 11
22.0
 21
152.72
 31
0.0
  0
LINE
  5
FC
330
1E
100
AcDbEntity
  8
0
100
AcDbLine
 10
22.0
 20
155.0
 30
0.0
 11
22.0
 21
155.6119999999999
 31
0.0
  0
LINE
  5
FD
330
1E
100
AcDbEntity
  8
0
100
AcDbLine
 10
22.0
 20
154.64
 30
0.0
 11
22.0
 21
157.84
 31
0.0
  0
LINE
  5
FE
330
1E
100
AcDbEntity
  8
0
100
AcDbLine
 10
22.0
 20
154.64
 30
0.0
 11
22.0
 21
152.72
 31
0.0
  0
LINE
  5
FF
330
1E
100
AcDbEntity
  8
0
100
AcDbLine
 10
22.0
 20
157.84
 30
0.0
 11
22.0
 21
162.08
 31
0.0
  0
LINE
  5
100
330
1E
100
AcDbEntity
  8
0
100
AcDbLine
 10
22.0
 20
157.84
 30
0.0
 11
22.0
 21
154.64
 31
0.0
  0
LINE
  5
101
330
1E
100
AcDbEntity
  8
0
100
AcDbLine
 10
22.0
 20
157.84
 30
0.0
 11
22.0
 21
154.64
 31
0.0
  0
LINE
  5
102
330
1E
100
AcDbEntity
  8
0
100
AcDbLine
 10
22.0
 20
157.244
 30
0.0
 11
22.0
 21
155.6119999999999
 31
0.0
  0
LINE
  5
103
330
1E
100
AcDbEntity
  8
0
100
AcDbLine
 10
22.0
 20
157.244
 30
0.0
 11
22.0
 21
159.9639999999999
 31
0.0
  0
LINE
  5
104
330
1E
100
AcDbEntity
  8
0
100
AcDbLine
 10
22.0
 20
155.6119999999999
 30
0.0
 11
22.0
 21
155.0
 31
0.0
  0
LINE
  5
105
330
1E
100
AcDbEntity
  8
0
100
AcDbLine
 10
22.0
 20
155.6119999999999
 30
0.0
 11
22.0
 21
157.244
 31
0.0
  0
LINE
  5
106
330
1E
100
AcDbEntity
  8
0
100
AcDbLine
 10
22.0
 20
162.08
 30
0.0
 11
22.0
 21
166.88
 31
0.0
  0
LINE
  5
107
330
1E
100
AcDbEntity
  8
0
100
AcDbLine
 10
22.0
 20
162.08
 30
0.0
 11
22.0
 21
157.84
 31
0.0
  0
LINE
  5
108
330
1E
100
AcDbEntity
  8
0
100
AcDbLine
 10
22.0
 20
166.88
 30
0.0
 11
22.0
 21
172.0
 31
0.0
  0
LINE
  5
109
330
1E
100
AcDbEntity
  8
0
100
AcDbLine
 10
22.0
 20
166.88
 30
0.0
 11
22.0
 21
162.08
 31
0.0
  0
LINE
  5
10A
330
1E
100
AcDbEntity
  8
0
100
AcDbLine
 10
22.0
 20
163.5679999999999
 30
0.0
 11
22.0
 21
159.9639999999999
 31
0.0
  0
LINE
  5
10B
330
1E
100
AcDbEntity
  8
0
100
AcDbLine
 10
22.0
 20
163.5679999999999
 30
0.0
 11
22.0
 21
167.6479999999999
 31
0.0
  0
LINE
  5
10C
330
1E
100
AcDbEntity
  8
0
100
AcDbLine
 10
22.0
 20
159.9639999999999
 30
0.0
 11
22.0
 21
157.244
 31
0.0
  0
LINE
  5
10D
330
1E
100
AcDbEntity
  8
0
100
AcDbLine
 10
22.0
 20
159.9639999999999
 30
0.0
 11
22.0
 21
163.5679999999999
 31
0.0
  0
LINE
  5
10E
330
1E
100
AcDbEntity
  8
0
100
AcDbLine
 10
22.0
 20
167.6479999999999
 30
0.0
 11
22.0
 21
163.5679999999999
 31
0.0
  0
LINE
  5
10F
330
1E
100
AcDbEntity
  8
0
100
AcDbLine
 10
22.0
 20
167.6479999999999
 30
0.0
 11
22.0
 21
172.0
 31
0.0
  0
LINE
  5
110
330
1E
100
AcDbEntity
  8
0
100
AcDbLine
 10
22.0
 20
172.0
 30
0.0
 11
22.0
 21
176.3519999999999
 31
0.0
  0
LINE
  5
111
330
1E
100
AcDbEntity
  8
0
100
AcDbLine
 10
22.0
 20
172.0
 30
0.0
 11
22.0
 21
177.12
 31
0.0
  0
LINE
  5
112
330
1E
100
AcDbEntity
  8
0
100
AcDbLine
 10
22.0
 20
172.0
 30
0.0
 11
22.0
 21
167.6479999999999
 31
0.0
  0
LINE
  5
113
330
1E
100
AcDbEntity
  8
0
100
AcDbLine
 10
22.0
 20
172.0
 30
0.0
 11
22.0
 21
166.88
 31
0.0
  0
LINE
  5
114
330
1E
100
AcDbEntity
  8
0
100
AcDbLine
 10
22.0
 20
176.3519999999999
 30
0.0
 11
22.0
 21
180.432
 31
0.0
  0
LINE
  5
115
330
1E
100
AcDbEntity
  8
0
100
AcDbLine
 10
22.0
 20
176.3519999999999
 30
0.0
 11
22.0
 21
172.0
 31
0.0
  0
LINE
  5
116
330
1E
100
AcDbEntity
  8
0
100
AcDbLine
 10
22.0
 20
180.432
 30
0.0
 11
22.0
 21
184.0359999999999
 31
0.0
  0
LINE
  5
117
330
1E
100
AcDbEntity
  8
0
100
AcDbLine
 10
22.0
 20
180.432
 30
0.0
 11
22.0
 21
176.3519999999999
 31
0.0
  0
LINE
  5
118
330
1E
100
AcDbEntity
  8
0
100
AcDbLine
 10
24.0
 20
181.92
 30
0.0
 11
24.0
 21
177.12
 31
0.0
  0
LINE
  5
119
330
1E
100
AcDbEntity
  8
0
100
AcDbLine
 10
22.0
 20
177.12
 30
0.0
 11
22.0
 21
172.0
 31
0.0
  0
LINE
  5
11A
330
1E
100
AcDbEntity
  8
0
100
AcDbLine
 10
22.0
 20
177.12
 30
0.0
 11
22.0
 21
181.92
 31
0.0
  0
LINE
  5
11B
330
1E
100
AcDbEntity
  8
0
100
AcDbLine
 10
22.0
 20
181.92
 30
0.0
 11
22.0
 21
177.12
 31
0.0
  0
LINE
  5
11C
330
1E
100
AcDbEntity
  8
0
100
AcDbLine
 10
22.0
 20
181.92
 30
0.0
 11
22.0
 21
186.1599999999999
 31
0.0
  0
LINE
  5
11D
330
1E
100
AcDbEntity
  8
0
100
AcDbLine
 10
22.0
 20
181.92
 30
0.0
 11
22.0
 21
186.1599999999999
 31
0.0
  0
LINE
  5
11E
330
1E
100
AcDbEntity
  8
0
100
AcDbLine
 10
24.0
 20
172.0
 30
0.0
 11
24.0
 21
166.88
 31
0.0
  0
LINE
  5
11F
330
1E
100
AcDbEntity
  8
0
100
AcDbLine
 10
24.0
 20
166.88
 30
0.0
 11
24.0
 21
162.08
 31
0.0
  0
LINE
  5
120
330
1E
100
AcDbEntity
  8
0
100
AcDbLine
 10
24.0
 20
162.08
 30
0.0
 11
24.0
 21
157.84
 31
0.0
  0
LINE
  5
121
330
1E
100
AcDbEntity
  8
0
100
AcDbLine
 10
24.0
 20
157.84
 30
0.0
 11
24.0
 21
154.64
 31
0.0
  0
LINE
  5
122
330
1E
100
AcDbEntity
  8
0
100
AcDbLine
 10
24.0
 20
154.64
 30
0.0
 11
24.0
 21
152.72
 31
0.0
  0
LINE
  5
123
330
1E
100
AcDbEntity
  8
0
100
AcDbLine
 10
24.0
 20
152.72
 30
0.0
 11
24.0
 21
152.0
 31
0.0
  0
LINE
  5
124
330
1E
100
AcDbEntity
  8
0
100
AcDbLine
 10
24.0
 20
152.72
 30
0.0
 11
24.0
 21
152.0
 31
0.0
  0
LINE
  5
125
330
1E
100
AcDbEntity
  8
0
100
AcDbLine
 10
24.0
 20
177.12
 30
0.0
 11
24.0
 21
172.0
 31
0.0
  0
LINE
  5
126
330
1E
100
AcDbEntity
  8
0
100
AcDbLine
 10
22.0
 20
184.0359999999999
 30
0.0
 11
22.0
 21
186.7559999999999
 31
0.0
  0
LINE
  5
127
330
1E
100
AcDbEntity
  8
0
100
AcDbLine
 10
22.0
 20
184.0359999999999
 30
0.0
 11
22.0
 21
180.432
 31
0.0
  0
LINE
  5
128
330
1E
100
AcDbEntity
  8
0
100
AcDbLine
 10
22.0
 20
186.1599999999999
 30
0.0
 11
22.0
 21
181.92
 31
0.0
  0
LINE
  5
129
330
1E
100
AcDbEntity
  8
0
100
AcDbLine
 10
22.0
 20
186.1599999999999
 30
0.0
 11
22.0
 21
189.36
 31
0.0
  0
LINE
  5
12A
330
1E
100
AcDbEntity
  8
0
100
AcDbLine
 10
22.0
 20
189.0
 30
0.0
 11
22.0
 21
188.3879999999999
 31
0.0
  0
LINE
  5
12B
330
1E
100
AcDbEntity
  8
0
100
AcDbLine
 10
22.0
 20
186.7559999999999
 30
0.0
 11
22.0
 21
188.3879999999999
 31
0.0
  0
LINE
  5
12C
330
1E
100
AcDbEntity
  8
0
100
AcDbLine
 10
22.0
 20
186.7559999999999
 30
0.0
 11
22.0
 21
184.0359999999999
 31
0.0
  0
LINE
  5
12D
330
1E
100
AcDbEntity
  8
0
100
AcDbLine
 10
22.0
 20
188.3879999999999
 30
0.0
 11
22.0
 21
189.0
 31
0.0
  0
LINE
  5
12E
330
1E
100
AcDbEntity
  8
0
100
AcDbLine
 10
22.0
 20
188.3879999999999
 30
0.0
 11
22.0
 21
186.7559999999999
 31
0.0
  0
LINE
  5
12F
330
1E
100
AcDbEntity
  8
0
100
AcDbLine
 10
22.0
 20
186.1599999999999
 30
0.0
 11
22.0
 21
181.92
 31
0.0
  0
LINE
  5
130
330
1E
100
AcDbEntity
  8
0
100
AcDbLine
 10
22.0
 20
186.1599999999999
 30
0.0
 11
22.0
 21
189.36
 31
0.0
  0
LINE
  5
131
330
1E
100
AcDbEntity
  8
0
100
AcDbLine
 10
22.0
 20
189.36
 30
0.0
 11
22.0
 21
186.1599999999999
 31
0.0
  0
LINE
  5
132
330
1E
100
AcDbEntity
  8
0
100
AcDbLine
 10
22.0
 20
189.36
 30
0.0
 11
22.0
 21
191.28
 31
0.0
  0
LINE
  5
133
330
1E
100
AcDbEntity
  8
0
100
AcDbLine
 10
22.0
 20
189.36
 30
0.0
 11
22.0
 21
186.1599999999999
 31
0.0
  0
LINE
  5
134
330
1E
100
AcDbEntity
  8
0
100
AcDbLine
 10
24.0
 20
181.92
 30
0.0
 11
24.0
 21
177.12
 31
0.0
  0
LINE
  5
135
330
1E
100
AcDbEntity
  8
0
100
AcDbLine
 10
24.0
 20
186.1599999999999
 30
0.0
 11
24.0
 21
181.92
 31
0.0
  0
LINE
  5
136
330
1E
100
AcDbEntity
  8
0
100
AcDbLine
 10
24.0
 20
186.1599999999999
 30
0.0
 11
24.0
 21
181.92
 31
0.0
  0
LINE
  5
137
330
1E
100
AcDbEntity
  8
0
100
AcDbLine
 10
22.0
 20
191.28
 30
0.0
 11
22.0
 21
189.36
 31
0.0
  0
LINE
  5
138
330
1E
100
AcDbEntity
  8
0
100
AcDbLine
 10
22.0
 20
191.28
 30
0.0
 11
22.0
 21
192.0
 31
0.0
  0
LINE
  5
139
330
1E
100
AcDbEntity
  8
0
100
AcDbLine
 10
24.0
 20
191.28
 30
0.0
 11
24.0
 21
189.36
 31
0.0
  0
LINE
  5
13A
330
1E
100
AcDbEntity
  8
0
100
AcDbLine
 10
22.0
 20
192.0
 30
0.0
 11
22.0
 21
191.28
 31
0.0
  0
LINE
  5
13B
330
1E
100
AcDbEntity
  8
0
100
AcDbLine
 10
22.0
 20
192.0
 30
0.0
 11
24.0
 21
192.0
 31
0.0
  0
LINE
  5
13C
330
1E
100
AcDbEntity
  8
0
100
AcDbLine
 10
24.0
 20
189.36
 30
0.0
 11
24.0
 21
186.1599999999999
 31
0.0
  0
LINE
  5
13D
330
1E
100
AcDbEntity
  8
0
100
AcDbLine
 10
24.0
 20
191.28
 30
0.0
 11
24.0
 21
189.36
 31
0.0
  0
LINE
  5
13E
330
1E
100
AcDbEntity
  8
0
100
AcDbLine
 10
24.0
 20
121.0
 30
0.0
 11
24.0
 21
86.0
 31
0.0
  0
LINE
  5
13F
330
1E
100
AcDbEntity
  8
0
100
AcDbLine
 10
24.0
 20
152.0
 30
0.0
 11
24.4072
 21
152.72
 31
0.0
  0
LINE
  5
140
330
1E
100
AcDbEntity
  8
0
100
AcDbLine
 10
24.0
 20
152.0
 30
0.0
 11
24.0
 21
125.0
 31
0.0
  0
LINE
  5
141
330
1E
100
AcDbEntity
  8
0
100
AcDbLine
 10
24.0
 20
194.0
 30
0.0
 11
24.0
 21
192.0
 31
0.0
  0
LINE
  5
142
330
1E
100
AcDbEntity
  8
0
100
AcDbLine
 10
24.0
 20
194.0
 30
0.0
 11
24.6421
 21
194.0
 31
0.0
  0
LINE
  5
143
330
1E
100
AcDbEntity
  8
0
100
AcDbLine
 10
24.0
 20
192.0
 30
0.0
 11
24.0
 21
194.0
 31
0.0
  0
LINE
  5
144
330
1E
100
AcDbEntity
  8
0
100
AcDbLine
 10
24.0
 20
192.0
 30
0.0
 11
24.4072
 21
191.28
 31
0.0
  0
LINE
  5
145
330
1E
100
AcDbEntity
  8
0
100
AcDbLine
 10
24.0
 20
192.0
 30
0.0
 11
24.0
 21
191.28
 31
0.0
  0
LINE
  5
146
330
1E
100
AcDbEntity
  8
0
100
AcDbLine
 10
24.0
 20
192.0
 30
0.0
 11
24.0
 21
191.28
 31
0.0
  0
LINE
  5
147
330
1E
100
AcDbEntity
  8
0
100
AcDbLine
 10
24.268
 20
121.0
 30
0.0
 11
27.04
 21
121.0
 31
0.0
  0
LINE
  5
148
330
1E
100
AcDbEntity
  8
0
100
AcDbLine
 10
26.54619999999999
 20
121.0
 30
0.0
 11
27.355
 21
121.0
 31
0.0
  0
LINE
  5
149
330
1E
100
AcDbEntity
  8
0
100
AcDbLine
 10
34.8138
 20
121.0
 30
0.0
 11
36.16179999999999
 21
121.0
 31
0.0
  0
LINE
  5
14A
330
1E
100
AcDbEntity
  8
0
100
AcDbLine
 10
34.7787
 20
121.0
 30
0.0
 11
35.4187
 21
121.0
 31
0.0
  0
LINE
  5
14B
330
1E
100
AcDbEntity
  8
0
100
AcDbLine
 10
34.3947
 20
121.0
 30
0.0
 11
34.7787
 21
121.0
 31
0.0
  0
LINE
  5
14C
330
1E
100
AcDbEntity
  8
0
100
AcDbLine
 10
34.2507
 20
121.0
 30
0.0
 11
34.3947
 21
121.0
 31
0.0
  0
LINE
  5
14D
330
1E
100
AcDbEntity
  8
0
100
AcDbLine
 10
38.2507
 20
121.0
 30
0.0
 11
39.2747
 21
121.0
 31
0.0
  0
LINE
  5
14E
330
1E
100
AcDbEntity
  8
0
100
AcDbLine
 10
39.2747
 20
121.0
 30
0.0
 11
40.23469999999999
 21
121.0
 31
0.0
  0
LINE
  5
14F
330
1E
100
AcDbEntity
  8
0
100
AcDbLine
 10
40.23469999999999
 20
121.0
 30
0.0
 11
41.0827
 21
121.0
 31
0.0
  0
LINE
  5
150
330
1E
100
AcDbEntity
  8
0
100
AcDbLine
 10
41.0827
 20
121.0
 30
0.0
 11
41.7227
 21
121.0
 31
0.0
  0
LINE
  5
151
330
1E
100
AcDbEntity
  8
0
100
AcDbLine
 10
41.7227
 20
121.0
 30
0.0
 11
42.10669999999999
 21
121.0
 31
0.0
  0
LINE
  5
152
330
1E
100
AcDbEntity
  8
0
100
AcDbLine
 10
42.10669999999999
 20
121.0
 30
0.0
 11
42.2507
 21
121.0
 31
0.0
  0
LINE
  5
153
330
1E
100
AcDbEntity
  8
0
100
AcDbLine
 10
37.2267
 20
121.0
 30
0.0
 11
38.2507
 21
121.0
 31
0.0
  0
LINE
  5
154
330
1E
100
AcDbEntity
  8
0
100
AcDbLine
 10
36.2667
 20
121.0
 30
0.0
 11
37.2267
 21
121.0
 31
0.0
  0
LINE
  5
155
330
1E
100
AcDbEntity
  8
0
100
AcDbLine
 10
35.4187
 20
121.0
 30
0.0
 11
36.2667
 21
121.0
 31
0.0
  0
LINE
  5
156
330
1E
100
AcDbEntity
  8
0
100
AcDbLine
 10
35.104
 20
121.0
 30
0.0
 11
40.648
 21
121.0
 31
0.0
  0
LINE
  5
157
330
1E
100
AcDbEntity
  8
0
100
AcDbLine
 10
30.316
 20
121.0
 30
0.0
 11
35.104
 21
121.0
 31
0.0
  0
LINE
  5
158
330
1E
100
AcDbEntity
  8
0
100
AcDbLine
 10
27.04
 20
121.0
 30
0.0
 11
30.316
 21
121.0
 31
0.0
  0
LINE
  5
159
330
1E
100
AcDbEntity
  8
0
100
AcDbLine
 10
40.648
 20
121.0
 30
0.0
 11
46.696
 21
121.0
 31
0.0
  0
LINE
  5
15A
330
1E
100
AcDbEntity
  8
0
100
AcDbLine
 10
60.126
 20
121.0
 30
0.0
 11
61.15
 21
121.0
 31
0.0
  0
LINE
  5
15B
330
1E
100
AcDbEntity
  8
0
100
AcDbLine
 10
59.166
 20
121.0
 30
0.0
 11
60.126
 21
121.0
 31
0.0
  0
LINE
  5
15C
330
1E
100
AcDbEntity
  8
0
100
AcDbLine
 10
58.31800000000001
 20
121.0
 30
0.0
 11
59.166
 21
121.0
 31
0.0
  0
LINE
  5
15D
330
1E
100
AcDbEntity
  8
0
100
AcDbLine
 10
57.67800000000001
 20
121.0
 30
0.0
 11
58.31800000000001
 21
121.0
 31
0.0
  0
LINE
  5
15E
330
1E
100
AcDbEntity
  8
0
100
AcDbLine
 10
57.294
 20
121.0
 30
0.0
 11
57.67800000000001
 21
121.0
 31
0.0
  0
LINE
  5
15F
330
1E
100
AcDbEntity
  8
0
100
AcDbLine
 10
57.14999999999999
 20
121.0
 30
0.0
 11
57.294
 21
121.0
 31
0.0
  0
LINE
  5
160
330
1E
100
AcDbEntity
  8
0
100
AcDbLine
 10
49.8391
 20
121.0
 30
0.0
 11
58.8304
 21
121.0
 31
0.0
  0
LINE
  5
161
330
1E
100
AcDbEntity
  8
0
100
AcDbLine
 10
47.1417
 20
121.0
 30
0.0
 11
57.57159999999999
 21
121.0
 31
0.0
  0
LINE
  5
162
330
1E
100
AcDbEntity
  8
0
100
AcDbLine
 10
47.1417
 20
121.0
 30
0.0
 11
49.8391
 21
121.0
 31
0.0
  0
LINE
  5
163
330
1E
100
AcDbEntity
  8
0
100
AcDbLine
 10
57.57159999999999
 20
121.0
 30
0.0
 11
58.8304
 21
121.0
 31
0.0
  0
LINE
  5
164
330
1E
100
AcDbEntity
  8
0
100
AcDbLine
 10
60.3
 20
121.0
 30
0.0
 11
109.6999999999999
 21
121.0
 31
0.0
  0
LINE
  5
165
330
1E
100
AcDbEntity
  8
0
100
AcDbLine
 10
59.5
 20
121.0
 30
0.0
 11
59.5
 21
125.0
 31
0.0
  0
LINE
  5
166
330
1E
100
AcDbEntity
  8
0
100
AcDbLine
 10
59.5
 20
121.0
 30
0.0
 11
60.3
 21
121.0
 31
0.0
  0
LINE
  5
167
330
1E
100
AcDbEntity
  8
0
100
AcDbLine
 10
59.5
 20
121.0
 30
0.0
 11
110.4999999999999
 21
121.0
 31
0.0
  0
LINE
  5
168
330
1E
100
AcDbEntity
  8
0
100
AcDbLine
 10
46.696
 20
121.0
 30
0.0
 11
53.75199999999999
 21
121.0
 31
0.0
  0
LINE
  5
169
330
1E
100
AcDbEntity
  8
0
100
AcDbLine
 10
53.75199999999999
 20
121.0
 30
0.0
 11
61.06
 21
121.0
 31
0.0
  0
LINE
  5
16A
330
1E
100
AcDbEntity
  8
0
100
AcDbLine
 10
61.5539
 20
121.0
 30
0.0
 11
63.5243
 21
121.0
 31
0.0
  0
LINE
  5
16B
330
1E
100
AcDbEntity
  8
0
100
AcDbLine
 10
61.5539
 20
121.0
 30
0.0
 11
63.416
 21
121.0
 31
0.0
  0
LINE
  5
16C
330
1E
100
AcDbEntity
  8
0
100
AcDbLine
 10
61.15
 20
121.0
 30
0.0
 11
62.174
 21
121.0
 31
0.0
  0
LINE
  5
16D
330
1E
100
AcDbEntity
  8
0
100
AcDbLine
 10
62.174
 20
121.0
 30
0.0
 11
63.13399999999999
 21
121.0
 31
0.0
  0
LINE
  5
16E
330
1E
100
AcDbEntity
  8
0
100
AcDbLine
 10
63.5243
 20
121.0
 30
0.0
 11
65.48399999999999
 21
121.0
 31
0.0
  0
LINE
  5
16F
330
1E
100
AcDbEntity
  8
0
100
AcDbLine
 10
63.416
 20
121.0
 30
0.0
 11
65.48399999999999
 21
121.0
 31
0.0
  0
LINE
  5
170
330
1E
100
AcDbEntity
  8
0
100
AcDbLine
 10
63.13399999999999
 20
121.0
 30
0.0
 11
63.982
 21
121.0
 31
0.0
  0
LINE
  5
171
330
1E
100
AcDbEntity
  8
0
100
AcDbLine
 10
63.982
 20
121.0
 30
0.0
 11
64.622
 21
121.0
 31
0.0
  0
LINE
  5
172
330
1E
100
AcDbEntity
  8
0
100
AcDbLine
 10
64.622
 20
121.0
 30
0.0
 11
65.006
 21
121.0
 31
0.0
  0
LINE
  5
173
330
1E
100
AcDbEntity
  8
0
100
AcDbLine
 10
65.006
 20
121.0
 30
0.0
 11
65.15
 21
121.0
 31
0.0
  0
LINE
  5
174
330
1E
100
AcDbEntity
  8
0
100
AcDbLine
 10
61.06
 20
121.0
 30
0.0
 11
68.87199999999999
 21
121.0
 31
0.0
  0
LINE
  5
175
330
1E
100
AcDbEntity
  8
0
100
AcDbLine
 10
75.08
 20
154.64
 30
0.0
 11
79.87999999999999
 21
152.72
 31
0.0
  0
LINE
  5
176
330
1E
100
AcDbEntity
  8
0
100
AcDbLine
 10
59.5
 20
125.0
 30
0.0
 11
59.5
 21
121.0
 31
0.0
  0
LINE
  5
177
330
1E
100
AcDbEntity
  8
0
100
AcDbLine
 10
59.5
 20
125.0
 30
0.0
 11
110.4999999999999
 21
125.0
 31
0.0
  0
LINE
  5
178
330
1E
100
AcDbEntity
  8
0
100
AcDbLine
 10
68.87199999999999
 20
121.0
 30
0.0
 11
76.684
 21
121.0
 31
0.0
  0
LINE
  5
179
330
1E
100
AcDbEntity
  8
0
100
AcDbLine
 10
76.684
 20
121.0
 30
0.0
 11
85.0
 21
121.0
 31
0.0
  0
LINE
  5
17A
330
1E
100
AcDbEntity
  8
0
100
AcDbLine
 10
25.0876
 20
154.64
 30
0.0
 11
25.8896
 21
157.84
 31
0.0
  0
LINE
  5
17B
330
1E
100
AcDbEntity
  8
0
100
AcDbLine
 10
24.4072
 20
152.72
 30
0.0
 11
25.0876
 21
154.64
 31
0.0
  0
LINE
  5
17C
330
1E
100
AcDbEntity
  8
0
100
AcDbLine
 10
67.64
 20
162.08
 30
0.0
 11
70.84
 21
157.84
 31
0.0
  0
LINE
  5
17D
330
1E
100
AcDbEntity
  8
0
100
AcDbLine
 10
26.7401
 20
162.08
 30
0.0
 11
27.3963
 21
166.88
 31
0.0
  0
LINE
  5
17E
330
1E
100
AcDbEntity
  8
0
100
AcDbLine
 10
25.8896
 20
157.84
 30
0.0
 11
26.7401
 21
162.08
 31
0.0
  0
LINE
  5
17F
330
1E
100
AcDbEntity
  8
0
100
AcDbLine
 10
27.3963
 20
166.88
 30
0.0
 11
27.65
 21
172.0
 31
0.0
  0
LINE
  5
183
330
1E
100
AcDbEntity
  8
0
100
AcDbLine
 10
27.3963
 20
177.12
 30
0.0
 11
27.65
 21
172.0
 31
0.0
  0
LINE
  5
1A3
330
1E
100
AcDbEntity
  8
0
100
AcDbLine
 10
26.7401
 20
181.92
 30
0.0
 11
27.3963
 21
177.12
 31
0.0
  0
LINE
  5
1A4
330
1E
100
AcDbEntity
  8
0
100
AcDbLine
 10
25.8896
 20
186.1599999999999
 30
0.0
 11
26.7401
 21
181.92
 31
0.0
  0
LINE
  5
1A5
330
1E
100
AcDbEntity
  8
0
100
AcDbLine
 10
25.4067
 20
188.0867830423939
 30
0.0
 11
25.8896
 21
186.1599999999999
 31
0.0
  0
LINE
  5
1A6
330
1E
100
AcDbEntity
  8
0
100
AcDbLine
 10
25.0876
 20
189.36
 30
0.0
 11
25.4067
 21
188.0867830423939
 31
0.0
  0
LINE
  5
1A7
330
1E
100
AcDbEntity
  8
0
100
AcDbLine
 10
24.4072
 20
191.28
 30
0.0
 11
25.0876
 21
189.36
 31
0.0
  0
LINE
  5
1A8
330
1E
100
AcDbEntity
  8
0
100
AcDbLine
 10
65.69580000000001
 20
177.12
 30
0.0
 11
67.6389
 21
181.92
 31
0.0
  0
LINE
  5
1A9
330
1E
100
AcDbEntity
  8
0
100
AcDbLine
 10
65.0
 20
172.0
 30
0.0
 11
65.69580000000001
 21
166.88
 31
0.0
  0
LINE
  5
1AA
330
1E
100
AcDbEntity
  8
0
100
AcDbLine
 10
65.0
 20
172.0
 30
0.0
 11
65.72
 21
166.88
 31
0.0
  0
LINE
  5
1AB
330
1E
100
AcDbEntity
  8
0
100
AcDbLine
 10
65.0
 20
172.0
 30
0.0
 11
65.72
 21
177.12
 31
0.0
  0
LINE
  5
1AC
330
1E
100
AcDbEntity
  8
0
100
AcDbLine
 10
65.0
 20
172.0
 30
0.0
 11
65.69580000000001
 21
177.12
 31
0.0
  0
LINE
  5
1AD
330
1E
100
AcDbEntity
  8
0
100
AcDbLine
 10
65.72
 20
166.88
 30
0.0
 11
67.64
 21
162.08
 31
0.0
  0
LINE
  5
1AE
330
1E
100
AcDbEntity
  8
0
100
AcDbLine
 10
65.72
 20
177.12
 30
0.0
 11
67.64
 21
181.92
 31
0.0
  0
LINE
  5
1AF
330
1E
100
AcDbEntity
  8
0
100
AcDbLine
 10
67.6389
 20
181.92
 30
0.0
 11
70.8207
 21
186.1599999999999
 31
0.0
  0
LINE
  5
1B0
330
1E
100
AcDbEntity
  8
0
100
AcDbLine
 10
68.612
 20
167.6479999999999
 30
0.0
 11
70.24399999999999
 21
163.5679999999999
 31
0.0
  0
LINE
  5
1B1
330
1E
100
AcDbEntity
  8
0
100
AcDbLine
 10
70.24399999999999
 20
163.5679999999999
 30
0.0
 11
72.964
 21
159.9639999999999
 31
0.0
  0
LINE
  5
1B2
330
1E
100
AcDbEntity
  8
0
100
AcDbLine
 10
68.612
 20
176.3519999999999
 30
0.0
 11
70.24399999999999
 21
180.432
 31
0.0
  0
LINE
  5
1B3
330
1E
100
AcDbEntity
  8
0
100
AcDbLine
 10
70.42860000000001
 20
172.0
 30
0.0
 11
70.95310000000001
 21
175.7303
 31
0.0
  0
LINE
  5
1B4
330
1E
100
AcDbEntity
  8
0
100
AcDbLine
 10
70.42860000000001
 20
172.0
 30
0.0
 11
70.95310000000001
 21
168.2697
 31
0.0
  0
LINE
  5
1B5
330
1E
100
AcDbEntity
  8
0
100
AcDbLine
 10
68.0
 20
172.0
 30
0.0
 11
68.612
 21
176.3519999999999
 31
0.0
  0
LINE
  5
1B6
330
1E
100
AcDbEntity
  8
0
100
AcDbLine
 10
68.0
 20
172.0
 30
0.0
 11
68.612
 21
167.6479999999999
 31
0.0
  0
LINE
  5
1B7
330
1E
100
AcDbEntity
  8
0
100
AcDbLine
 10
70.24399999999999
 20
180.432
 30
0.0
 11
72.964
 21
184.0359999999999
 31
0.0
  0
LINE
  5
1B8
330
1E
100
AcDbEntity
  8
0
100
AcDbLine
 10
67.64
 20
181.92
 30
0.0
 11
70.84
 21
186.1599999999999
 31
0.0
  0
LINE
  5
1B9
330
1E
100
AcDbEntity
  8
0
100
AcDbLine
 10
70.8207
 20
186.1599999999999
 30
0.0
 11
75.0713
 21
189.36
 31
0.0
  0
LINE
  5
1BA
330
1E
100
AcDbEntity
  8
0
100
AcDbLine
 10
65.69580000000001
 20
166.88
 30
0.0
 11
67.6389
 21
162.08
 31
0.0
  0
LINE
  5
1BB
330
1E
100
AcDbEntity
  8
0
100
AcDbLine
 10
67.6389
 20
162.08
 30
0.0
 11
70.8207
 21
157.84
 31
0.0
  0
LINE
  5
1BC
330
1E
100
AcDbEntity
  8
0
100
AcDbLine
 10
76.568
 20
157.244
 30
0.0
 11
80.64799999999999
 21
155.6119999999999
 31
0.0
  0
LINE
  5
1BD
330
1E
100
AcDbEntity
  8
0
100
AcDbLine
 10
72.964
 20
159.9639999999999
 30
0.0
 11
76.568
 21
157.244
 31
0.0
  0
LINE
  5
1BE
330
1E
100
AcDbEntity
  8
0
100
AcDbLine
 10
72.352
 20
164.7726
 30
0.0
 11
74.68340000000001
 21
161.6834
 31
0.0
  0
LINE
  5
1BF
330
1E
100
AcDbEntity
  8
0
100
AcDbLine
 10
74.68340000000001
 20
161.6834
 30
0.0
 11
77.7726
 21
159.352
 31
0.0
  0
LINE
  5
1C0
330
1E
100
AcDbEntity
  8
0
100
AcDbLine
 10
70.95310000000001
 20
168.2697
 30
0.0
 11
72.352
 21
164.7726
 31
0.0
  0
LINE
  5
1C1
330
1E
100
AcDbEntity
  8
0
100
AcDbLine
 10
72.964
 20
184.0359999999999
 30
0.0
 11
76.568
 21
186.7559999999999
 31
0.0
  0
LINE
  5
1C2
330
1E
100
AcDbEntity
  8
0
100
AcDbLine
 10
72.352
 20
179.2273999999999
 30
0.0
 11
74.68340000000001
 21
182.3166
 31
0.0
  0
LINE
  5
1C3
330
1E
100
AcDbEntity
  8
0
100
AcDbLine
 10
70.95310000000001
 20
175.7303
 30
0.0
 11
72.352
 21
179.2273999999999
 31
0.0
  0
LINE
  5
1C4
330
1E
100
AcDbEntity
  8
0
100
AcDbLine
 10
74.68340000000001
 20
182.3166
 30
0.0
 11
77.7726
 21
184.6479999999999
 31
0.0
  0
LINE
  5
1C5
330
1E
100
AcDbEntity
  8
0
100
AcDbLine
 10
70.84
 20
186.1599999999999
 30
0.0
 11
75.08
 21
189.36
 31
0.0
  0
LINE
  5
1C6
330
1E
100
AcDbEntity
  8
0
100
AcDbLine
 10
70.84
 20
186.1599999999999
 30
0.0
 11
75.08
 21
189.36
 31
0.0
  0
LINE
  5
1C7
330
1E
100
AcDbEntity
  8
0
100
AcDbLine
 10
77.7726
 20
159.352
 30
0.0
 11
81.2697
 21
157.9531
 31
0.0
  0
LINE
  5
1C8
330
1E
100
AcDbEntity
  8
0
100
AcDbLine
 10
76.568
 20
186.7559999999999
 30
0.0
 11
80.64799999999999
 21
188.3879999999999
 31
0.0
  0
LINE
  5
1C9
330
1E
100
AcDbEntity
  8
0
100
AcDbLine
 10
75.08
 20
189.36
 30
0.0
 11
79.87999999999999
 21
191.28
 31
0.0
  0
LINE
  5
1CA
330
1E
100
AcDbEntity
  8
0
100
AcDbLine
 10
77.7726
 20
184.6479999999999
 30
0.0
 11
81.2697
 21
186.047
 31
0.0
  0
LINE
  5
1CB
330
1E
100
AcDbEntity
  8
0
100
AcDbLine
 10
75.0713
 20
189.36
 30
0.0
 11
79.8561
 21
191.28
 31
0.0
  0
LINE
  5
1CC
330
1E
100
AcDbEntity
  8
0
100
AcDbLine
 10
75.08
 20
189.36
 30
0.0
 11
79.87999999999999
 21
191.28
 31
0.0
  0
LINE
  5
1CD
330
1E
100
AcDbEntity
  8
0
100
AcDbLine
 10
79.8561
 20
191.28
 30
0.0
 11
85.0
 21
192.0
 31
0.0
  0
LINE
  5
1CE
330
1E
100
AcDbEntity
  8
0
100
AcDbLine
 10
70.84
 20
157.84
 30
0.0
 11
75.08
 21
154.64
 31
0.0
  0
LINE
  5
1CF
330
1E
100
AcDbEntity
  8
0
100
AcDbLine
 10
70.8207
 20
157.84
 30
0.0
 11
75.0713
 21
154.64
 31
0.0
  0
LINE
  5
1D0
330
1E
100
AcDbEntity
  8
0
100
AcDbLine
 10
75.0713
 20
154.64
 30
0.0
 11
79.8561
 21
152.72
 31
0.0
  0
LINE
  5
1D1
330
1E
100
AcDbEntity
  8
0
100
AcDbLine
 10
83.11139999999999
 20
121.0
 30
0.0
 11
84.0714
 21
121.0
 31
0.0
  0
LINE
  5
1D2
330
1E
100
AcDbEntity
  8
0
100
AcDbLine
 10
82.2634
 20
121.0
 30
0.0
 11
83.11139999999999
 21
121.0
 31
0.0
  0
LINE
  5
1D3
330
1E
100
AcDbEntity
  8
0
100
AcDbLine
 10
81.6234
 20
121.0
 30
0.0
 11
82.2634
 21
121.0
 31
0.0
  0
LINE
  5
1D4
330
1E
100
AcDbEntity
  8
0
100
AcDbLine
 10
81.23940000000001
 20
121.0
 30
0.0
 11
81.6234
 21
121.0
 31
0.0
  0
LINE
  5
1D5
330
1E
100
AcDbEntity
  8
0
100
AcDbLine
 10
81.0954
 20
121.0
 30
0.0
 11
81.23940000000001
 21
121.0
 31
0.0
  0
LINE
  5
1D6
330
1E
100
AcDbEntity
  8
0
100
AcDbLine
 10
84.0714
 20
121.0
 30
0.0
 11
85.09539999999999
 21
121.0
 31
0.0
  0
LINE
  5
1D7
330
1E
100
AcDbEntity
  8
0
100
AcDbLine
 10
84.0
 20
121.0
 30
0.0
 11
86.0
 21
121.0
 31
0.0
  0
LINE
  5
1D8
330
1E
100
AcDbEntity
  8
0
100
AcDbLine
 10
80.64799999999999
 20
155.6119999999999
 30
0.0
 11
85.0
 21
155.0
 31
0.0
  0
LINE
  5
1D9
330
1E
100
AcDbEntity
  8
0
100
AcDbLine
 10
79.87999999999999
 20
152.72
 30
0.0
 11
85.0
 21
152.0
 31
0.0
  0
LINE
  5
1DA
330
1E
100
AcDbEntity
  8
0
100
AcDbLine
 10
81.2697
 20
186.047
 30
0.0
 11
85.0
 21
186.5709999999999
 31
0.0
  0
LINE
  5
1DB
330
1E
100
AcDbEntity
  8
0
100
AcDbLine
 10
80.64799999999999
 20
188.3879999999999
 30
0.0
 11
85.0
 21
189.0
 31
0.0
  0
LINE
  5
1DC
330
1E
100
AcDbEntity
  8
0
100
AcDbLine
 10
85.0
 20
155.0
 30
0.0
 11
89.352
 21
155.6119999999999
 31
0.0
  0
LINE
  5
1DD
330
1E
100
AcDbEntity
  8
0
100
AcDbLine
 10
85.0
 20
189.0
 30
0.0
 11
89.352
 21
188.3879999999999
 31
0.0
  0
LINE
  5
1DE
330
1E
100
AcDbEntity
  8
0
100
AcDbLine
 10
85.0
 20
186.5709999999999
 30
0.0
 11
88.73029999999999
 21
186.047
 31
0.0
  0
LINE
  5
1DF
330
1E
100
AcDbEntity
  8
0
100
AcDbLine
 10
85.0
 20
157.4285999999999
 30
0.0
 11
88.73029999999999
 21
157.9531
 31
0.0
  0
LINE
  5
1E0
330
1E
100
AcDbEntity
  8
0
100
AcDbLine
 10
81.2697
 20
157.9531
 30
0.0
 11
85.0
 21
157.4285999999999
 31
0.0
  0
LINE
  5
1E1
330
1E
100
AcDbEntity
  8
0
100
AcDbLine
 10
85.0
 20
121.0
 30
0.0
 11
93.31599999999999
 21
121.0
 31
0.0
  0
LINE
  5
1E2
330
1E
100
AcDbEntity
  8
0
100
AcDbLine
 10
85.09539999999999
 20
121.0
 30
0.0
 11
86.1194
 21
121.0
 31
0.0
  0
LINE
  5
1E3
330
1E
100
AcDbEntity
  8
0
100
AcDbLine
 10
86.1194
 20
121.0
 30
0.0
 11
87.0794
 21
121.0
 31
0.0
  0
LINE
  5
1E4
330
1E
100
AcDbEntity
  8
0
100
AcDbLine
 10
87.0794
 20
121.0
 30
0.0
 11
87.9274
 21
121.0
 31
0.0
  0
LINE
  5
1E5
330
1E
100
AcDbEntity
  8
0
100
AcDbLine
 10
87.9274
 20
121.0
 30
0.0
 11
88.5674
 21
121.0
 31
0.0
  0
LINE
  5
1E6
330
1E
100
AcDbEntity
  8
0
100
AcDbLine
 10
88.5674
 20
121.0
 30
0.0
 11
88.95140000000001
 21
121.0
 31
0.0
  0
LINE
  5
1E7
330
1E
100
AcDbEntity
  8
0
100
AcDbLine
 10
88.95140000000001
 20
121.0
 30
0.0
 11
89.09539999999999
 21
121.0
 31
0.0
  0
LINE
  5
1E8
330
1E
100
AcDbEntity
  8
0
100
AcDbLine
 10
104.516
 20
121.0
 30
0.0
 11
106.584
 21
121.0
 31
0.0
  0
LINE
  5
1E9
330
1E
100
AcDbEntity
  8
0
100
AcDbLine
 10
104.516
 20
121.0
 30
0.0
 11
106.4756999999999
 21
121.0
 31
0.0
  0
LINE
  5
1EA
330
1E
100
AcDbEntity
  8
0
100
AcDbLine
 10
106.584
 20
121.0
 30
0.0
 11
108.4461
 21
121.0
 31
0.0
  0
LINE
  5
1EB
330
1E
100
AcDbEntity
  8
0
100
AcDbLine
 10
106.4756999999999
 20
121.0
 30
0.0
 11
108.4461
 21
121.0
 31
0.0
  0
LINE
  5
1EC
330
1E
100
AcDbEntity
  8
0
100
AcDbLine
 10
107.8259999999999
 20
121.0
 30
0.0
 11
108.85
 21
121.0
 31
0.0
  0
LINE
  5
1ED
330
1E
100
AcDbEntity
  8
0
100
AcDbLine
 10
106.8659999999999
 20
121.0
 30
0.0
 11
107.8259999999999
 21
121.0
 31
0.0
  0
LINE
  5
1EE
330
1E
100
AcDbEntity
  8
0
100
AcDbLine
 10
106.0179999999999
 20
121.0
 30
0.0
 11
106.8659999999999
 21
121.0
 31
0.0
  0
LINE
  5
1EF
330
1E
100
AcDbEntity
  8
0
100
AcDbLine
 10
105.3779999999999
 20
121.0
 30
0.0
 11
106.0179999999999
 21
121.0
 31
0.0
  0
LINE
  5
1F0
330
1E
100
AcDbEntity
  8
0
100
AcDbLine
 10
104.994
 20
121.0
 30
0.0
 11
105.3779999999999
 21
121.0
 31
0.0
  0
LINE
  5
1F1
330
1E
100
AcDbEntity
  8
0
100
AcDbLine
 10
104.8499999999999
 20
121.0
 30
0.0
 11
104.994
 21
121.0
 31
0.0
  0
LINE
  5
1F2
330
1E
100
AcDbEntity
  8
0
100
AcDbLine
 10
108.85
 20
121.0
 30
0.0
 11
109.874
 21
121.0
 31
0.0
  0
LINE
  5
1F3
330
1E
100
AcDbEntity
  8
0
100
AcDbLine
 10
109.874
 20
121.0
 30
0.0
 11
110.834
 21
121.0
 31
0.0
  0
LINE
  5
1F4
330
1E
100
AcDbEntity
  8
0
100
AcDbLine
 10
111.17
 20
121.0
 30
0.0
 11
112.4279999999999
 21
121.0
 31
0.0
  0
LINE
  5
1F5
330
1E
100
AcDbEntity
  8
0
100
AcDbLine
 10
111.17
 20
121.0
 30
0.0
 11
120.161
 21
121.0
 31
0.0
  0
LINE
  5
1F6
330
1E
100
AcDbEntity
  8
0
100
AcDbLine
 10
110.834
 20
121.0
 30
0.0
 11
111.682
 21
121.0
 31
0.0
  0
LINE
  5
1F7
330
1E
100
AcDbEntity
  8
0
100
AcDbLine
 10
111.682
 20
121.0
 30
0.0
 11
112.322
 21
121.0
 31
0.0
  0
LINE
  5
1F8
330
1E
100
AcDbEntity
  8
0
100
AcDbLine
 10
112.4279999999999
 20
121.0
 30
0.0
 11
122.858
 21
121.0
 31
0.0
  0
LINE
  5
1F9
330
1E
100
AcDbEntity
  8
0
100
AcDbLine
 10
112.322
 20
121.0
 30
0.0
 11
112.7059999999999
 21
121.0
 31
0.0
  0
LINE
  5
1FA
330
1E
100
AcDbEntity
  8
0
100
AcDbLine
 10
112.7059999999999
 20
121.0
 30
0.0
 11
112.85
 21
121.0
 31
0.0
  0
LINE
  5
1FB
330
1E
100
AcDbEntity
  8
0
100
AcDbLine
 10
109.6999999999999
 20
121.0
 30
0.0
 11
158.4999999999999
 21
121.0
 31
0.0
  0
LINE
  5
1FC
330
1E
100
AcDbEntity
  8
0
100
AcDbLine
 10
109.6999999999999
 20
121.0
 30
0.0
 11
110.4999999999999
 21
121.0
 31
0.0
  0
LINE
  5
1FD
330
1E
100
AcDbEntity
  8
0
100
AcDbLine
 10
110.4999999999999
 20
121.0
 30
0.0
 11
160.4999999999999
 21
121.0
 31
0.0
  0
LINE
  5
1FE
330
1E
100
AcDbEntity
  8
0
100
AcDbLine
 10
110.4999999999999
 20
121.0
 30
0.0
 11
110.4999999999999
 21
125.0
 31
0.0
  0
LINE
  5
1FF
330
1E
100
AcDbEntity
  8
0
100
AcDbLine
 10
128.917
 20
121.0
 30
0.0
 11
129.7649999999999
 21
121.0
 31
0.0
  0
LINE
  5
200
330
1E
100
AcDbEntity
  8
0
100
AcDbLine
 10
128.277
 20
121.0
 30
0.0
 11
128.917
 21
121.0
 31
0.0
  0
LINE
  5
201
330
1E
100
AcDbEntity
  8
0
100
AcDbLine
 10
127.8929999999999
 20
121.0
 30
0.0
 11
128.277
 21
121.0
 31
0.0
  0
LINE
  5
202
330
1E
100
AcDbEntity
  8
0
100
AcDbLine
 10
127.749
 20
121.0
 30
0.0
 11
127.8929999999999
 21
121.0
 31
0.0
  0
LINE
  5
203
330
1E
100
AcDbEntity
  8
0
100
AcDbLine
 10
120.161
 20
121.0
 30
0.0
 11
122.858
 21
121.0
 31
0.0
  0
LINE
  5
204
330
1E
100
AcDbEntity
  8
0
100
AcDbLine
 10
123.304
 20
121.0
 30
0.0
 11
129.352
 21
121.0
 31
0.0
  0
LINE
  5
205
330
1E
100
AcDbEntity
  8
0
100
AcDbLine
 10
116.2479999999999
 20
121.0
 30
0.0
 11
123.304
 21
121.0
 31
0.0
  0
LINE
  5
206
330
1E
100
AcDbEntity
  8
0
100
AcDbLine
 10
108.9399999999999
 20
121.0
 30
0.0
 11
116.2479999999999
 21
121.0
 31
0.0
  0
LINE
  5
207
330
1E
100
AcDbEntity
  8
0
100
AcDbLine
 10
101.1279999999999
 20
121.0
 30
0.0
 11
108.9399999999999
 21
121.0
 31
0.0
  0
LINE
  5
208
330
1E
100
AcDbEntity
  8
0
100
AcDbLine
 10
93.31599999999999
 20
121.0
 30
0.0
 11
101.1279999999999
 21
121.0
 31
0.0
  0
LINE
  5
209
330
1E
100
AcDbEntity
  8
0
100
AcDbLine
 10
130.725
 20
121.0
 30
0.0
 11
131.749
 21
121.0
 31
0.0
  0
LINE
  5
20A
330
1E
100
AcDbEntity
  8
0
100
AcDbLine
 10
129.7649999999999
 20
121.0
 30
0.0
 11
130.725
 21
121.0
 31
0.0
  0
LINE
  5
20B
330
1E
100
AcDbEntity
  8
0
100
AcDbLine
 10
131.749
 20
121.0
 30
0.0
 11
132.773
 21
121.0
 31
0.0
  0
LINE
  5
20C
330
1E
100
AcDbEntity
  8
0
100
AcDbLine
 10
132.773
 20
121.0
 30
0.0
 11
133.733
 21
121.0
 31
0.0
  0
LINE
  5
20D
330
1E
100
AcDbEntity
  8
0
100
AcDbLine
 10
135.186
 20
121.0
 30
0.0
 11
156.3039999999999
 21
121.0
 31
0.0
  0
LINE
  5
20E
330
1E
100
AcDbEntity
  8
0
100
AcDbLine
 10
133.8379999999999
 20
121.0
 30
0.0
 11
157.5629999999999
 21
121.0
 31
0.0
  0
LINE
  5
20F
330
1E
100
AcDbEntity
  8
0
100
AcDbLine
 10
133.8379999999999
 20
121.0
 30
0.0
 11
135.186
 21
121.0
 31
0.0
  0
LINE
  5
210
330
1E
100
AcDbEntity
  8
0
100
AcDbLine
 10
133.733
 20
121.0
 30
0.0
 11
134.581
 21
121.0
 31
0.0
  0
LINE
  5
211
330
1E
100
AcDbEntity
  8
0
100
AcDbLine
 10
134.581
 20
121.0
 30
0.0
 11
135.221
 21
121.0
 31
0.0
  0
LINE
  5
212
330
1E
100
AcDbEntity
  8
0
100
AcDbLine
 10
135.221
 20
121.0
 30
0.0
 11
135.6049999999999
 21
121.0
 31
0.0
  0
LINE
  5
213
330
1E
100
AcDbEntity
  8
0
100
AcDbLine
 10
135.6049999999999
 20
121.0
 30
0.0
 11
135.749
 21
121.0
 31
0.0
  0
LINE
  5
214
330
1E
100
AcDbEntity
  8
0
100
AcDbLine
 10
129.352
 20
121.0
 30
0.0
 11
134.896
 21
121.0
 31
0.0
  0
LINE
  5
215
330
1E
100
AcDbEntity
  8
0
100
AcDbLine
 10
134.896
 20
121.0
 30
0.0
 11
139.684
 21
121.0
 31
0.0
  0
LINE
  5
216
330
1E
100
AcDbEntity
  8
0
100
AcDbLine
 10
143.454
 20
121.0
 30
0.0
 11
154.1579999999999
 21
121.0
 31
0.0
  0
LINE
  5
217
330
1E
100
AcDbEntity
  8
0
100
AcDbLine
 10
142.645
 20
121.0
 30
0.0
 11
153.8149999999999
 21
121.0
 31
0.0
  0
LINE
  5
218
330
1E
100
AcDbEntity
  8
0
100
AcDbLine
 10
142.645
 20
121.0
 30
0.0
 11
143.454
 21
121.0
 31
0.0
  0
LINE
  5
219
330
1E
100
AcDbEntity
  8
0
100
AcDbLine
 10
139.684
 20
121.0
 30
0.0
 11
142.96
 21
121.0
 31
0.0
  0
LINE
  5
21A
330
1E
100
AcDbEntity
  8
0
100
AcDbLine
 10
90.12
 20
152.72
 30
0.0
 11
94.92
 21
154.64
 31
0.0
  0
LINE
  5
21B
330
1E
100
AcDbEntity
  8
0
100
AcDbLine
 10
110.4999999999999
 20
125.0
 30
0.0
 11
110.4999999999999
 21
121.0
 31
0.0
  0
LINE
  5
21C
330
1E
100
AcDbEntity
  8
0
100
AcDbLine
 10
110.4999999999999
 20
125.0
 30
0.0
 11
160.4999999999999
 21
125.0
 31
0.0
  0
LINE
  5
21D
330
1E
100
AcDbEntity
  8
0
100
AcDbLine
 10
142.96
 20
121.0
 30
0.0
 11
145.7319999999999
 21
121.0
 31
0.0
  0
LINE
  5
21E
330
1E
100
AcDbEntity
  8
0
100
AcDbLine
 10
145.7319999999999
 20
121.0
 30
0.0
 11
147.2439999999999
 21
121.0
 31
0.0
  0
LINE
  5
21F
330
1E
100
AcDbEntity
  8
0
100
AcDbLine
 10
146.8899999999999
 20
121.0
 30
0.0
 11
147.034
 21
121.0
 31
0.0
  0
LINE
  5
220
330
1E
100
AcDbEntity
  8
0
100
AcDbLine
 10
147.034
 20
121.0
 30
0.0
 11
147.418
 21
121.0
 31
0.0
  0
LINE
  5
221
330
1E
100
AcDbEntity
  8
0
100
AcDbLine
 10
147.418
 20
121.0
 30
0.0
 11
148.0579999999999
 21
121.0
 31
0.0
  0
LINE
  5
222
330
1E
100
AcDbEntity
  8
0
100
AcDbLine
 10
148.0579999999999
 20
121.0
 30
0.0
 11
148.906
 21
121.0
 31
0.0
  0
LINE
  5
223
330
1E
100
AcDbEntity
  8
0
100
AcDbLine
 10
148.906
 20
121.0
 30
0.0
 11
149.866
 21
121.0
 31
0.0
  0
LINE
  5
224
330
1E
100
AcDbEntity
  8
0
100
AcDbLine
 10
149.866
 20
121.0
 30
0.0
 11
150.8899999999999
 21
121.0
 31
0.0
  0
LINE
  5
225
330
1E
100
AcDbEntity
  8
0
100
AcDbLine
 10
151.9139999999999
 20
121.0
 30
0.0
 11
152.8739999999999
 21
121.0
 31
0.0
  0
LINE
  5
226
330
1E
100
AcDbEntity
  8
0
100
AcDbLine
 10
150.8899999999999
 20
121.0
 30
0.0
 11
151.9139999999999
 21
121.0
 31
0.0
  0
LINE
  5
227
330
1E
100
AcDbEntity
  8
0
100
AcDbLine
 10
152.8739999999999
 20
121.0
 30
0.0
 11
153.722
 21
121.0
 31
0.0
  0
LINE
  5
228
330
1E
100
AcDbEntity
  8
0
100
AcDbLine
 10
152.5
 20
121.0
 30
0.0
 11
152.644
 21
121.0
 31
0.0
  0
LINE
  5
229
330
1E
100
AcDbEntity
  8
0
100
AcDbLine
 10
152.644
 20
121.0
 30
0.0
 11
153.0279999999999
 21
121.0
 31
0.0
  0
LINE
  5
22A
330
1E
100
AcDbEntity
  8
0
100
AcDbLine
 10
154.4999999999999
 20
121.0
 30
0.0
 11
159.4999999999999
 21
121.0
 31
0.0
  0
LINE
  5
22B
330
1E
100
AcDbEntity
  8
0
100
AcDbLine
 10
154.3619999999999
 20
121.0
 30
0.0
 11
154.746
 21
121.0
 31
0.0
  0
LINE
  5
22C
330
1E
100
AcDbEntity
  8
0
100
AcDbLine
 10
153.722
 20
121.0
 30
0.0
 11
154.3619999999999
 21
121.0
 31
0.0
  0
LINE
  5
22D
330
1E
100
AcDbEntity
  8
0
100
AcDbLine
 10
153.8149999999999
 20
121.0
 30
0.0
 11
154.1579999999999
 21
121.0
 31
0.0
  0
LINE
  5
22E
330
1E
100
AcDbEntity
  8
0
100
AcDbLine
 10
153.0279999999999
 20
121.0
 30
0.0
 11
153.668
 21
121.0
 31
0.0
  0
LINE
  5
22F
330
1E
100
AcDbEntity
  8
0
100
AcDbLine
 10
153.668
 20
121.0
 30
0.0
 11
154.5159999999999
 21
121.0
 31
0.0
  0
LINE
  5
230
330
1E
100
AcDbEntity
  8
0
100
AcDbLine
 10
154.746
 20
121.0
 30
0.0
 11
154.8899999999999
 21
121.0
 31
0.0
  0
LINE
  5
231
330
1E
100
AcDbEntity
  8
0
100
AcDbLine
 10
156.3039999999999
 20
121.0
 30
0.0
 11
157.5629999999999
 21
121.0
 31
0.0
  0
LINE
  5
232
330
1E
100
AcDbEntity
  8
0
100
AcDbLine
 10
154.5159999999999
 20
121.0
 30
0.0
 11
155.4759999999999
 21
121.0
 31
0.0
  0
LINE
  5
233
330
1E
100
AcDbEntity
  8
0
100
AcDbLine
 10
155.4759999999999
 20
121.0
 30
0.0
 11
156.4999999999999
 21
121.0
 31
0.0
  0
LINE
  5
234
330
1E
100
AcDbEntity
  8
0
100
AcDbLine
 10
158.4839999999999
 20
121.0
 30
0.0
 11
159.332
 21
121.0
 31
0.0
  0
LINE
  5
235
330
1E
100
AcDbEntity
  8
0
100
AcDbLine
 10
157.5239999999999
 20
121.0
 30
0.0
 11
158.4839999999999
 21
121.0
 31
0.0
  0
LINE
  5
236
330
1E
100
AcDbEntity
  8
0
100
AcDbLine
 10
156.4999999999999
 20
121.0
 30
0.0
 11
157.5239999999999
 21
121.0
 31
0.0
  0
LINE
  5
237
330
1E
100
AcDbEntity
  8
0
100
AcDbLine
 10
160.3559999999999
 20
121.0
 30
0.0
 11
160.4999999999999
 21
121.0
 31
0.0
  0
LINE
  5
238
330
1E
100
AcDbEntity
  8
0
100
AcDbLine
 10
159.972
 20
121.0
 30
0.0
 11
160.3559999999999
 21
121.0
 31
0.0
  0
LINE
  5
239
330
1E
100
AcDbEntity
  8
0
100
AcDbLine
 10
159.332
 20
121.0
 30
0.0
 11
159.972
 21
121.0
 31
0.0
  0
LINE
  5
23A
330
1E
100
AcDbEntity
  8
0
100
AcDbLine
 10
160.4999999999999
 20
121.0
 30
0.0
 11
160.4999999999999
 21
125.0
 31
0.0
  0
LINE
  5
23B
330
1E
100
AcDbEntity
  8
0
100
AcDbLine
 10
158.4999999999999
 20
121.0
 30
0.0
 11
160.4999999999999
 21
121.0
 31
0.0
  0
LINE
  5
23C
330
1E
100
AcDbEntity
  8
0
100
AcDbLine
 10
160.4999999999999
 20
125.0
 30
0.0
 11
160.4999999999999
 21
121.0
 31
0.0
  0
LINE
  5
23D
330
1E
100
AcDbEntity
  8
0
100
AcDbLine
 10
147.2439999999999
 20
121.0
 30
0.0
 11
148.0
 21
121.0
 31
0.0
  0
LINE
  5
23E
330
1E
100
AcDbEntity
  8
0
100
AcDbLine
 10
146.0
 20
121.0
 30
0.0
 11
146.0
 21
86.0
 31
0.0
  0
LINE
  5
23F
330
1E
100
AcDbEntity
  8
0
100
AcDbLine
 10
146.0
 20
121.0
 30
0.0
 11
147.2439999999999
 21
121.0
 31
0.0
  0
LINE
  5
240
330
1E
100
AcDbEntity
  8
0
100
AcDbLine
 10
146.0
 20
121.0
 30
0.0
 11
160.4999999999999
 21
121.0
 31
0.0
  0
LINE
  5
241
330
1E
100
AcDbEntity
  8
0
100
AcDbLine
 10
146.0
 20
121.0
 30
0.0
 11
158.4999999999999
 21
121.0
 31
0.0
  0
LINE
  5
242
330
1E
100
AcDbEntity
  8
0
100
AcDbLine
 10
146.0
 20
121.0
 30
0.0
 11
153.8149999999999
 21
121.0
 31
0.0
  0
LINE
  5
243
330
1E
100
AcDbEntity
  8
0
100
AcDbLine
 10
146.0
 20
121.0
 30
0.0
 11
154.1579999999999
 21
121.0
 31
0.0
  0
LINE
  5
244
330
1E
100
AcDbEntity
  8
0
100
AcDbLine
 10
146.0
 20
121.0
 30
0.0
 11
157.5629999999999
 21
121.0
 31
0.0
  0
LINE
  5
245
330
1E
100
AcDbEntity
  8
0
100
AcDbLine
 10
146.0
 20
121.0
 30
0.0
 11
156.3039999999999
 21
121.0
 31
0.0
  0
LINE
  5
246
330
1E
100
AcDbEntity
  8
0
100
AcDbLine
 10
146.0
 20
152.0
 30
0.0
 11
148.0
 21
152.0
 31
0.0
  0
LINE
  5
247
330
1E
100
AcDbEntity
  8
0
100
AcDbLine
 10
146.0
 20
152.72
 30
0.0
 11
146.0
 21
154.64
 31
0.0
  0
LINE
  5
248
330
1E
100
AcDbEntity
  8
0
100
AcDbLine
 10
146.0
 20
152.72
 30
0.0
 11
146.0
 21
152.0
 31
0.0
  0
LINE
  5
249
330
1E
100
AcDbEntity
  8
0
100
AcDbLine
 10
148.0
 20
152.72
 30
0.0
 11
148.0
 21
154.64
 31
0.0
  0
LINE
  5
24A
330
1E
100
AcDbEntity
  8
0
100
AcDbLine
 10
148.0
 20
152.72
 30
0.0
 11
148.0
 21
152.0
 31
0.0
  0
LINE
  5
24B
330
1E
100
AcDbEntity
  8
0
100
AcDbLine
 10
148.0
 20
152.0
 30
0.0
 11
148.0
 21
152.72
 31
0.0
  0
LINE
  5
24C
330
1E
100
AcDbEntity
  8
0
100
AcDbLine
 10
146.0
 20
152.0
 30
0.0
 11
146.0
 21
125.0
 31
0.0
  0
LINE
  5
24D
330
1E
100
AcDbEntity
  8
0
100
AcDbLine
 10
146.0
 20
152.0
 30
0.0
 11
146.0
 21
152.72
 31
0.0
  0
LINE
  5
24E
330
1E
100
AcDbEntity
  8
0
100
AcDbLine
 10
146.0
 20
125.0
 30
0.0
 11
146.0
 21
152.0
 31
0.0
  0
LINE
  5
24F
330
1E
100
AcDbEntity
  8
0
100
AcDbLine
 10
145.5929999999999
 20
152.72
 30
0.0
 11
146.0
 21
152.0
 31
0.0
  0
LINE
  5
250
330
1E
100
AcDbEntity
  8
0
100
AcDbLine
 10
88.73029999999999
 20
186.047
 30
0.0
 11
92.22739999999999
 21
184.6479999999999
 31
0.0
  0
LINE
  5
251
330
1E
100
AcDbEntity
  8
0
100
AcDbLine
 10
94.92
 20
154.64
 30
0.0
 11
99.16
 21
157.84
 31
0.0
  0
LINE
  5
252
330
1E
100
AcDbEntity
  8
0
100
AcDbLine
 10
92.22739999999999
 20
184.6479999999999
 30
0.0
 11
95.3166
 21
182.3166
 31
0.0
  0
LINE
  5
253
330
1E
100
AcDbEntity
  8
0
100
AcDbLine
 10
89.352
 20
188.3879999999999
 30
0.0
 11
93.43200000000001
 21
186.7559999999999
 31
0.0
  0
LINE
  5
254
330
1E
100
AcDbEntity
  8
0
100
AcDbLine
 10
94.92
 20
189.36
 30
0.0
 11
99.16
 21
186.1599999999999
 31
0.0
  0
LINE
  5
255
330
1E
100
AcDbEntity
  8
0
100
AcDbLine
 10
93.43200000000001
 20
186.7559999999999
 30
0.0
 11
97.03600000000001
 21
184.0359999999999
 31
0.0
  0
LINE
  5
256
330
1E
100
AcDbEntity
  8
0
100
AcDbLine
 10
93.43200000000001
 20
157.244
 30
0.0
 11
97.03600000000001
 21
159.9639999999999
 31
0.0
  0
LINE
  5
257
330
1E
100
AcDbEntity
  8
0
100
AcDbLine
 10
92.22739999999999
 20
159.352
 30
0.0
 11
95.3166
 21
161.6834
 31
0.0
  0
LINE
  5
258
330
1E
100
AcDbEntity
  8
0
100
AcDbLine
 10
89.352
 20
155.6119999999999
 30
0.0
 11
93.43200000000001
 21
157.244
 31
0.0
  0
LINE
  5
259
330
1E
100
AcDbEntity
  8
0
100
AcDbLine
 10
88.73029999999999
 20
157.9531
 30
0.0
 11
92.22739999999999
 21
159.352
 31
0.0
  0
LINE
  5
25A
330
1E
100
AcDbEntity
  8
0
100
AcDbLine
 10
90.12
 20
191.28
 30
0.0
 11
94.92
 21
189.36
 31
0.0
  0
LINE
  5
25B
330
1E
100
AcDbEntity
  8
0
100
AcDbLine
 10
90.12
 20
191.28
 30
0.0
 11
94.92
 21
189.36
 31
0.0
  0
LINE
  5
25C
330
1E
100
AcDbEntity
  8
0
100
AcDbLine
 10
94.92870000000001
 20
189.36
 30
0.0
 11
99.1793
 21
186.1599999999999
 31
0.0
  0
LINE
  5
25D
330
1E
100
AcDbEntity
  8
0
100
AcDbLine
 10
90.1439
 20
191.28
 30
0.0
 11
94.92870000000001
 21
189.36
 31
0.0
  0
LINE
  5
25E
330
1E
100
AcDbEntity
  8
0
100
AcDbLine
 10
99.16
 20
157.84
 30
0.0
 11
102.36
 21
162.08
 31
0.0
  0
LINE
  5
25F
330
1E
100
AcDbEntity
  8
0
100
AcDbLine
 10
144.11
 20
157.84
 30
0.0
 11
144.912
 21
154.64
 31
0.0
  0
LINE
  5
260
330
1E
100
AcDbEntity
  8
0
100
AcDbLine
 10
148.0
 20
154.64
 30
0.0
 11
148.0
 21
157.84
 31
0.0
  0
LINE
  5
261
330
1E
100
AcDbEntity
  8
0
100
AcDbLine
 10
148.0
 20
154.64
 30
0.0
 11
148.0
 21
152.72
 31
0.0
  0
LINE
  5
262
330
1E
100
AcDbEntity
  8
0
100
AcDbLine
 10
148.0
 20
157.84
 30
0.0
 11
148.0
 21
162.08
 31
0.0
  0
LINE
  5
263
330
1E
100
AcDbEntity
  8
0
100
AcDbLine
 10
148.0
 20
157.84
 30
0.0
 11
148.0
 21
154.64
 31
0.0
  0
LINE
  5
264
330
1E
100
AcDbEntity
  8
0
100
AcDbLine
 10
146.0
 20
157.84
 30
0.0
 11
146.0
 21
162.08
 31
0.0
  0
LINE
  5
265
330
1E
100
AcDbEntity
  8
0
100
AcDbLine
 10
146.0
 20
157.84
 30
0.0
 11
146.0
 21
154.64
 31
0.0
  0
LINE
  5
266
330
1E
100
AcDbEntity
  8
0
100
AcDbLine
 10
146.0
 20
154.64
 30
0.0
 11
146.0
 21
157.84
 31
0.0
  0
LINE
  5
267
330
1E
100
AcDbEntity
  8
0
100
AcDbLine
 10
146.0
 20
154.64
 30
0.0
 11
146.0
 21
152.72
 31
0.0
  0
LINE
  5
268
330
1E
100
AcDbEntity
  8
0
100
AcDbLine
 10
144.912
 20
154.64
 30
0.0
 11
145.5929999999999
 21
152.72
 31
0.0
  0
LINE
  5
269
330
1E
100
AcDbEntity
  8
0
100
AcDbLine
 10
99.756
 20
163.5679999999999
 30
0.0
 11
101.3879999999999
 21
167.6479999999999
 31
0.0
  0
LINE
  5
26A
330
1E
100
AcDbEntity
  8
0
100
AcDbLine
 10
97.03600000000001
 20
159.9639999999999
 30
0.0
 11
99.756
 21
163.5679999999999
 31
0.0
  0
LINE
  5
26B
330
1E
100
AcDbEntity
  8
0
100
AcDbLine
 10
99.0469
 20
175.7303
 30
0.0
 11
99.5714
 21
172.0
 31
0.0
  0
LINE
  5
26C
330
1E
100
AcDbEntity
  8
0
100
AcDbLine
 10
97.64800000000001
 20
179.2273999999999
 30
0.0
 11
99.0469
 21
175.7303
 31
0.0
  0
LINE
  5
26D
330
1E
100
AcDbEntity
  8
0
100
AcDbLine
 10
101.3879999999999
 20
167.6479999999999
 30
0.0
 11
102.0
 21
172.0
 31
0.0
  0
LINE
  5
26E
330
1E
100
AcDbEntity
  8
0
100
AcDbLine
 10
101.3879999999999
 20
176.3519999999999
 30
0.0
 11
102.0
 21
172.0
 31
0.0
  0
LINE
  5
26F
330
1E
100
AcDbEntity
  8
0
100
AcDbLine
 10
99.756
 20
180.432
 30
0.0
 11
101.3879999999999
 21
176.3519999999999
 31
0.0
  0
LINE
  5
270
330
1E
100
AcDbEntity
  8
0
100
AcDbLine
 10
99.0469
 20
168.2697
 30
0.0
 11
99.5714
 21
172.0
 31
0.0
  0
LINE
  5
271
330
1E
100
AcDbEntity
  8
0
100
AcDbLine
 10
97.64800000000001
 20
164.7726
 30
0.0
 11
99.0469
 21
168.2697
 31
0.0
  0
LINE
  5
272
330
1E
100
AcDbEntity
  8
0
100
AcDbLine
 10
95.3166
 20
161.6834
 30
0.0
 11
97.64800000000001
 21
164.7726
 31
0.0
  0
LINE
  5
273
330
1E
100
AcDbEntity
  8
0
100
AcDbLine
 10
102.36
 20
162.08
 30
0.0
 11
104.2799999999999
 21
166.88
 31
0.0
  0
LINE
  5
274
330
1E
100
AcDbEntity
  8
0
100
AcDbLine
 10
102.36
 20
162.08
 30
0.0
 11
104.2799999999999
 21
166.88
 31
0.0
  0
LINE
  5
275
330
1E
100
AcDbEntity
  8
0
100
AcDbLine
 10
99.16
 20
186.1599999999999
 30
0.0
 11
102.36
 21
181.92
 31
0.0
  0
LINE
  5
276
330
1E
100
AcDbEntity
  8
0
100
AcDbLine
 10
97.03600000000001
 20
184.0359999999999
 30
0.0
 11
99.756
 21
180.432
 31
0.0
  0
LINE
  5
277
330
1E
100
AcDbEntity
  8
0
100
AcDbLine
 10
95.3166
 20
182.3166
 30
0.0
 11
97.64800000000001
 21
179.2273999999999
 31
0.0
  0
LINE
  5
278
330
1E
100
AcDbEntity
  8
0
100
AcDbLine
 10
102.36
 20
181.92
 30
0.0
 11
104.2799999999999
 21
177.12
 31
0.0
  0
LINE
  5
279
330
1E
100
AcDbEntity
  8
0
100
AcDbLine
 10
102.3611
 20
181.92
 30
0.0
 11
104.3042
 21
177.12
 31
0.0
  0
LINE
  5
27A
330
1E
100
AcDbEntity
  8
0
100
AcDbLine
 10
99.1793
 20
186.1599999999999
 30
0.0
 11
102.3611
 21
181.92
 31
0.0
  0
LINE
  5
27B
330
1E
100
AcDbEntity
  8
0
100
AcDbLine
 10
104.2799999999999
 20
166.88
 30
0.0
 11
105.0
 21
172.0
 31
0.0
  0
LINE
  5
27C
330
1E
100
AcDbEntity
  8
0
100
AcDbLine
 10
142.6039999999999
 20
166.88
 30
0.0
 11
143.2599999999999
 21
162.08
 31
0.0
  0
LINE
  5
27D
330
1E
100
AcDbEntity
  8
0
100
AcDbLine
 10
148.0
 20
162.08
 30
0.0
 11
148.0
 21
166.88
 31
0.0
  0
LINE
  5
27E
330
1E
100
AcDbEntity
  8
0
100
AcDbLine
 10
148.0
 20
162.08
 30
0.0
 11
148.0
 21
157.84
 31
0.0
  0
LINE
  5
27F
330
1E
100
AcDbEntity
  8
0
100
AcDbLine
 10
148.0
 20
166.88
 30
0.0
 11
148.0
 21
172.0
 31
0.0
  0
LINE
  5
280
330
1E
100
AcDbEntity
  8
0
100
AcDbLine
 10
148.0
 20
166.88
 30
0.0
 11
148.0
 21
162.08
 31
0.0
  0
LINE
  5
281
330
1E
100
AcDbEntity
  8
0
100
AcDbLine
 10
146.0
 20
166.88
 30
0.0
 11
146.0
 21
172.0
 31
0.0
  0
LINE
  5
282
330
1E
100
AcDbEntity
  8
0
100
AcDbLine
 10
146.0
 20
166.88
 30
0.0
 11
146.0
 21
162.08
 31
0.0
  0
LINE
  5
283
330
1E
100
AcDbEntity
  8
0
100
AcDbLine
 10
146.0
 20
162.08
 30
0.0
 11
146.0
 21
166.88
 31
0.0
  0
LINE
  5
284
330
1E
100
AcDbEntity
  8
0
100
AcDbLine
 10
146.0
 20
162.08
 30
0.0
 11
146.0
 21
157.84
 31
0.0
  0
LINE
  5
285
330
1E
100
AcDbEntity
  8
0
100
AcDbLine
 10
143.2599999999999
 20
162.08
 30
0.0
 11
144.11
 21
157.84
 31
0.0
  0
LINE
  5
286
330
1E
100
AcDbEntity
  8
0
100
AcDbLine
 10
104.2799999999999
 20
177.12
 30
0.0
 11
105.0
 21
172.0
 31
0.0
  0
LINE
  5
287
330
1E
100
AcDbEntity
  8
0
100
AcDbLine
 10
148.0
 20
172.0
 30
0.0
 11
148.0
 21
166.88
 31
0.0
  0
LINE
  5
288
330
1E
100
AcDbEntity
  8
0
100
AcDbLine
 10
148.0
 20
172.0
 30
0.0
 11
148.0
 21
177.12
 31
0.0
  0
LINE
  5
289
330
1E
100
AcDbEntity
  8
0
100
AcDbLine
 10
146.0
 20
172.0
 30
0.0
 11
146.0
 21
177.12
 31
0.0
  0
LINE
  5
28A
330
1E
100
AcDbEntity
  8
0
100
AcDbLine
 10
146.0
 20
172.0
 30
0.0
 11
146.0
 21
166.88
 31
0.0
  0
LINE
  5
28B
330
1E
100
AcDbEntity
  8
0
100
AcDbLine
 10
142.6039999999999
 20
177.12
 30
0.0
 11
143.2599999999999
 21
181.92
 31
0.0
  0
LINE
  5
2AC
330
1E
100
AcDbEntity
  8
0
100
AcDbLine
 10
143.2599999999999
 20
181.92
 30
0.0
 11
144.11
 21
186.1599999999999
 31
0.0
  0
LINE
  5
2AF
330
1E
100
AcDbEntity
  8
0
100
AcDbLine
 10
144.5929999999999
 20
188.087182044888
 30
0.0
 11
144.912
 21
189.36
 31
0.0
  0
LINE
  5
2B0
330
1E
100
AcDbEntity
  8
0
100
AcDbLine
 10
144.11
 20
186.1599999999999
 30
0.0
 11
144.5929999999999
 21
188.087182044888
 31
0.0
  0
LINE
  5
2B1
330
1E
100
AcDbEntity
  8
0
100
AcDbLine
 10
144.912
 20
189.36
 30
0.0
 11
145.5929999999999
 21
191.28
 31
0.0
  0
LINE
  5
2B2
330
1E
100
AcDbEntity
  8
0
100
AcDbLine
 10
146.0
 20
181.92
 30
0.0
 11
146.0
 21
177.12
 31
0.0
  0
LINE
  5
2B3
330
1E
100
AcDbEntity
  8
0
100
AcDbLine
 10
146.0
 20
177.12
 30
0.0
 11
146.0
 21
181.92
 31
0.0
  0
LINE
  5
2B4
330
1E
100
AcDbEntity
  8
0
100
AcDbLine
 10
146.0
 20
177.12
 30
0.0
 11
146.0
 21
172.0
 31
0.0
  0
LINE
  5
2B5
330
1E
100
AcDbEntity
  8
0
100
AcDbLine
 10
146.0
 20
181.92
 30
0.0
 11
146.0
 21
186.1599999999999
 31
0.0
  0
LINE
  5
2B6
330
1E
100
AcDbEntity
  8
0
100
AcDbLine
 10
146.0
 20
191.28
 30
0.0
 11
146.0
 21
189.36
 31
0.0
  0
LINE
  5
2B7
330
1E
100
AcDbEntity
  8
0
100
AcDbLine
 10
146.0
 20
186.1599999999999
 30
0.0
 11
146.0
 21
189.36
 31
0.0
  0
LINE
  5
2B8
330
1E
100
AcDbEntity
  8
0
100
AcDbLine
 10
146.0
 20
186.1599999999999
 30
0.0
 11
146.0
 21
181.92
 31
0.0
  0
LINE
  5
2B9
330
1E
100
AcDbEntity
  8
0
100
AcDbLine
 10
148.0
 20
177.12
 30
0.0
 11
148.0
 21
172.0
 31
0.0
  0
LINE
  5
2BA
330
1E
100
AcDbEntity
  8
0
100
AcDbLine
 10
148.0
 20
177.12
 30
0.0
 11
148.0
 21
181.92
 31
0.0
  0
LINE
  5
2BB
330
1E
100
AcDbEntity
  8
0
100
AcDbLine
 10
148.0
 20
181.92
 30
0.0
 11
148.0
 21
177.12
 31
0.0
  0
LINE
  5
2BC
330
1E
100
AcDbEntity
  8
0
100
AcDbLine
 10
148.0
 20
181.92
 30
0.0
 11
148.0
 21
186.1599999999999
 31
0.0
  0
LINE
  5
2BD
330
1E
100
AcDbEntity
  8
0
100
AcDbLine
 10
148.0
 20
186.1599999999999
 30
0.0
 11
148.0
 21
181.92
 31
0.0
  0
LINE
  5
2BE
330
1E
100
AcDbEntity
  8
0
100
AcDbLine
 10
148.0
 20
186.1599999999999
 30
0.0
 11
148.0
 21
189.36
 31
0.0
  0
LINE
  5
2BF
330
1E
100
AcDbEntity
  8
0
100
AcDbLine
 10
148.0
 20
189.36
 30
0.0
 11
148.0
 21
186.1599999999999
 31
0.0
  0
LINE
  5
2C0
330
1E
100
AcDbEntity
  8
0
100
AcDbLine
 10
148.0
 20
189.36
 30
0.0
 11
148.0
 21
191.28
 31
0.0
  0
LINE
  5
2C1
330
1E
100
AcDbEntity
  8
0
100
AcDbLine
 10
148.0
 20
191.28
 30
0.0
 11
148.0
 21
189.36
 31
0.0
  0
LINE
  5
2C2
330
1E
100
AcDbEntity
  8
0
100
AcDbLine
 10
148.0
 20
191.28
 30
0.0
 11
148.0
 21
192.0
 31
0.0
  0
LINE
  5
2C3
330
1E
100
AcDbEntity
  8
0
100
AcDbLine
 10
146.0
 20
189.36
 30
0.0
 11
146.0
 21
191.28
 31
0.0
  0
LINE
  5
2C4
330
1E
100
AcDbEntity
  8
0
100
AcDbLine
 10
146.0
 20
189.36
 30
0.0
 11
146.0
 21
186.1599999999999
 31
0.0
  0
LINE
  5
2C5
330
1E
100
AcDbEntity
  8
0
100
AcDbLine
 10
146.0
 20
191.28
 30
0.0
 11
146.0
 21
192.0
 31
0.0
  0
LINE
  5
2C6
330
1E
100
AcDbEntity
  8
0
100
AcDbLine
 10
145.5929999999999
 20
191.28
 30
0.0
 11
146.0
 21
192.0
 31
0.0
  0
LINE
  5
2C7
330
1E
100
AcDbEntity
  8
0
100
AcDbLine
 10
142.3499999999999
 20
172.0
 30
0.0
 11
142.6039999999999
 21
166.88
 31
0.0
  0
LINE
  5
2C8
330
1E
100
AcDbEntity
  8
0
100
AcDbLine
 10
142.3499999999999
 20
172.0
 30
0.0
 11
142.6039999999999
 21
177.12
 31
0.0
  0
LINE
  5
2C9
330
1E
100
AcDbEntity
  8
0
100
AcDbLine
 10
104.3042
 20
177.12
 30
0.0
 11
105.0
 21
172.0
 31
0.0
  0
LINE
  5
2CA
330
1E
100
AcDbEntity
  8
0
100
AcDbLine
 10
104.3042
 20
166.88
 30
0.0
 11
105.0
 21
172.0
 31
0.0
  0
LINE
  5
2CB
330
1E
100
AcDbEntity
  8
0
100
AcDbLine
 10
102.3611
 20
162.08
 30
0.0
 11
104.3042
 21
166.88
 31
0.0
  0
LINE
  5
2CC
330
1E
100
AcDbEntity
  8
0
100
AcDbLine
 10
99.1793
 20
157.84
 30
0.0
 11
102.3611
 21
162.08
 31
0.0
  0
LINE
  5
2CD
330
1E
100
AcDbEntity
  8
0
100
AcDbLine
 10
94.92870000000001
 20
154.64
 30
0.0
 11
99.1793
 21
157.84
 31
0.0
  0
LINE
  5
2CE
330
1E
100
AcDbEntity
  8
0
100
AcDbLine
 10
90.1439
 20
152.72
 30
0.0
 11
94.92870000000001
 21
154.64
 31
0.0
  0
LINE
  5
2CF
330
1E
100
AcDbEntity
  8
0
100
AcDbLine
 10
85.0
 20
152.0
 30
0.0
 11
90.1439
 21
152.72
 31
0.0
  0
LINE
  5
2D0
330
1E
100
AcDbEntity
  8
0
100
AcDbLine
 10
85.0
 20
152.0
 30
0.0
 11
90.12
 21
152.72
 31
0.0
  0
LINE
  5
2D1
330
1E
100
AcDbEntity
  8
0
100
AcDbLine
 10
79.87999999999999
 20
191.28
 30
0.0
 11
85.0
 21
192.0
 31
0.0
  0
LINE
  5
2D2
330
1E
100
AcDbEntity
  8
0
100
AcDbLine
 10
79.87999999999999
 20
191.28
 30
0.0
 11
85.0
 21
192.0
 31
0.0
  0
LINE
  5
2D3
330
1E
100
AcDbEntity
  8
0
100
AcDbLine
 10
79.8561
 20
152.72
 30
0.0
 11
85.0
 21
152.0
 31
0.0
  0
LINE
  5
2D4
330
1E
100
AcDbEntity
  8
0
100
AcDbLine
 10
32.4067
 20
194.0
 30
0.0
 11
34.1987
 21
194.0
 31
0.0
  0
LINE
  5
2D5
330
1E
100
AcDbEntity
  8
0
100
AcDbLine
 10
34.1987
 20
194.0
 30
0.0
 11
35.8787
 21
194.0
 31
0.0
  0
LINE
  5
2D6
330
1E
100
AcDbEntity
  8
0
100
AcDbLine
 10
35.8787
 20
194.0
 30
0.0
 11
37.36269999999999
 21
194.0
 31
0.0
  0
LINE
  5
2D7
330
1E
100
AcDbEntity
  8
0
100
AcDbLine
 10
37.36269999999999
 20
194.0
 30
0.0
 11
38.4827
 21
194.0
 31
0.0
  0
LINE
  5
2D8
330
1E
100
AcDbEntity
  8
0
100
AcDbLine
 10
30.61469999999999
 20
194.0
 30
0.0
 11
32.4067
 21
194.0
 31
0.0
  0
LINE
  5
2D9
330
1E
100
AcDbEntity
  8
0
100
AcDbLine
 10
28.9347
 20
194.0
 30
0.0
 11
30.61469999999999
 21
194.0
 31
0.0
  0
LINE
  5
2DA
330
1E
100
AcDbEntity
  8
0
100
AcDbLine
 10
27.4507
 20
194.0
 30
0.0
 11
28.9347
 21
194.0
 31
0.0
  0
LINE
  5
2DB
330
1E
100
AcDbEntity
  8
0
100
AcDbLine
 10
26.3307
 20
194.0
 30
0.0
 11
27.4507
 21
194.0
 31
0.0
  0
LINE
  5
2DC
330
1E
100
AcDbEntity
  8
0
100
AcDbLine
 10
25.6587
 20
194.0
 30
0.0
 11
26.3307
 21
194.0
 31
0.0
  0
LINE
  5
2DE
330
1E
100
AcDbEntity
  8
0
100
AcDbLine
 10
25.4067
 20
194.0
 30
0.0
 11
25.6587
 21
194.0
 31
0.0
  0
LINE
  5
2DF
330
1E
100
AcDbEntity
  8
0
100
AcDbLine
 10
38.4827
 20
194.0
 30
0.0
 11
54.4105
 21
194.0
 31
0.0
  0
LINE
  5
2E0
330
1E
100
AcDbEntity
  8
0
100
AcDbLine
 10
24.6421
 20
194.0
 30
0.0
 11
25.4067
 21
194.0
 31
0.0
  0
LINE
  5
2E1
330
1E
100
AcDbEntity
  8
0
100
AcDbLine
 10
54.4105
 20
194.0
 30
0.0
 11
54.62839999999999
 21
194.0
 31
0.0
  0
LINE
  5
2E2
330
1E
100
AcDbEntity
  8
0
100
AcDbLine
 10
61.6916
 20
194.0
 30
0.0
 11
69.2684
 21
194.0
 31
0.0
  0
LINE
  5
2E3
330
1E
100
AcDbEntity
  8
0
100
AcDbLine
 10
85.0
 20
192.0
 30
0.0
 11
90.12
 21
191.28
 31
0.0
  0
LINE
  5
2E4
330
1E
100
AcDbEntity
  8
0
100
AcDbLine
 10
100.7316
 20
194.0
 30
0.0
 11
108.3084
 21
194.0
 31
0.0
  0
LINE
  5
2E5
330
1E
100
AcDbEntity
  8
0
100
AcDbLine
 10
92.9621
 20
194.0
 30
0.0
 11
100.7316
 21
194.0
 31
0.0
  0
LINE
  5
2E6
330
1E
100
AcDbEntity
  8
0
100
AcDbLine
 10
85.0
 20
194.0
 30
0.0
 11
92.9621
 21
194.0
 31
0.0
  0
LINE
  5
2E7
330
1E
100
AcDbEntity
  8
0
100
AcDbLine
 10
85.0
 20
192.0
 30
0.0
 11
90.1439
 21
191.28
 31
0.0
  0
LINE
  5
2E8
330
1E
100
AcDbEntity
  8
0
100
AcDbLine
 10
85.0
 20
192.0
 30
0.0
 11
90.12
 21
191.28
 31
0.0
  0
LINE
  5
2E9
330
1E
100
AcDbEntity
  8
0
100
AcDbLine
 10
148.0
 20
192.0
 30
0.0
 11
148.0
 21
191.28
 31
0.0
  0
LINE
  5
2EA
330
1E
100
AcDbEntity
  8
0
100
AcDbLine
 10
115.59
 20
194.0
 30
0.0
 11
131.5169999999999
 21
194.0
 31
0.0
  0
LINE
  5
2EB
330
1E
100
AcDbEntity
  8
0
100
AcDbLine
 10
135.801
 20
194.0
 30
0.0
 11
137.5929999999999
 21
194.0
 31
0.0
  0
LINE
  5
2EC
330
1E
100
AcDbEntity
  8
0
100
AcDbLine
 10
134.121
 20
194.0
 30
0.0
 11
135.801
 21
194.0
 31
0.0
  0
LINE
  5
2ED
330
1E
100
AcDbEntity
  8
0
100
AcDbLine
 10
132.637
 20
194.0
 30
0.0
 11
134.121
 21
194.0
 31
0.0
  0
LINE
  5
2EE
330
1E
100
AcDbEntity
  8
0
100
AcDbLine
 10
131.5169999999999
 20
194.0
 30
0.0
 11
132.637
 21
194.0
 31
0.0
  0
LINE
  5
2EF
330
1E
100
AcDbEntity
  8
0
100
AcDbLine
 10
137.5929999999999
 20
194.0
 30
0.0
 11
139.385
 21
194.0
 31
0.0
  0
LINE
  5
2F0
330
1E
100
AcDbEntity
  8
0
100
AcDbLine
 10
139.385
 20
194.0
 30
0.0
 11
141.0649999999999
 21
194.0
 31
0.0
  0
LINE
  5
2F1
330
1E
100
AcDbEntity
  8
0
100
AcDbLine
 10
141.0649999999999
 20
194.0
 30
0.0
 11
142.549
 21
194.0
 31
0.0
  0
LINE
  5
2F2
330
1E
100
AcDbEntity
  8
0
100
AcDbLine
 10
142.549
 20
194.0
 30
0.0
 11
143.6689999999999
 21
194.0
 31
0.0
  0
LINE
  5
2F3
330
1E
100
AcDbEntity
  8
0
100
AcDbLine
 10
143.6689999999999
 20
194.0
 30
0.0
 11
144.341
 21
194.0
 31
0.0
  0
LINE
  5
2F4
330
1E
100
AcDbEntity
  8
0
100
AcDbLine
 10
144.341
 20
194.0
 30
0.0
 11
144.5929999999999
 21
194.0
 31
0.0
  0
LINE
  5
2F5
330
1E
100
AcDbEntity
  8
0
100
AcDbLine
 10
144.5929999999999
 20
194.0
 30
0.0
 11
145.358
 21
194.0
 31
0.0
  0
LINE
  5
2F7
330
1E
100
AcDbEntity
  8
0
100
AcDbLine
 10
146.0
 20
194.0
 30
0.0
 11
146.0
 21
192.0
 31
0.0
  0
LINE
  5
2F8
330
1E
100
AcDbEntity
  8
0
100
AcDbLine
 10
145.358
 20
194.0
 30
0.0
 11
146.0
 21
194.0
 31
0.0
  0
LINE
  5
2F9
330
1E
100
AcDbEntity
  8
0
100
AcDbLine
 10
146.0
 20
192.0
 30
0.0
 11
146.0
 21
194.0
 31
0.0
  0
LINE
  5
2FA
330
1E
100
AcDbEntity
  8
0
100
AcDbLine
 10
146.0
 20
192.0
 30
0.0
 11
148.0
 21
192.0
 31
0.0
  0
LINE
  5
2FB
330
1E
100
AcDbEntity
  8
0
100
AcDbLine
 10
146.0
 20
192.0
 30
0.0
 11
146.0
 21
191.28
 31
0.0
  0
LINE
  5
2FC
330
1E
100
AcDbEntity
  8
0
100
AcDbLine
 10
115.372
 20
194.0
 30
0.0
 11
115.59
 21
194.0
 31
0.0
  0
LINE
  5
2FD
330
1E
100
AcDbEntity
  8
0
100
AcDbLine
 10
108.3084
 20
194.0
 30
0.0
 11
115.372
 21
194.0
 31
0.0
  0
LINE
  5
2FE
330
1E
100
AcDbEntity
  8
0
100
AcDbLine
 10
69.2684
 20
194.0
 30
0.0
 11
77.03789999999999
 21
194.0
 31
0.0
  0
LINE
  5
2FF
330
1E
100
AcDbEntity
  8
0
100
AcDbLine
 10
77.03789999999999
 20
194.0
 30
0.0
 11
85.0
 21
194.0
 31
0.0
  0
LINE
  5
300
330
1E
100
AcDbEntity
  8
0
100
AcDbLine
 10
54.62839999999999
 20
194.0
 30
0.0
 11
61.6916
 21
194.0
 31
0.0
  0
LINE
  5
301
330
1E
100
AcDbEntity
  8
0
100
AcDbLine
 10
24.0
 20
125.0
 30
0.0
 11
24.0
 21
152.0
 31
0.0
  0
LINE
  5
302
330
1E
100
AcDbEntity
  8
0
100
AcDbLine
 10
1.6
 20
86.0
 30
0.0
 11
3.5
 21
86.0
 31
0.0
  0
LINE
  5
303
330
1E
100
AcDbEntity
  8
0
100
AcDbLine
 10
0.4000000000000011
 20
86.0
 30
0.0
 11
1.6
 21
86.0
 31
0.0
  0
LINE
  5
304
330
1E
100
AcDbEntity
  8
0
100
AcDbLine
 10
0.3000000000000011
 20
74.29999999999999
 30
0.0
 11
0.7411040000000011
 21
74.29999999999999
 31
0.0
  0
LINE
  5
305
330
1E
100
AcDbEntity
  8
0
100
AcDbLine
 10
0.3000000000000011
 20
74.29999999999999
 30
0.0
 11
1.0
 21
74.0
 31
0.0
  0
LINE
  5
306
330
1E
100
AcDbEntity
  8
0
100
AcDbLine
 10
0.0000000000000012
 20
75.0
 30
0.0
 11
0.3000000000000011
 21
74.29999999999999
 31
0.0
  0
LINE
  5
307
330
1E
100
AcDbEntity
  8
0
100
AcDbLine
 10
0.0000000000000012
 20
75.0
 30
0.0
 11
0.0000000000000012
 21
86.0
 31
0.0
  0
LINE
  5
30C
330
1E
100
AcDbEntity
  8
0
100
AcDbLine
 10
170.0
 20
75.0
 30
0.0
 11
169.6999999999999
 21
74.29999999999999
 31
0.0
  0
ENDSEC
  0
SECTION
  2
OBJECTS
  0
DICTIONARY
  5
C
330
0
100
AcDbDictionary
281
     1
  3
ACAD_GROUP
350
D
  3
ACAD_LAYOUT
350
19
  3
ACAD_MLINESTYLE
350
16
  3
ACAD_PLOTSETTINGS
350
18
  3
ACAD_PLOTSTYLENAME
350
E
  3
AcDbVariableDictionary
350
30D
  0
DICTIONARY
  5
D
102
{ACAD_REACTORS
330
C
102
}
330
C
100
AcDbDictionary
281
     1
  0
DICTIONARY
  5
19
102
{ACAD_REACTORS
330
C
102
}
330
C
100
AcDbDictionary
281
     1
  3
Layout1
350
1D
  3
Model
350
21
  0
DICTIONARY
  5
16
102
{ACAD_REACTORS
330
C
102
}
330
C
100
AcDbDictionary
281
     1
  3
Standard
350
17
  0
DICTIONARY
  5
18
102
{ACAD_REACTORS
330
C
102
}
330
C
100
AcDbDictionary
281
     1
  0
ACDBDICTIONARYWDFLT
  5
E
102
{ACAD_REACTORS
330
C
102
}
330
C
100
AcDbDictionary
281
     1
  3
Normal
350
F
100
AcDbDictionaryWithDefault
340
F
  0
DICTIONARY
  5
30D
102
{ACAD_REACTORS
330
C
102
}
330
C
100
AcDbDictionary
281
     1
  3
DIMASSOC
350
30E
  0
LAYOUT
  5
1D
102
{ACAD_REACTORS
330
19
102
}
330
19
100
AcDbPlotSettings
  1

  2
hp deskjet 980c series
  4

  6

 40
0.0
 41
0.0
 42
0.0
 43
0.0
 44
0.0
 45
0.0
 46
0.0
 47
0.0
 48
0.0
 49
0.0
140
0.0
141
0.0
142
1.0
143
1.0
 70
   688
 72
     0
 73
     0
 74
     5
  7

 75
    16
147
1.0
148
0.0
149
0.0
100
AcDbLayout
  1
Layout1
 70
     1
 71
     1
 10
0.0
 20
0.0
 11
12.0
 21
9.0
 12
0.0
 22
0.0
 32
0.0
 14
1.000000000000000E+20
 24
1.000000000000000E+20
 34
1.000000000000000E+20
 15
-1.000000000000000E+20
 25
-1.000000000000000E+20
 35
-1.000000000000000E+20
146
0.0
 13
0.0
 23
0.0
 33
0.0
 16
1.0
 26
0.0
 36
0.0
 17
0.0
 27
1.0
 37
0.0
 76
     0
330
1A
  0
LAYOUT
  5
21
102
{ACAD_REACTORS
330
19
102
}
330
19
100
AcDbPlotSettings
  1

  2
hp deskjet 980c series
  4

  6

 40
0.0
 41
0.0
 42
0.0
 43
0.0
 44
0.0
 45
0.0
 46
0.0
 47
0.0
 48
0.0
 49
0.0
140
0.0
141
0.0
142
1.0
143
1.0
 70
  1712
 72
     0
 73
     0
 74
     0
  7

 75
     0
147
1.0
148
0.0
149
0.0
100
AcDbLayout
  1
Model
 70
     1
 71
     0
 10
0.0
 20
0.0
 11
12.0
 21
9.0
 12
0.0
 22
0.0
 32
0.0
 14
0.0
 24
0.0
 34
0.0
 15
0.0
 25
0.0
 35
0.0
146
0.0
 13
0.0
 23
0.0
 33
0.0
 16
1.0
 26
0.0
 36
0.0
 17
0.0
 27
1.0
 37
0.0
 76
     0
330
1E
  0
MLINESTYLE
  5
17
102
{ACAD_REACTORS
330
16
102
}
330
16
100
AcDbMlineStyle
  2
STANDARD
 70
     0
  3

 62
   256
 51
90.0
 52
90.0
 71
     2
 49
0.5
 62
   256
  6
BYLAYER
 49
-0.5
 62
   256
  6
BYLAYER
  0
ACDBPLACEHOLDER
  5
F
102
{ACAD_REACTORS
330
E
102
}
330
E
  0
DICTIONARYVAR
  5
30E
102
{ACAD_REACTORS
330
30D
102
}
330
30D
100
DictionaryVariables
280
     0
  1
1
  0
ENDSEC
  0
EOF
