  0
SECTION
  2
HEADER
  9
$ACADVER
  1
AC1015
  9
$ACADMAINTVER
 70
    13
  9
$DWGCODEPAGE
  3
ANSI_1252
  9
$INSBASE
 10
0.0
 20
0.0
 30
0.0
  9
$EXTMIN
 10
0.0000000000000101
 20
0.000000000000016
 30
0.0
  9
$EXTMAX
 10
194.0
 20
170.0
 30
0.0
  9
$LIMMIN
 10
0.0
 20
0.0
  9
$LIMMAX
 10
12.0
 20
9.0
  9
$ORTHOMODE
 70
     0
  9
$REGENMODE
 70
     1
  9
$FILLMODE
 70
     1
  9
$QTEXTMODE
 70
     0
  9
$MIRRTEXT
 70
     1
  9
$LTSCALE
 40
1.0
  9
$ATTMODE
 70
     1
  9
$TEXTSIZE
 40
0.2
  9
$TRACEWID
 40
0.05
  9
$TEXTSTYLE
  7
Standard
  9
$CLAYER
  8
0
  9
$CELTYPE
  6
Continuous
  9
$CECOLOR
 62
   256
  9
$CELTSCALE
 40
1.0
  9
$DISPSILH
 70
     0
  9
$DIMSCALE
 40
1.0
  9
$DIMASZ
 40
0.18
  9
$DIMEXO
 40
0.0625
  9
$DIMDLI
 40
0.38
  9
$DIMRND
 40
0.0
  9
$DIMDLE
 40
0.0
  9
$DIMEXE
 40
0.18
  9
$DIMTP
 40
0.0
  9
$DIMTM
 40
0.0
  9
$DIMTXT
 40
0.18
  9
$DIMCEN
 40
0.09
  9
$DIMTSZ
 40
0.0
  9
$DIMTOL
 70
     0
  9
$DIMLIM
 70
     0
  9
$DIMTIH
 70
     1
  9
$DIMTOH
 70
     1
  9
$DIMSE1
 70
     0
  9
$DIMSE2
 70
     0
  9
$DIMTAD
 70
     0
  9
$DIMZIN
 70
     0
  9
$DIMBLK
  1

  9
$DIMASO
 70
     1
  9
$DIMSHO
 70
     1
  9
$DIMPOST
  1

  9
$DIMAPOST
  1

  9
$DIMALT
 70
     0
  9
$DIMALTD
 70
     2
  9
$DIMALTF
 40
25.4
  9
$DIMLFAC
 40
1.0
  9
$DIMTOFL
 70
     0
  9
$DIMTVP
 40
0.0
  9
$DIMTIX
 70
     0
  9
$DIMSOXD
 70
     0
  9
$DIMSAH
 70
     0
  9
$DIMBLK1
  1

  9
$DIMBLK2
  1

  9
$DIMSTYLE
  2
Standard
  9
$DIMCLRD
 70
     0
  9
$DIMCLRE
 70
     0
  9
$DIMCLRT
 70
     0
  9
$DIMTFAC
 40
1.0
  9
$DIMGAP
 40
0.09
  9
$DIMJUST
 70
     0
  9
$DIMSD1
 70
     0
  9
$DIMSD2
 70
     0
  9
$DIMTOLJ
 70
     1
  9
$DIMTZIN
 70
     0
  9
$DIMALTZ
 70
     0
  9
$DIMALTTZ
 70
     0
  9
$DIMUPT
 70
     0
  9
$DIMDEC
 70
     4
  9
$DIMTDEC
 70
     4
  9
$DIMALTU
 70
     2
  9
$DIMALTTD
 70
     2
  9
$DIMTXSTY
  7
Standard
  9
$DIMAUNIT
 70
     0
  9
$DIMADEC
 70
     0
  9
$DIMALTRND
 40
0.0
  9
$DIMAZIN
 70
     0
  9
$DIMDSEP
 70
    46
  9
$DIMATFIT
 70
     3
  9
$DIMFRAC
 70
     0
  9
$DIMLDRBLK
  1

  9
$DIMLUNIT
 70
     2
  9
$DIMLWD
 70
    -2
  9
$DIMLWE
 70
    -2
  9
$DIMTMOVE
 70
     0
  9
$LUNITS
 70
     2
  9
$LUPREC
 70
     4
  9
$SKETCHINC
 40
0.1
  9
$FILLETRAD
 40
0.0
  9
$AUNITS
 70
     0
  9
$AUPREC
 70
     0
  9
$MENU
  1
.
  9
$ELEVATION
 40
0.0
  9
$PELEVATION
 40
0.0
  9
$THICKNESS
 40
0.0
  9
$LIMCHECK
 70
     0
  9
$CHAMFERA
 40
0.0
  9
$CHAMFERB
 40
0.0
  9
$CHAMFERC
 40
0.0
  9
$CHAMFERD
 40
0.0
  9
$SKPOLY
 70
     0
  9
$TDCREATE
 40
2454637.805502893
  9
$TDUCREATE
 40
2454637.722169560
  9
$TDUPDATE
 40
2454637.811517801
  9
$TDUUPDATE
 40
2454637.728184467
  9
$TDINDWG
 40
0.0060152662
  9
$TDUSRTIMER
 40
0.0060152662
  9
$USRTIMER
 70
     1
  9
$ANGBASE
 50
0.0
  9
$ANGDIR
 70
     0
  9
$PDMODE
 70
     0
  9
$PDSIZE
 40
0.0
  9
$PLINEWID
 40
0.0
  9
$SPLFRAME
 70
     0
  9
$SPLINETYPE
 70
     6
  9
$SPLINESEGS
 70
     8
  9
$HANDSEED
  5
4F3
  9
$SURFTAB1
 70
     6
  9
$SURFTAB2
 70
     6
  9
$SURFTYPE
 70
     6
  9
$SURFU
 70
     6
  9
$SURFV
 70
     6
  9
$UCSBASE
  2

  9
$UCSNAME
  2

  9
$UCSORG
 10
0.0
 20
0.0
 30
0.0
  9
$UCSXDIR
 10
1.0
 20
0.0
 30
0.0
  9
$UCSYDIR
 10
0.0
 20
1.0
 30
0.0
  9
$UCSORTHOREF
  2

  9
$UCSORTHOVIEW
 70
     1
  9
$UCSORGTOP
 10
0.0
 20
0.0
 30
0.0
  9
$UCSORGBOTTOM
 10
0.0
 20
0.0
 30
0.0
  9
$UCSORGLEFT
 10
0.0
 20
0.0
 30
0.0
  9
$UCSORGRIGHT
 10
0.0
 20
0.0
 30
0.0
  9
$UCSORGFRONT
 10
0.0
 20
0.0
 30
0.0
  9
$UCSORGBACK
 10
0.0
 20
0.0
 30
0.0
  9
$PUCSBASE
  2

  9
$PUCSNAME
  2

  9
$PUCSORG
 10
0.0
 20
0.0
 30
0.0
  9
$PUCSXDIR
 10
1.0
 20
0.0
 30
0.0
  9
$PUCSYDIR
 10
0.0
 20
1.0
 30
0.0
  9
$PUCSORTHOREF
  2

  9
$PUCSORTHOVIEW
 70
     0
  9
$PUCSORGTOP
 10
0.0
 20
0.0
 30
0.0
  9
$PUCSORGBOTTOM
 10
0.0
 20
0.0
 30
0.0
  9
$PUCSORGLEFT
 10
0.0
 20
0.0
 30
0.0
  9
$PUCSORGRIGHT
 10
0.0
 20
0.0
 30
0.0
  9
$PUCSORGFRONT
 10
0.0
 20
0.0
 30
0.0
  9
$PUCSORGBACK
 10
0.0
 20
0.0
 30
0.0
  9
$USERI1
 70
     0
  9
$USERI2
 70
     0
  9
$USERI3
 70
     0
  9
$USERI4
 70
     0
  9
$USERI5
 70
     0
  9
$USERR1
 40
0.0
  9
$USERR2
 40
0.0
  9
$USERR3
 40
0.0
  9
$USERR4
 40
0.0
  9
$USERR5
 40
0.0
  9
$WORLDVIEW
 70
     1
  9
$SHADEDGE
 70
     3
  9
$SHADEDIF
 70
    70
  9
$TILEMODE
 70
     1
  9
$MAXACTVP
 70
    64
  9
$PINSBASE
 10
0.0
 20
0.0
 30
0.0
  9
$PLIMCHECK
 70
     0
  9
$PEXTMIN
 10
1.000000000000000E+20
 20
1.000000000000000E+20
 30
1.000000000000000E+20
  9
$PEXTMAX
 10
-1.000000000000000E+20
 20
-1.000000000000000E+20
 30
-1.000000000000000E+20
  9
$PLIMMIN
 10
0.0
 20
0.0
  9
$PLIMMAX
 10
12.0
 20
9.0
  9
$UNITMODE
 70
     0
  9
$VISRETAIN
 70
     1
  9
$PLINEGEN
 70
     0
  9
$PSLTSCALE
 70
     1
  9
$TREEDEPTH
 70
  3020
  9
$CMLSTYLE
  2
Standard
  9
$CMLJUST
 70
     0
  9
$CMLSCALE
 40
1.0
  9
$PROXYGRAPHICS
 70
     1
  9
$MEASUREMENT
 70
     0
  9
$CELWEIGHT
370
    -1
  9
$ENDCAPS
280
     0
  9
$JOINSTYLE
280
     0
  9
$LWDISPLAY
290
     0
  9
$INSUNITS
 70
     0
  9
$HYPERLINKBASE
  1

  9
$STYLESHEET
  1

  9
$XEDIT
290
     1
  9
$CEPSNTYPE
380
     0
  9
$PSTYLEMODE
290
     1
  9
$FINGERPRINTGUID
  2
{DCB24D51-F455-44D6-AA40-5C8FCB8BD6CB}
  9
$VERSIONGUID
  2
{3154A3EA-61FE-4FD5-8CB0-984F895FB372}
  9
$EXTNAMES
290
     1
  9
$PSVPSCALE
 40
0.0
  9
$OLESTARTUP
290
     0
  0
ENDSEC
  0
SECTION
  2
CLASSES
  0
CLASS
  1
ACDBDICTIONARYWDFLT
  2
AcDbDictionaryWithDefault
  3
AutoCAD 2000
 90
        0
280
     0
281
     0
  0
CLASS
  1
ACDBPLACEHOLDER
  2
AcDbPlaceHolder
  3
AutoCAD 2000
 90
        0
280
     0
281
     0
  0
CLASS
  1
LAYOUT
  2
AcDbLayout
  3
AutoCAD 2000
 90
        0
280
     0
281
     0
  0
CLASS
  1
DICTIONARYVAR
  2
AcDbDictionaryVar
  3
AutoCAD 2000
 90
        0
280
     0
281
     0
  0
ENDSEC
  0
SECTION
  2
TABLES
  0
TABLE
  2
VPORT
  5
8
330
0
100
AcDbSymbolTable
 70
     2
  0
VPORT
  5
4F2
330
8
100
AcDbSymbolTableRecord
100
AcDbViewportTableRecord
  2
*Active
 70
     0
 10
0.0
 20
0.0
 11
1.0
 21
1.0
 12
97.00000000000002
 22
85.0
 13
0.0
 23
0.0
 14
1.0
 24
1.0
 15
0.0
 25
0.0
 16
0.0
 26
0.0
 36
1.0
 17
0.0
 27
0.0
 37
0.0
 40
171.3043478260869
 41
2.043533930857874
 42
50.0
 43
0.0
 44
0.0
 50
0.0
 51
0.0
 71
     0
 72
   100
 73
     1
 74
     3
 75
     0
 76
     0
 77
     0
 78
     0
281
     0
 65
     1
110
0.0
120
0.0
130
0.0
111
1.0
121
0.0
131
0.0
112
0.0
122
1.0
132
0.0
 79
     1
146
0.0
  0
ENDTAB
  0
TABLE
  2
LTYPE
  5
5
330
0
100
AcDbSymbolTable
 70
     1
  0
LTYPE
  5
13
330
5
100
AcDbSymbolTableRecord
100
AcDbLinetypeTableRecord
  2
ByBlock
 70
     0
  3

 72
    65
 73
     0
 40
0.0
  0
LTYPE
  5
14
330
5
100
AcDbSymbolTableRecord
100
AcDbLinetypeTableRecord
  2
ByLayer
 70
     0
  3

 72
    65
 73
     0
 40
0.0
  0
LTYPE
  5
15
330
5
100
AcDbSymbolTableRecord
100
AcDbLinetypeTableRecord
  2
Continuous
 70
     0
  3
Solid line
 72
    65
 73
     0
 40
0.0
  0
ENDTAB
  0
TABLE
  2
LAYER
  5
2
330
0
100
AcDbSymbolTable
 70
     1
  0
LAYER
  5
10
330
2
100
AcDbSymbolTableRecord
100
AcDbLayerTableRecord
  2
0
 70
     0
 62
     7
  6
Continuous
370
    -3
390
F
  0
ENDTAB
  0
TABLE
  2
STYLE
  5
3
330
0
100
AcDbSymbolTable
 70
     1
  0
STYLE
  5
11
330
3
100
AcDbSymbolTableRecord
100
AcDbTextStyleTableRecord
  2
Standard
 70
     0
 40
0.0
 41
1.0
 50
0.0
 71
     0
 42
0.2
  3
txt
  4

  0
ENDTAB
  0
TABLE
  2
VIEW
  5
6
330
0
100
AcDbSymbolTable
 70
     0
  0
ENDTAB
  0
TABLE
  2
UCS
  5
7
330
0
100
AcDbSymbolTable
 70
     0
  0
ENDTAB
  0
TABLE
  2
APPID
  5
9
330
0
100
AcDbSymbolTable
 70
     1
  0
APPID
  5
12
330
9
100
AcDbSymbolTableRecord
100
AcDbRegAppTableRecord
  2
ACAD
 70
     0
  0
ENDTAB
  0
TABLE
  2
DIMSTYLE
  5
A
330
0
100
AcDbSymbolTable
 70
     1
100
AcDbDimStyleTable
 71
     0
  0
DIMSTYLE
105
4E8
330
A
100
AcDbSymbolTableRecord
100
AcDbDimStyleTableRecord
  2
Standard
 70
     0
340
11
  0
ENDTAB
  0
TABLE
  2
BLOCK_RECORD
  5
1
330
0
100
AcDbSymbolTable
 70
     0
  0
BLOCK_RECORD
  5
1E
330
1
100
AcDbSymbolTableRecord
100
AcDbBlockTableRecord
  2
*Model_Space
340
21
  0
BLOCK_RECORD
  5
1A
330
1
100
AcDbSymbolTableRecord
100
AcDbBlockTableRecord
  2
*Paper_Space
340
1D
  0
ENDTAB
  0
ENDSEC
  0
SECTION
  2
BLOCKS
  0
BLOCK
  5
1F
330
1E
100
AcDbEntity
  8
0
100
AcDbBlockBegin
  2
*Model_Space
 70
     0
 10
0.0
 20
0.0
 30
0.0
  3
*Model_Space
  1

  0
ENDBLK
  5
20
330
1E
100
AcDbEntity
  8
0
100
AcDbBlockEnd
  0
BLOCK
  5
1B
330
1A
100
AcDbEntity
 67
     1
  8
0
100
AcDbBlockBegin
  2
*Paper_Space
 70
     0
 10
0.0
 20
0.0
 30
0.0
  3
*Paper_Space
  1

  0
ENDBLK
  5
1C
330
1A
100
AcDbEntity
 67
     1
  8
0
100
AcDbBlockEnd
  0
ENDSEC
  0
SECTION
  2
ENTITIES
  0
LINE
  5
22
330
1E
100
AcDbEntity
  8
0
100
AcDbLine
 10
74.0
 20
2.488450000000019
 30
0.0
 11
74.0
 21
4.20000000000002
 31
0.0
  0
LINE
  5
23
330
1E
100
AcDbEntity
  8
0
100
AcDbLine
 10
74.0
 20
4.20000000000002
 30
0.0
 11
74.0
 21
6.508520000000019
 31
0.0
  0
LINE
  5
24
330
1E
100
AcDbEntity
  8
0
100
AcDbLine
 10
74.0
 20
4.20000000000002
 30
0.0
 11
74.0
 21
2.488450000000019
 31
0.0
  0
LINE
  5
25
330
1E
100
AcDbEntity
  8
0
100
AcDbLine
 10
74.0
 20
2.488450000000019
 30
0.0
 11
74.0
 21
1.000000000000019
 31
0.0
  0
LINE
  5
26
330
1E
100
AcDbEntity
  8
0
100
AcDbLine
 10
74.0
 20
1.000000000000019
 30
0.0
 11
74.29999999999999
 21
0.300000000000017
 31
0.0
  0
LINE
  5
27
330
1E
100
AcDbEntity
  8
0
100
AcDbLine
 10
74.0
 20
1.000000000000019
 30
0.0
 11
74.0
 21
2.488450000000019
 31
0.0
  0
LINE
  5
28
330
1E
100
AcDbEntity
  8
0
100
AcDbLine
 10
74.0
 20
12.0
 30
0.0
 11
74.0
 21
85.0
 31
0.0
  0
LINE
  5
29
330
1E
100
AcDbEntity
  8
0
100
AcDbLine
 10
74.0
 20
13.8
 30
0.0
 11
74.0
 21
17.3
 31
0.0
  0
LINE
  5
2A
330
1E
100
AcDbEntity
  8
0
100
AcDbLine
 10
74.0
 20
12.0
 30
0.0
 11
74.0
 21
9.163060000000019
 31
0.0
  0
LINE
  5
2B
330
1E
100
AcDbEntity
  8
0
100
AcDbLine
 10
74.0
 20
12.0
 30
0.0
 11
74.0
 21
85.0
 31
0.0
  0
LINE
  5
2C
330
1E
100
AcDbEntity
  8
0
100
AcDbLine
 10
74.0
 20
14.69999999999999
 30
0.0
 11
74.0
 21
18.0
 31
0.0
  0
LINE
  5
2D
330
1E
100
AcDbEntity
  8
0
100
AcDbLine
 10
1.50000000000001
 20
21.0
 30
0.0
 11
50.0
 21
21.0
 31
0.0
  0
LINE
  5
2E
330
1E
100
AcDbEntity
  8
0
100
AcDbLine
 10
1.50000000000001
 20
21.0
 30
0.0
 11
1.50000000000001
 21
22.0
 31
0.0
  0
LINE
  5
2F
330
1E
100
AcDbEntity
  8
0
100
AcDbLine
 10
50.0
 20
21.0
 30
0.0
 11
50.0
 21
22.0
 31
0.0
  0
LINE
  5
30
330
1E
100
AcDbEntity
  8
0
100
AcDbLine
 10
0.50000000000001
 20
23.0
 30
0.0
 11
1.000000000000009
 21
21.49999999999999
 31
0.0
  0
LINE
  5
31
330
1E
100
AcDbEntity
  8
0
100
AcDbLine
 10
50.0
 20
22.0
 30
0.0
 11
50.0
 21
24.6
 31
0.0
  0
LINE
  5
32
330
1E
100
AcDbEntity
  8
0
100
AcDbLine
 10
1.50000000000001
 20
22.0
 30
0.0
 11
1.50000000000001
 21
21.0
 31
0.0
  0
LINE
  5
33
330
1E
100
AcDbEntity
  8
0
100
AcDbLine
 10
1.50000000000001
 20
22.0
 30
0.0
 11
1.50000000000001
 21
24.6
 31
0.0
  0
LINE
  5
34
330
1E
100
AcDbEntity
  8
0
100
AcDbLine
 10
1.000000000000009
 20
21.49999999999999
 30
0.0
 11
1.50000000000001
 21
21.0
 31
0.0
  0
LINE
  5
35
330
1E
100
AcDbEntity
  8
0
100
AcDbLine
 10
1.50000000000001
 20
21.0
 30
0.0
 11
50.0
 21
21.0
 31
0.0
  0
LINE
  5
36
330
1E
100
AcDbEntity
  8
0
100
AcDbLine
 10
74.0
 20
18.0
 30
0.0
 11
74.0
 21
14.69999999999999
 31
0.0
  0
LINE
  5
37
330
1E
100
AcDbEntity
  8
0
100
AcDbLine
 10
74.0
 20
23.5
 30
0.0
 11
74.0
 21
24.0
 31
0.0
  0
LINE
  5
38
330
1E
100
AcDbEntity
  8
0
100
AcDbLine
 10
74.0
 20
23.5
 30
0.0
 11
74.0
 21
24.39999999999999
 31
0.0
  0
LINE
  5
39
330
1E
100
AcDbEntity
  8
0
100
AcDbLine
 10
74.0
 20
22.9
 30
0.0
 11
74.0
 21
17.3
 31
0.0
  0
LINE
  5
3A
330
1E
100
AcDbEntity
  8
0
100
AcDbLine
 10
74.0
 20
22.9
 30
0.0
 11
74.0
 21
24.0
 31
0.0
  0
LINE
  5
3B
330
1E
100
AcDbEntity
  8
0
100
AcDbLine
 10
74.0
 20
17.3
 30
0.0
 11
74.0
 21
13.8
 31
0.0
  0
LINE
  5
3C
330
1E
100
AcDbEntity
  8
0
100
AcDbLine
 10
74.0
 20
17.3
 30
0.0
 11
74.0
 21
22.9
 31
0.0
  0
LINE
  5
3D
330
1E
100
AcDbEntity
  8
0
100
AcDbLine
 10
0.0000000000000101
 20
33.0
 30
0.0
 11
0.50000000000001
 21
23.0
 31
0.0
  0
LINE
  5
3E
330
1E
100
AcDbEntity
  8
0
100
AcDbLine
 10
0.0000000000000101
 20
33.0
 30
0.0
 11
0.0000000000000101
 21
33.5
 31
0.0
  0
LINE
  5
3F
330
1E
100
AcDbEntity
  8
0
100
AcDbLine
 10
1.50000000000001
 20
24.6
 30
0.0
 11
1.50000000000001
 21
28.9
 31
0.0
  0
LINE
  5
40
330
1E
100
AcDbEntity
  8
0
100
AcDbLine
 10
50.0
 20
24.6
 30
0.0
 11
50.0
 21
28.9
 31
0.0
  0
LINE
  5
41
330
1E
100
AcDbEntity
  8
0
100
AcDbLine
 10
50.0
 20
28.9
 30
0.0
 11
50.0
 21
34.6
 31
0.0
  0
LINE
  5
42
330
1E
100
AcDbEntity
  8
0
100
AcDbLine
 10
1.50000000000001
 20
28.9
 30
0.0
 11
1.50000000000001
 21
34.6
 31
0.0
  0
LINE
  5
43
330
1E
100
AcDbEntity
  8
0
100
AcDbLine
 10
0.0000000000000102
 20
35.0
 30
0.0
 11
0.0000000000000104
 21
37.4
 31
0.0
  0
LINE
  5
44
330
1E
100
AcDbEntity
  8
0
100
AcDbLine
 10
0.0000000000000101
 20
33.5
 30
0.0
 11
0.0000000000000102
 21
35.0
 31
0.0
  0
LINE
  5
45
330
1E
100
AcDbEntity
  8
0
100
AcDbLine
 10
0.0000000000000104
 20
37.4
 30
0.0
 11
0.0000000000000105
 21
40.4
 31
0.0
  0
LINE
  5
46
330
1E
100
AcDbEntity
  8
0
100
AcDbLine
 10
0.0000000000000105
 20
40.4
 30
0.0
 11
0.0000000000000108
 21
44.1
 31
0.0
  0
LINE
  5
47
330
1E
100
AcDbEntity
  8
0
100
AcDbLine
 10
0.0000000000000115
 20
55.6
 30
0.0
 11
0.0000000000000117
 21
58.6
 31
0.0
  0
LINE
  5
48
330
1E
100
AcDbEntity
  8
0
100
AcDbLine
 10
0.0000000000000113
 20
51.9
 30
0.0
 11
0.0000000000000115
 21
55.6
 31
0.0
  0
LINE
  5
49
330
1E
100
AcDbEntity
  8
0
100
AcDbLine
 10
0.000000000000011
 20
48.0
 30
0.0
 11
0.0000000000000113
 21
51.9
 31
0.0
  0
LINE
  5
4A
330
1E
100
AcDbEntity
  8
0
100
AcDbLine
 10
0.0000000000000117
 20
58.6
 30
0.0
 11
0.0000000000000118
 21
61.0
 31
0.0
  0
LINE
  5
4B
330
1E
100
AcDbEntity
  8
0
100
AcDbLine
 10
0.0000000000000118
 20
61.0
 30
0.0
 11
0.0000000000000119
 21
62.5
 31
0.0
  0
LINE
  5
4C
330
1E
100
AcDbEntity
  8
0
100
AcDbLine
 10
0.0000000000000119
 20
63.0
 30
0.0
 11
0.500000000000013
 21
73.0
 31
0.0
  0
LINE
  5
4D
330
1E
100
AcDbEntity
  8
0
100
AcDbLine
 10
0.0000000000000119
 20
62.5
 30
0.0
 11
0.0000000000000119
 21
63.0
 31
0.0
  0
LINE
  5
4E
330
1E
100
AcDbEntity
  8
0
100
AcDbLine
 10
0.0000000000000108
 20
44.1
 30
0.0
 11
0.000000000000011
 21
48.0
 31
0.0
  0
LINE
  5
4F
330
1E
100
AcDbEntity
  8
0
100
AcDbLine
 10
0.0000000000000119
 20
63.0
 30
0.0
 11
0.500000000000013
 21
73.0
 31
0.0
  0
LINE
  5
50
330
1E
100
AcDbEntity
  8
0
100
AcDbLine
 10
1.50000000000001
 20
34.6
 30
0.0
 11
1.50000000000001
 21
41.1
 31
0.0
  0
LINE
  5
51
330
1E
100
AcDbEntity
  8
0
100
AcDbLine
 10
1.50000000000001
 20
61.4
 30
0.0
 11
1.50000000000001
 21
67.09999999999999
 31
0.0
  0
LINE
  5
52
330
1E
100
AcDbEntity
  8
0
100
AcDbLine
 10
1.50000000000001
 20
54.9
 30
0.0
 11
1.50000000000001
 21
61.4
 31
0.0
  0
LINE
  5
53
330
1E
100
AcDbEntity
  8
0
100
AcDbLine
 10
1.50000000000001
 20
48.0
 30
0.0
 11
1.50000000000001
 21
54.9
 31
0.0
  0
LINE
  5
54
330
1E
100
AcDbEntity
  8
0
100
AcDbLine
 10
1.50000000000001
 20
67.09999999999999
 30
0.0
 11
1.50000000000001
 21
71.4
 31
0.0
  0
LINE
  5
55
330
1E
100
AcDbEntity
  8
0
100
AcDbLine
 10
1.50000000000001
 20
74.0
 30
0.0
 11
1.50000000000001
 21
75.0
 31
0.0
  0
LINE
  5
56
330
1E
100
AcDbEntity
  8
0
100
AcDbLine
 10
1.50000000000001
 20
71.4
 30
0.0
 11
1.50000000000001
 21
74.0
 31
0.0
  0
LINE
  5
57
330
1E
100
AcDbEntity
  8
0
100
AcDbLine
 10
1.50000000000001
 20
41.1
 30
0.0
 11
1.50000000000001
 21
48.0
 31
0.0
  0
LINE
  5
58
330
1E
100
AcDbEntity
  8
0
100
AcDbLine
 10
0.500000000000013
 20
73.0
 30
0.0
 11
1.000000000000009
 21
74.5
 31
0.0
  0
LINE
  5
59
330
1E
100
AcDbEntity
  8
0
100
AcDbLine
 10
1.000000000000009
 20
74.5
 30
0.0
 11
1.50000000000001
 21
75.0
 31
0.0
  0
LINE
  5
5A
330
1E
100
AcDbEntity
  8
0
100
AcDbLine
 10
50.0
 20
61.4
 30
0.0
 11
50.0
 21
67.09999999999999
 31
0.0
  0
LINE
  5
5B
330
1E
100
AcDbEntity
  8
0
100
AcDbLine
 10
50.0
 20
54.9
 30
0.0
 11
50.0
 21
61.4
 31
0.0
  0
LINE
  5
5C
330
1E
100
AcDbEntity
  8
0
100
AcDbLine
 10
50.0
 20
48.0
 30
0.0
 11
50.0
 21
54.9
 31
0.0
  0
LINE
  5
5D
330
1E
100
AcDbEntity
  8
0
100
AcDbLine
 10
50.0
 20
67.09999999999999
 30
0.0
 11
50.0
 21
71.4
 31
0.0
  0
LINE
  5
5E
330
1E
100
AcDbEntity
  8
0
100
AcDbLine
 10
50.0
 20
71.4
 30
0.0
 11
50.0
 21
74.0
 31
0.0
  0
LINE
  5
5F
330
1E
100
AcDbEntity
  8
0
100
AcDbLine
 10
1.500000000000019
 20
75.0
 30
0.0
 11
21.0
 21
75.0
 31
0.0
  0
LINE
  5
60
330
1E
100
AcDbEntity
  8
0
100
AcDbLine
 10
50.0
 20
74.0
 30
0.0
 11
50.0
 21
75.0
 31
0.0
  0
LINE
  5
61
330
1E
100
AcDbEntity
  8
0
100
AcDbLine
 10
50.0
 20
34.6
 30
0.0
 11
50.0
 21
41.1
 31
0.0
  0
LINE
  5
62
330
1E
100
AcDbEntity
  8
0
100
AcDbLine
 10
50.0
 20
41.1
 30
0.0
 11
50.0
 21
48.0
 31
0.0
  0
LINE
  5
63
330
1E
100
AcDbEntity
  8
0
100
AcDbLine
 10
21.0
 20
75.0
 30
0.0
 11
21.0
 21
80.7
 31
0.0
  0
LINE
  5
64
330
1E
100
AcDbEntity
  8
0
100
AcDbLine
 10
50.0
 20
72.0
 30
0.0
 11
74.0
 21
72.0
 31
0.0
  0
LINE
  5
65
330
1E
100
AcDbEntity
  8
0
100
AcDbLine
 10
22.463
 20
80.7
 30
0.0
 11
23.5185
 21
80.7
 31
0.0
  0
LINE
  5
66
330
1E
100
AcDbEntity
  8
0
100
AcDbLine
 10
23.5185
 20
80.7
 30
0.0
 11
24.7222
 21
80.7
 31
0.0
  0
LINE
  5
67
330
1E
100
AcDbEntity
  8
0
100
AcDbLine
 10
29.53699999999999
 20
80.7
 30
0.0
 11
30.3333
 21
80.7
 31
0.0
  0
LINE
  5
68
330
1E
100
AcDbEntity
  8
0
100
AcDbLine
 10
30.3333
 20
80.7
 30
0.0
 11
30.8148
 21
80.7
 31
0.0
  0
LINE
  5
69
330
1E
100
AcDbEntity
  8
0
100
AcDbLine
 10
30.8148
 20
80.7
 30
0.0
 11
31.0
 21
80.7
 31
0.0
  0
LINE
  5
6A
330
1E
100
AcDbEntity
  8
0
100
AcDbLine
 10
31.0
 20
80.7
 30
0.0
 11
31.0
 21
75.0
 31
0.0
  0
LINE
  5
6B
330
1E
100
AcDbEntity
  8
0
100
AcDbLine
 10
28.4815
 20
80.7
 30
0.0
 11
29.53699999999999
 21
80.7
 31
0.0
  0
LINE
  5
6C
330
1E
100
AcDbEntity
  8
0
100
AcDbLine
 10
27.2778
 20
80.7
 30
0.0
 11
28.4815
 21
80.7
 31
0.0
  0
LINE
  5
6D
330
1E
100
AcDbEntity
  8
0
100
AcDbLine
 10
26.0
 20
80.7
 30
0.0
 11
27.2778
 21
80.7
 31
0.0
  0
LINE
  5
6E
330
1E
100
AcDbEntity
  8
0
100
AcDbLine
 10
24.7222
 20
80.7
 30
0.0
 11
26.0
 21
80.7
 31
0.0
  0
LINE
  5
6F
330
1E
100
AcDbEntity
  8
0
100
AcDbLine
 10
30.9074
 20
80.8
 30
0.0
 11
31.0
 21
80.7
 31
0.0
  0
LINE
  5
70
330
1E
100
AcDbEntity
  8
0
100
AcDbLine
 10
21.66669999999999
 20
80.7
 30
0.0
 11
22.463
 21
80.7
 31
0.0
  0
LINE
  5
71
330
1E
100
AcDbEntity
  8
0
100
AcDbLine
 10
21.18519999999999
 20
80.7
 30
0.0
 11
21.66669999999999
 21
80.7
 31
0.0
  0
LINE
  5
72
330
1E
100
AcDbEntity
  8
0
100
AcDbLine
 10
28.6852
 20
81.0
 30
0.0
 11
28.77779999999999
 21
81.0
 31
0.0
  0
LINE
  5
73
330
1E
100
AcDbEntity
  8
0
100
AcDbLine
 10
28.77779999999999
 20
81.0
 30
0.0
 11
30.6296
 21
80.90000000000001
 31
0.0
  0
LINE
  5
74
330
1E
100
AcDbEntity
  8
0
100
AcDbLine
 10
30.6296
 20
80.90000000000001
 30
0.0
 11
30.9074
 21
80.8
 31
0.0
  0
LINE
  5
75
330
1E
100
AcDbEntity
  8
0
100
AcDbLine
 10
33.0
 20
116.7999999999999
 30
0.0
 11
33.0
 21
117.7999999999999
 31
0.0
  0
LINE
  5
76
330
1E
100
AcDbEntity
  8
0
100
AcDbLine
 10
33.0
 20
116.7999999999999
 30
0.0
 11
33.0
 21
116.2
 31
0.0
  0
LINE
  5
77
330
1E
100
AcDbEntity
  8
0
100
AcDbLine
 10
33.0
 20
116.2
 30
0.0
 11
33.0
 21
116.7999999999999
 31
0.0
  0
LINE
  5
78
330
1E
100
AcDbEntity
  8
0
100
AcDbLine
 10
33.0
 20
116.2
 30
0.0
 11
33.0
 21
116.0
 31
0.0
  0
LINE
  5
79
330
1E
100
AcDbEntity
  8
0
100
AcDbLine
 10
33.0
 20
116.0
 30
0.0
 11
33.5
 21
108.4999999999999
 31
0.0
  0
LINE
  5
7A
330
1E
100
AcDbEntity
  8
0
100
AcDbLine
 10
33.0
 20
116.0
 30
0.0
 11
33.0
 21
116.2
 31
0.0
  0
LINE
  5
7B
330
1E
100
AcDbEntity
  8
0
100
AcDbLine
 10
33.0
 20
120.5
 30
0.0
 11
33.0
 21
119.0
 31
0.0
  0
LINE
  5
7C
330
1E
100
AcDbEntity
  8
0
100
AcDbLine
 10
33.0
 20
120.5
 30
0.0
 11
33.0
 21
122.0
 31
0.0
  0
LINE
  5
7D
330
1E
100
AcDbEntity
  8
0
100
AcDbLine
 10
33.0
 20
125.0
 30
0.0
 11
33.0
 21
123.5
 31
0.0
  0
LINE
  5
7E
330
1E
100
AcDbEntity
  8
0
100
AcDbLine
 10
33.0
 20
125.0
 30
0.0
 11
33.0
 21
126.2
 31
0.0
  0
LINE
  5
7F
330
1E
100
AcDbEntity
  8
0
100
AcDbLine
 10
33.0
 20
123.5
 30
0.0
 11
33.0
 21
122.0
 31
0.0
  0
LINE
  5
80
330
1E
100
AcDbEntity
  8
0
100
AcDbLine
 10
33.0
 20
123.5
 30
0.0
 11
33.0
 21
125.0
 31
0.0
  0
LINE
  5
81
330
1E
100
AcDbEntity
  8
0
100
AcDbLine
 10
33.0
 20
126.2
 30
0.0
 11
33.0
 21
127.2
 31
0.0
  0
LINE
  5
82
330
1E
100
AcDbEntity
  8
0
100
AcDbLine
 10
33.0
 20
126.2
 30
0.0
 11
33.0
 21
125.0
 31
0.0
  0
LINE
  5
83
330
1E
100
AcDbEntity
  8
0
100
AcDbLine
 10
33.0
 20
122.0
 30
0.0
 11
33.0
 21
120.5
 31
0.0
  0
LINE
  5
84
330
1E
100
AcDbEntity
  8
0
100
AcDbLine
 10
33.0
 20
122.0
 30
0.0
 11
33.0
 21
123.5
 31
0.0
  0
LINE
  5
85
330
1E
100
AcDbEntity
  8
0
100
AcDbLine
 10
33.0
 20
127.2
 30
0.0
 11
33.0
 21
127.8
 31
0.0
  0
LINE
  5
86
330
1E
100
AcDbEntity
  8
0
100
AcDbLine
 10
33.0
 20
127.2
 30
0.0
 11
33.0
 21
126.2
 31
0.0
  0
LINE
  5
87
330
1E
100
AcDbEntity
  8
0
100
AcDbLine
 10
33.0
 20
128.0
 30
0.0
 11
33.5
 21
135.4999999999999
 31
0.0
  0
LINE
  5
88
330
1E
100
AcDbEntity
  8
0
100
AcDbLine
 10
33.0
 20
128.0
 30
0.0
 11
33.0
 21
127.8
 31
0.0
  0
LINE
  5
89
330
1E
100
AcDbEntity
  8
0
100
AcDbLine
 10
33.0
 20
127.8
 30
0.0
 11
33.0
 21
128.0
 31
0.0
  0
LINE
  5
8A
330
1E
100
AcDbEntity
  8
0
100
AcDbLine
 10
33.0
 20
127.8
 30
0.0
 11
33.0
 21
127.2
 31
0.0
  0
LINE
  5
8B
330
1E
100
AcDbEntity
  8
0
100
AcDbLine
 10
33.0
 20
119.0
 30
0.0
 11
33.0
 21
117.7999999999999
 31
0.0
  0
LINE
  5
8C
330
1E
100
AcDbEntity
  8
0
100
AcDbLine
 10
33.0
 20
119.0
 30
0.0
 11
33.0
 21
120.5
 31
0.0
  0
LINE
  5
8D
330
1E
100
AcDbEntity
  8
0
100
AcDbLine
 10
34.0
 20
108.0
 30
0.0
 11
34.0
 21
107.4999999999999
 31
0.0
  0
LINE
  5
8E
330
1E
100
AcDbEntity
  8
0
100
AcDbLine
 10
34.0
 20
108.0
 30
0.0
 11
34.0
 21
109.4
 31
0.0
  0
LINE
  5
8F
330
1E
100
AcDbEntity
  8
0
100
AcDbLine
 10
34.0
 20
109.4
 30
0.0
 11
34.0
 21
108.0
 31
0.0
  0
LINE
  5
90
330
1E
100
AcDbEntity
  8
0
100
AcDbLine
 10
34.0
 20
109.4
 30
0.0
 11
34.0
 21
118.3
 31
0.0
  0
LINE
  5
91
330
1E
100
AcDbEntity
  8
0
100
AcDbLine
 10
34.0
 20
134.5999999999999
 30
0.0
 11
34.0
 21
125.7
 31
0.0
  0
LINE
  5
92
330
1E
100
AcDbEntity
  8
0
100
AcDbLine
 10
34.0
 20
125.7
 30
0.0
 11
34.0
 21
122.0
 31
0.0
  0
LINE
  5
93
330
1E
100
AcDbEntity
  8
0
100
AcDbLine
 10
34.0
 20
125.7
 30
0.0
 11
34.0
 21
134.5999999999999
 31
0.0
  0
LINE
  5
94
330
1E
100
AcDbEntity
  8
0
100
AcDbLine
 10
34.0
 20
134.5999999999999
 30
0.0
 11
34.0
 21
136.0
 31
0.0
  0
LINE
  5
95
330
1E
100
AcDbEntity
  8
0
100
AcDbLine
 10
34.0
 20
118.3
 30
0.0
 11
34.0
 21
109.4
 31
0.0
  0
LINE
  5
96
330
1E
100
AcDbEntity
  8
0
100
AcDbLine
 10
34.0
 20
118.3
 30
0.0
 11
34.0
 21
122.0
 31
0.0
  0
LINE
  5
97
330
1E
100
AcDbEntity
  8
0
100
AcDbLine
 10
34.0
 20
122.0
 30
0.0
 11
34.0
 21
118.3
 31
0.0
  0
LINE
  5
98
330
1E
100
AcDbEntity
  8
0
100
AcDbLine
 10
34.0
 20
122.0
 30
0.0
 11
34.0
 21
125.7
 31
0.0
  0
LINE
  5
99
330
1E
100
AcDbEntity
  8
0
100
AcDbLine
 10
34.0
 20
136.0
 30
0.0
 11
34.0
 21
134.5999999999999
 31
0.0
  0
LINE
  5
9A
330
1E
100
AcDbEntity
  8
0
100
AcDbLine
 10
34.0
 20
136.0
 30
0.0
 11
34.0
 21
136.4999999999999
 31
0.0
  0
LINE
  5
9B
330
1E
100
AcDbEntity
  8
0
100
AcDbLine
 10
33.5
 20
135.4999999999999
 30
0.0
 11
34.0
 21
136.4999999999999
 31
0.0
  0
LINE
  5
9C
330
1E
100
AcDbEntity
  8
0
100
AcDbLine
 10
34.0
 20
136.4999999999999
 30
0.0
 11
35.0
 21
137.0
 31
0.0
  0
LINE
  5
9D
330
1E
100
AcDbEntity
  8
0
100
AcDbLine
 10
34.0
 20
136.4999999999999
 30
0.0
 11
34.0
 21
136.0
 31
0.0
  0
LINE
  5
9E
330
1E
100
AcDbEntity
  8
0
100
AcDbLine
 10
33.5
 20
108.4999999999999
 30
0.0
 11
34.0
 21
107.4999999999999
 31
0.0
  0
LINE
  5
9F
330
1E
100
AcDbEntity
  8
0
100
AcDbLine
 10
46.0
 20
137.0
 30
0.0
 11
46.0
 21
140.8499999999999
 31
0.0
  0
LINE
  5
A0
330
1E
100
AcDbEntity
  8
0
100
AcDbLine
 10
49.9847216494846
 20
137.0
 30
0.0
 11
64.0
 21
137.0
 31
0.0
  0
LINE
  5
A1
330
1E
100
AcDbEntity
  8
0
100
AcDbLine
 10
46.5852
 20
140.8499999999999
 30
0.0
 11
47.00739999999999
 21
140.8499999999999
 31
0.0
  0
LINE
  5
A2
330
1E
100
AcDbEntity
  8
0
100
AcDbLine
 10
47.00739999999999
 20
140.8499999999999
 30
0.0
 11
47.4889
 21
140.8499999999999
 31
0.0
  0
LINE
  5
A3
330
1E
100
AcDbEntity
  8
0
100
AcDbLine
 10
49.4148
 20
140.8499999999999
 30
0.0
 11
49.7333
 21
140.8499999999999
 31
0.0
  0
LINE
  5
A4
330
1E
100
AcDbEntity
  8
0
100
AcDbLine
 10
49.7333
 20
140.8499999999999
 30
0.0
 11
49.92589999999999
 21
140.8499999999999
 31
0.0
  0
LINE
  5
A5
330
1E
100
AcDbEntity
  8
0
100
AcDbLine
 10
49.92589999999999
 20
140.8499999999999
 30
0.0
 11
50.0
 21
140.8499999999999
 31
0.0
  0
LINE
  5
A6
330
1E
100
AcDbEntity
  8
0
100
AcDbLine
 10
48.9926
 20
140.8499999999999
 30
0.0
 11
49.4148
 21
140.8499999999999
 31
0.0
  0
LINE
  5
A7
330
1E
100
AcDbEntity
  8
0
100
AcDbLine
 10
48.5111
 20
140.8499999999999
 30
0.0
 11
48.9926
 21
140.8499999999999
 31
0.0
  0
LINE
  5
A8
330
1E
100
AcDbEntity
  8
0
100
AcDbLine
 10
48.0
 20
140.8499999999999
 30
0.0
 11
48.5111
 21
140.8499999999999
 31
0.0
  0
LINE
  5
A9
330
1E
100
AcDbEntity
  8
0
100
AcDbLine
 10
47.4889
 20
140.8499999999999
 30
0.0
 11
48.0
 21
140.8499999999999
 31
0.0
  0
LINE
  5
AA
330
1E
100
AcDbEntity
  8
0
100
AcDbLine
 10
49.963
 20
140.8999999999999
 30
0.0
 11
50.0
 21
140.8499999999999
 31
0.0
  0
LINE
  5
AB
330
1E
100
AcDbEntity
  8
0
100
AcDbLine
 10
46.26669999999999
 20
140.8499999999999
 30
0.0
 11
46.5852
 21
140.8499999999999
 31
0.0
  0
LINE
  5
AC
330
1E
100
AcDbEntity
  8
0
100
AcDbLine
 10
46.0741
 20
140.8499999999999
 30
0.0
 11
46.26669999999999
 21
140.8499999999999
 31
0.0
  0
LINE
  5
AD
330
1E
100
AcDbEntity
  8
0
100
AcDbLine
 10
49.1111
 20
141.0
 30
0.0
 11
49.85179999999999
 21
140.9499999999999
 31
0.0
  0
LINE
  5
AE
330
1E
100
AcDbEntity
  8
0
100
AcDbLine
 10
49.85179999999999
 20
140.9499999999999
 30
0.0
 11
49.963
 21
140.8999999999999
 31
0.0
  0
LINE
  5
AF
330
1E
100
AcDbEntity
  8
0
100
AcDbLine
 10
46.1481
 20
140.9499999999999
 30
0.0
 11
46.88889999999999
 21
141.0
 31
0.0
  0
LINE
  5
B0
330
1E
100
AcDbEntity
  8
0
100
AcDbLine
 10
46.03699999999999
 20
140.8999999999999
 30
0.0
 11
46.1481
 21
140.9499999999999
 31
0.0
  0
LINE
  5
B1
330
1E
100
AcDbEntity
  8
0
100
AcDbLine
 10
46.0
 20
140.8499999999999
 30
0.0
 11
46.0
 21
137.0
 31
0.0
  0
LINE
  5
B2
330
1E
100
AcDbEntity
  8
0
100
AcDbLine
 10
46.0
 20
140.8499999999999
 30
0.0
 11
46.03699999999999
 21
140.8999999999999
 31
0.0
  0
LINE
  5
B3
330
1E
100
AcDbEntity
  8
0
100
AcDbLine
 10
46.0
 20
140.8499999999999
 30
0.0
 11
46.0741
 21
140.8499999999999
 31
0.0
  0
LINE
  5
B4
330
1E
100
AcDbEntity
  8
0
100
AcDbLine
 10
35.0
 20
137.0
 30
0.0
 11
46.0
 21
137.0
 31
0.0
  0
LINE
  5
B5
330
1E
100
AcDbEntity
  8
0
100
AcDbLine
 10
34.0
 20
107.4999999999999
 30
0.0
 11
35.0
 21
107.0
 31
0.0
  0
LINE
  5
B6
330
1E
100
AcDbEntity
  8
0
100
AcDbLine
 10
34.0
 20
107.4999999999999
 30
0.0
 11
34.0
 21
108.0
 31
0.0
  0
LINE
  5
B7
330
1E
100
AcDbEntity
  8
0
100
AcDbLine
 10
35.0
 20
107.0
 30
0.0
 11
64.0
 21
107.0
 31
0.0
  0
LINE
  5
B8
330
1E
100
AcDbEntity
  8
0
100
AcDbLine
 10
33.0
 20
117.7999999999999
 30
0.0
 11
33.0
 21
119.0
 31
0.0
  0
LINE
  5
B9
330
1E
100
AcDbEntity
  8
0
100
AcDbLine
 10
33.0
 20
117.7999999999999
 30
0.0
 11
33.0
 21
116.7999999999999
 31
0.0
  0
LINE
  5
BA
330
1E
100
AcDbEntity
  8
0
100
AcDbLine
 10
23.2222
 20
81.0
 30
0.0
 11
23.3148
 21
81.0
 31
0.0
  0
LINE
  5
BB
330
1E
100
AcDbEntity
  8
0
100
AcDbLine
 10
21.3704
 20
80.90000000000001
 30
0.0
 11
23.2222
 21
81.0
 31
0.0
  0
LINE
  5
BC
330
1E
100
AcDbEntity
  8
0
100
AcDbLine
 10
21.0926
 20
80.8
 30
0.0
 11
21.3704
 21
80.90000000000001
 31
0.0
  0
LINE
  5
BD
330
1E
100
AcDbEntity
  8
0
100
AcDbLine
 10
21.0
 20
80.7
 30
0.0
 11
21.0926
 21
80.8
 31
0.0
  0
LINE
  5
BE
330
1E
100
AcDbEntity
  8
0
100
AcDbLine
 10
21.0
 20
80.7
 30
0.0
 11
21.18519999999999
 21
80.7
 31
0.0
  0
LINE
  5
BF
330
1E
100
AcDbEntity
  8
0
100
AcDbLine
 10
31.0
 20
75.0
 30
0.0
 11
50.0
 21
75.0
 31
0.0
  0
LINE
  5
C0
330
1E
100
AcDbEntity
  8
0
100
AcDbLine
 10
31.0
 20
75.0
 30
0.0
 11
31.0
 21
80.7
 31
0.0
  0
LINE
  5
C1
330
1E
100
AcDbEntity
  8
0
100
AcDbLine
 10
1.50000000000001
 20
75.0
 30
0.0
 11
21.0
 21
75.0
 31
0.0
  0
LINE
  5
C2
330
1E
100
AcDbEntity
  8
0
100
AcDbLine
 10
1.50000000000001
 20
75.0
 30
0.0
 11
1.50000000000001
 21
74.0
 31
0.0
  0
LINE
  5
C3
330
1E
100
AcDbEntity
  8
0
100
AcDbLine
 10
0.0000000000000101
 20
33.0
 30
0.0
 11
0.50000000000001
 21
23.0
 31
0.0
  0
LINE
  5
C4
330
1E
100
AcDbEntity
  8
0
100
AcDbLine
 10
74.0
 20
30.3
 30
0.0
 11
74.0
 21
38.9
 31
0.0
  0
LINE
  5
C5
330
1E
100
AcDbEntity
  8
0
100
AcDbLine
 10
74.0
 20
35.8
 30
0.0
 11
74.0
 21
30.7
 31
0.0
  0
LINE
  5
C6
330
1E
100
AcDbEntity
  8
0
100
AcDbLine
 10
74.0
 20
35.8
 30
0.0
 11
74.0
 21
41.7
 31
0.0
  0
LINE
  5
C7
330
1E
100
AcDbEntity
  8
0
100
AcDbLine
 10
64.0
 20
107.0
 30
0.0
 11
64.0
 21
107.4999999999999
 31
0.0
  0
LINE
  5
C8
330
1E
100
AcDbEntity
  8
0
100
AcDbLine
 10
74.0
 20
54.29999999999999
 30
0.0
 11
74.0
 21
48.0
 31
0.0
  0
LINE
  5
C9
330
1E
100
AcDbEntity
  8
0
100
AcDbLine
 10
74.0
 20
54.29999999999999
 30
0.0
 11
74.0
 21
60.2
 31
0.0
  0
LINE
  5
CA
330
1E
100
AcDbEntity
  8
0
100
AcDbLine
 10
74.0
 20
41.7
 30
0.0
 11
74.0
 21
35.8
 31
0.0
  0
LINE
  5
CB
330
1E
100
AcDbEntity
  8
0
100
AcDbLine
 10
74.0
 20
41.7
 30
0.0
 11
74.0
 21
48.0
 31
0.0
  0
LINE
  5
CC
330
1E
100
AcDbEntity
  8
0
100
AcDbLine
 10
74.0
 20
48.0
 30
0.0
 11
74.0
 21
41.7
 31
0.0
  0
LINE
  5
CD
330
1E
100
AcDbEntity
  8
0
100
AcDbLine
 10
74.0
 20
48.0
 30
0.0
 11
74.0
 21
54.29999999999999
 31
0.0
  0
LINE
  5
CE
330
1E
100
AcDbEntity
  8
0
100
AcDbLine
 10
74.0
 20
30.8
 30
0.0
 11
74.0
 21
23.6
 31
0.0
  0
LINE
  5
CF
330
1E
100
AcDbEntity
  8
0
100
AcDbLine
 10
74.0
 20
30.8
 30
0.0
 11
74.0
 21
39.1
 31
0.0
  0
LINE
  5
D0
330
1E
100
AcDbEntity
  8
0
100
AcDbLine
 10
74.0
 20
39.1
 30
0.0
 11
74.0
 21
30.8
 31
0.0
  0
LINE
  5
D1
330
1E
100
AcDbEntity
  8
0
100
AcDbLine
 10
74.0
 20
30.7
 30
0.0
 11
74.0
 21
26.8
 31
0.0
  0
LINE
  5
D2
330
1E
100
AcDbEntity
  8
0
100
AcDbLine
 10
74.0
 20
30.7
 30
0.0
 11
74.0
 21
35.8
 31
0.0
  0
LINE
  5
D3
330
1E
100
AcDbEntity
  8
0
100
AcDbLine
 10
74.0
 20
26.8
 30
0.0
 11
74.0
 21
24.39999999999999
 31
0.0
  0
LINE
  5
D4
330
1E
100
AcDbEntity
  8
0
100
AcDbLine
 10
74.0
 20
26.8
 30
0.0
 11
74.0
 21
30.7
 31
0.0
  0
LINE
  5
D5
330
1E
100
AcDbEntity
  8
0
100
AcDbLine
 10
74.0
 20
24.39999999999999
 30
0.0
 11
74.0
 21
23.5
 31
0.0
  0
LINE
  5
D6
330
1E
100
AcDbEntity
  8
0
100
AcDbLine
 10
74.0
 20
24.39999999999999
 30
0.0
 11
74.0
 21
26.8
 31
0.0
  0
LINE
  5
D7
330
1E
100
AcDbEntity
  8
0
100
AcDbLine
 10
74.0
 20
38.9
 30
0.0
 11
74.0
 21
30.3
 31
0.0
  0
LINE
  5
D8
330
1E
100
AcDbEntity
  8
0
100
AcDbLine
 10
64.0
 20
107.4999999999999
 30
0.0
 11
64.0
 21
107.0
 31
0.0
  0
LINE
  5
D9
330
1E
100
AcDbEntity
  8
0
100
AcDbLine
 10
64.0
 20
107.4999999999999
 30
0.0
 11
64.0
 21
109.0
 31
0.0
  0
LINE
  5
DA
330
1E
100
AcDbEntity
  8
0
100
AcDbLine
 10
64.0
 20
109.0
 30
0.0
 11
65.0
 21
109.0
 31
0.0
  0
LINE
  5
DB
330
1E
100
AcDbEntity
  8
0
100
AcDbLine
 10
64.0
 20
109.0
 30
0.0
 11
64.0
 21
107.4999999999999
 31
0.0
  0
LINE
  5
DC
330
1E
100
AcDbEntity
  8
0
100
AcDbLine
 10
64.0
 20
109.0
 30
0.0
 11
64.0
 21
111.4
 31
0.0
  0
LINE
  5
DD
330
1E
100
AcDbEntity
  8
0
100
AcDbLine
 10
64.0
 20
111.4
 30
0.0
 11
64.0
 21
114.4
 31
0.0
  0
LINE
  5
DE
330
1E
100
AcDbEntity
  8
0
100
AcDbLine
 10
64.0
 20
111.4
 30
0.0
 11
64.0
 21
109.0
 31
0.0
  0
LINE
  5
DF
330
1E
100
AcDbEntity
  8
0
100
AcDbLine
 10
64.0
 20
114.4
 30
0.0
 11
64.0
 21
111.4
 31
0.0
  0
LINE
  5
E0
330
1E
100
AcDbEntity
  8
0
100
AcDbLine
 10
64.0
 20
114.4
 30
0.0
 11
64.0
 21
118.1
 31
0.0
  0
LINE
  5
E1
330
1E
100
AcDbEntity
  8
0
100
AcDbLine
 10
64.0
 20
118.1
 30
0.0
 11
64.0
 21
114.4
 31
0.0
  0
LINE
  5
E2
330
1E
100
AcDbEntity
  8
0
100
AcDbLine
 10
64.0
 20
118.1
 30
0.0
 11
64.0
 21
122.0
 31
0.0
  0
LINE
  5
E3
330
1E
100
AcDbEntity
  8
0
100
AcDbLine
 10
64.0
 20
125.9
 30
0.0
 11
64.0
 21
122.0
 31
0.0
  0
LINE
  5
E4
330
1E
100
AcDbEntity
  8
0
100
AcDbLine
 10
64.0
 20
125.9
 30
0.0
 11
64.0
 21
129.6
 31
0.0
  0
LINE
  5
E5
330
1E
100
AcDbEntity
  8
0
100
AcDbLine
 10
64.0
 20
122.0
 30
0.0
 11
64.0
 21
118.1
 31
0.0
  0
LINE
  5
E6
330
1E
100
AcDbEntity
  8
0
100
AcDbLine
 10
64.0
 20
122.0
 30
0.0
 11
64.0
 21
125.9
 31
0.0
  0
LINE
  5
E7
330
1E
100
AcDbEntity
  8
0
100
AcDbLine
 10
65.0
 20
110.6999999999999
 30
0.0
 11
65.0
 21
109.4999999999999
 31
0.0
  0
LINE
  5
E8
330
1E
100
AcDbEntity
  8
0
100
AcDbLine
 10
65.0
 20
110.6999999999999
 30
0.0
 11
65.0
 21
112.7999999999999
 31
0.0
  0
LINE
  5
E9
330
1E
100
AcDbEntity
  8
0
100
AcDbLine
 10
65.0
 20
109.4999999999999
 30
0.0
 11
65.0
 21
109.0
 31
0.0
  0
LINE
  5
EA
330
1E
100
AcDbEntity
  8
0
100
AcDbLine
 10
65.0
 20
109.4999999999999
 30
0.0
 11
65.0
 21
110.6999999999999
 31
0.0
  0
LINE
  5
EB
330
1E
100
AcDbEntity
  8
0
100
AcDbLine
 10
65.0
 20
112.7999999999999
 30
0.0
 11
65.0
 21
115.5
 31
0.0
  0
LINE
  5
EC
330
1E
100
AcDbEntity
  8
0
100
AcDbLine
 10
65.0
 20
112.7999999999999
 30
0.0
 11
65.0
 21
110.6999999999999
 31
0.0
  0
LINE
  5
ED
330
1E
100
AcDbEntity
  8
0
100
AcDbLine
 10
65.0
 20
111.4
 30
0.0
 11
65.0
 21
114.4
 31
0.0
  0
LINE
  5
EE
330
1E
100
AcDbEntity
  8
0
100
AcDbLine
 10
65.0
 20
111.4
 30
0.0
 11
65.0
 21
109.0
 31
0.0
  0
LINE
  5
EF
330
1E
100
AcDbEntity
  8
0
100
AcDbLine
 10
65.0
 20
115.5
 30
0.0
 11
65.0
 21
112.7999999999999
 31
0.0
  0
LINE
  5
F0
330
1E
100
AcDbEntity
  8
0
100
AcDbLine
 10
65.0
 20
115.5
 30
0.0
 11
65.0
 21
118.7
 31
0.0
  0
LINE
  5
F1
330
1E
100
AcDbEntity
  8
0
100
AcDbLine
 10
65.0
 20
118.7
 30
0.0
 11
65.0
 21
115.5
 31
0.0
  0
LINE
  5
F2
330
1E
100
AcDbEntity
  8
0
100
AcDbLine
 10
65.0
 20
118.7
 30
0.0
 11
65.0
 21
122.0
 31
0.0
  0
LINE
  5
F3
330
1E
100
AcDbEntity
  8
0
100
AcDbLine
 10
65.0
 20
114.4
 30
0.0
 11
65.0
 21
111.4
 31
0.0
  0
LINE
  5
F4
330
1E
100
AcDbEntity
  8
0
100
AcDbLine
 10
65.0
 20
114.4
 30
0.0
 11
65.0
 21
118.1
 31
0.0
  0
LINE
  5
F5
330
1E
100
AcDbEntity
  8
0
100
AcDbLine
 10
65.0
 20
118.1
 30
0.0
 11
65.0
 21
114.4
 31
0.0
  0
LINE
  5
F6
330
1E
100
AcDbEntity
  8
0
100
AcDbLine
 10
65.0
 20
118.1
 30
0.0
 11
65.0
 21
122.0
 31
0.0
  0
LINE
  5
F7
330
1E
100
AcDbEntity
  8
0
100
AcDbLine
 10
65.0
 20
128.4999999999999
 30
0.0
 11
65.0
 21
125.2999999999999
 31
0.0
  0
LINE
  5
F8
330
1E
100
AcDbEntity
  8
0
100
AcDbLine
 10
65.0
 20
128.4999999999999
 30
0.0
 11
65.0
 21
131.1999999999999
 31
0.0
  0
LINE
  5
F9
330
1E
100
AcDbEntity
  8
0
100
AcDbLine
 10
65.0
 20
125.2999999999999
 30
0.0
 11
65.0
 21
122.0
 31
0.0
  0
LINE
  5
FA
330
1E
100
AcDbEntity
  8
0
100
AcDbLine
 10
65.0
 20
125.2999999999999
 30
0.0
 11
65.0
 21
128.4999999999999
 31
0.0
  0
LINE
  5
FB
330
1E
100
AcDbEntity
  8
0
100
AcDbLine
 10
65.0
 20
129.6
 30
0.0
 11
65.0
 21
125.9
 31
0.0
  0
LINE
  5
FC
330
1E
100
AcDbEntity
  8
0
100
AcDbLine
 10
65.0
 20
129.6
 30
0.0
 11
65.0
 21
132.6
 31
0.0
  0
LINE
  5
FD
330
1E
100
AcDbEntity
  8
0
100
AcDbLine
 10
65.0
 20
125.9
 30
0.0
 11
65.0
 21
122.0
 31
0.0
  0
LINE
  5
FE
330
1E
100
AcDbEntity
  8
0
100
AcDbLine
 10
65.0
 20
125.9
 30
0.0
 11
65.0
 21
129.6
 31
0.0
  0
LINE
  5
FF
330
1E
100
AcDbEntity
  8
0
100
AcDbLine
 10
64.0
 20
132.6
 30
0.0
 11
64.0
 21
135.0
 31
0.0
  0
LINE
  5
100
330
1E
100
AcDbEntity
  8
0
100
AcDbLine
 10
65.0
 20
131.1999999999999
 30
0.0
 11
65.0
 21
133.3
 31
0.0
  0
LINE
  5
101
330
1E
100
AcDbEntity
  8
0
100
AcDbLine
 10
65.0
 20
131.1999999999999
 30
0.0
 11
65.0
 21
128.4999999999999
 31
0.0
  0
LINE
  5
102
330
1E
100
AcDbEntity
  8
0
100
AcDbLine
 10
65.0
 20
132.6
 30
0.0
 11
65.0
 21
135.0
 31
0.0
  0
LINE
  5
103
330
1E
100
AcDbEntity
  8
0
100
AcDbLine
 10
65.0
 20
132.6
 30
0.0
 11
65.0
 21
129.6
 31
0.0
  0
LINE
  5
104
330
1E
100
AcDbEntity
  8
0
100
AcDbLine
 10
65.0
 20
133.3
 30
0.0
 11
65.0
 21
131.1999999999999
 31
0.0
  0
LINE
  5
105
330
1E
100
AcDbEntity
  8
0
100
AcDbLine
 10
65.0
 20
133.3
 30
0.0
 11
65.0
 21
134.4999999999999
 31
0.0
  0
LINE
  5
106
330
1E
100
AcDbEntity
  8
0
100
AcDbLine
 10
65.0
 20
134.4999999999999
 30
0.0
 11
65.0
 21
133.3
 31
0.0
  0
LINE
  5
107
330
1E
100
AcDbEntity
  8
0
100
AcDbLine
 10
65.0
 20
134.4999999999999
 30
0.0
 11
65.0
 21
135.0
 31
0.0
  0
LINE
  5
108
330
1E
100
AcDbEntity
  8
0
100
AcDbLine
 10
65.0
 20
122.0
 30
0.0
 11
65.0
 21
118.1
 31
0.0
  0
LINE
  5
109
330
1E
100
AcDbEntity
  8
0
100
AcDbLine
 10
65.0
 20
122.0
 30
0.0
 11
65.0
 21
118.7
 31
0.0
  0
LINE
  5
10A
330
1E
100
AcDbEntity
  8
0
100
AcDbLine
 10
65.0
 20
122.0
 30
0.0
 11
65.0
 21
125.9
 31
0.0
  0
LINE
  5
10B
330
1E
100
AcDbEntity
  8
0
100
AcDbLine
 10
65.0
 20
122.0
 30
0.0
 11
65.0
 21
125.2999999999999
 31
0.0
  0
LINE
  5
10C
330
1E
100
AcDbEntity
  8
0
100
AcDbLine
 10
64.0
 20
129.6
 30
0.0
 11
64.0
 21
131.1999999999999
 31
0.0
  0
LINE
  5
10D
330
1E
100
AcDbEntity
  8
0
100
AcDbLine
 10
64.0
 20
129.6
 30
0.0
 11
64.0
 21
125.9
 31
0.0
  0
LINE
  5
10E
330
1E
100
AcDbEntity
  8
0
100
AcDbLine
 10
64.0
 20
129.6
 30
0.0
 11
64.0
 21
132.6
 31
0.0
  0
LINE
  5
10F
330
1E
100
AcDbEntity
  8
0
100
AcDbLine
 10
64.0
 20
136.4999999999999
 30
0.0
 11
64.0
 21
135.0
 31
0.0
  0
LINE
  5
110
330
1E
100
AcDbEntity
  8
0
100
AcDbLine
 10
64.0
 20
136.4999999999999
 30
0.0
 11
64.0
 21
137.0
 31
0.0
  0
LINE
  5
111
330
1E
100
AcDbEntity
  8
0
100
AcDbLine
 10
64.0
 20
135.0
 30
0.0
 11
65.0
 21
135.0
 31
0.0
  0
LINE
  5
112
330
1E
100
AcDbEntity
  8
0
100
AcDbLine
 10
64.0
 20
135.0
 30
0.0
 11
64.0
 21
132.6
 31
0.0
  0
LINE
  5
113
330
1E
100
AcDbEntity
  8
0
100
AcDbLine
 10
64.0
 20
135.0
 30
0.0
 11
64.0
 21
136.4999999999999
 31
0.0
  0
LINE
  5
114
330
1E
100
AcDbEntity
  8
0
100
AcDbLine
 10
65.0
 20
135.0
 30
0.0
 11
65.0
 21
136.4999999999999
 31
0.0
  0
LINE
  5
115
330
1E
100
AcDbEntity
  8
0
100
AcDbLine
 10
65.0
 20
135.0
 30
0.0
 11
65.0
 21
132.6
 31
0.0
  0
LINE
  5
116
330
1E
100
AcDbEntity
  8
0
100
AcDbLine
 10
65.0
 20
135.0
 30
0.0
 11
65.0
 21
134.4999999999999
 31
0.0
  0
LINE
  5
117
330
1E
100
AcDbEntity
  8
0
100
AcDbLine
 10
50.0
 20
137.0
 30
0.0
 11
50.0
 21
140.8499999999999
 31
0.0
  0
LINE
  5
118
330
1E
100
AcDbEntity
  8
0
100
AcDbLine
 10
64.0
 20
137.0
 30
0.0
 11
64.0
 21
136.4999999999999
 31
0.0
  0
LINE
  5
119
330
1E
100
AcDbEntity
  8
0
100
AcDbLine
 10
50.0
 20
140.8499999999999
 30
0.0
 11
50.0
 21
137.0
 31
0.0
  0
LINE
  5
11A
330
1E
100
AcDbEntity
  8
0
100
AcDbLine
 10
65.0
 20
136.4999999999999
 30
0.0
 11
65.0
 21
137.0
 31
0.0
  0
LINE
  5
11B
330
1E
100
AcDbEntity
  8
0
100
AcDbLine
 10
65.0
 20
136.4999999999999
 30
0.0
 11
65.0
 21
135.0
 31
0.0
  0
LINE
  5
11C
330
1E
100
AcDbEntity
  8
0
100
AcDbLine
 10
65.0
 20
137.0
 30
0.0
 11
74.0
 21
137.0
 31
0.0
  0
LINE
  5
11D
330
1E
100
AcDbEntity
  8
0
100
AcDbLine
 10
65.0
 20
137.0
 30
0.0
 11
65.0
 21
136.4999999999999
 31
0.0
  0
LINE
  5
11E
330
1E
100
AcDbEntity
  8
0
100
AcDbLine
 10
65.0
 20
109.0
 30
0.0
 11
65.0
 21
107.4999999999999
 31
0.0
  0
LINE
  5
11F
330
1E
100
AcDbEntity
  8
0
100
AcDbLine
 10
65.0
 20
109.0
 30
0.0
 11
65.0
 21
111.4
 31
0.0
  0
LINE
  5
120
330
1E
100
AcDbEntity
  8
0
100
AcDbLine
 10
65.0
 20
109.0
 30
0.0
 11
65.0
 21
109.4999999999999
 31
0.0
  0
LINE
  5
121
330
1E
100
AcDbEntity
  8
0
100
AcDbLine
 10
65.0
 20
107.4999999999999
 30
0.0
 11
65.0
 21
109.0
 31
0.0
  0
LINE
  5
122
330
1E
100
AcDbEntity
  8
0
100
AcDbLine
 10
65.0
 20
107.4999999999999
 30
0.0
 11
65.0
 21
107.0
 31
0.0
  0
LINE
  5
123
330
1E
100
AcDbEntity
  8
0
100
AcDbLine
 10
65.0
 20
107.0
 30
0.0
 11
65.0
 21
107.4999999999999
 31
0.0
  0
LINE
  5
124
330
1E
100
AcDbEntity
  8
0
100
AcDbLine
 10
65.0
 20
107.0
 30
0.0
 11
74.0
 21
107.0
 31
0.0
  0
LINE
  5
125
330
1E
100
AcDbEntity
  8
0
100
AcDbLine
 10
50.0
 20
24.0
 30
0.0
 11
74.0
 21
24.0
 31
0.0
  0
LINE
  5
126
330
1E
100
AcDbEntity
  8
0
100
AcDbLine
 10
74.0
 20
23.6
 30
0.0
 11
74.0
 21
24.0
 31
0.0
  0
LINE
  5
127
330
1E
100
AcDbEntity
  8
0
100
AcDbLine
 10
74.0
 20
23.6
 30
0.0
 11
74.0
 21
30.8
 31
0.0
  0
LINE
  5
128
330
1E
100
AcDbEntity
  8
0
100
AcDbLine
 10
74.0
 20
24.0
 30
0.0
 11
74.0
 21
22.9
 31
0.0
  0
LINE
  5
129
330
1E
100
AcDbEntity
  8
0
100
AcDbLine
 10
74.0
 20
24.0
 30
0.0
 11
74.0
 21
23.6
 31
0.0
  0
LINE
  5
12A
330
1E
100
AcDbEntity
  8
0
100
AcDbLine
 10
74.0
 20
24.0
 30
0.0
 11
74.0
 21
23.5
 31
0.0
  0
LINE
  5
12B
330
1E
100
AcDbEntity
  8
0
100
AcDbLine
 10
74.0
 20
6.508520000000019
 30
0.0
 11
74.0
 21
9.163060000000019
 31
0.0
  0
LINE
  5
12C
330
1E
100
AcDbEntity
  8
0
100
AcDbLine
 10
74.0
 20
6.508520000000019
 30
0.0
 11
74.0
 21
4.20000000000002
 31
0.0
  0
LINE
  5
12D
330
1E
100
AcDbEntity
  8
0
100
AcDbLine
 10
74.0
 20
85.0
 30
0.0
 11
74.0
 21
160.837
 31
0.0
  0
LINE
  5
12E
330
1E
100
AcDbEntity
  8
0
100
AcDbLine
 10
74.0
 20
98.3
 30
0.0
 11
74.0
 21
100.7
 31
0.0
  0
LINE
  5
12F
330
1E
100
AcDbEntity
  8
0
100
AcDbLine
 10
74.0
 20
98.3
 30
0.0
 11
74.0
 21
97.40000000000001
 31
0.0
  0
LINE
  5
130
330
1E
100
AcDbEntity
  8
0
100
AcDbLine
 10
74.0
 20
97.40000000000001
 30
0.0
 11
74.0
 21
98.3
 31
0.0
  0
LINE
  5
131
330
1E
100
AcDbEntity
  8
0
100
AcDbLine
 10
74.0
 20
100.7
 30
0.0
 11
74.0
 21
104.6
 31
0.0
  0
LINE
  5
132
330
1E
100
AcDbEntity
  8
0
100
AcDbLine
 10
74.0
 20
100.7
 30
0.0
 11
74.0
 21
98.3
 31
0.0
  0
LINE
  5
133
330
1E
100
AcDbEntity
  8
0
100
AcDbLine
 10
74.0
 20
100.0
 30
0.0
 11
74.0
 21
97.5
 31
0.0
  0
LINE
  5
134
330
1E
100
AcDbEntity
  8
0
100
AcDbLine
 10
74.0
 20
96.6
 30
0.0
 11
74.0
 21
97.5
 31
0.0
  0
LINE
  5
135
330
1E
100
AcDbEntity
  8
0
100
AcDbLine
 10
74.29999999999999
 20
6.159240000000019
 30
0.0
 11
74.29999999999999
 21
3.70000000000002
 31
0.0
  0
LINE
  5
136
330
1E
100
AcDbEntity
  8
0
100
AcDbLine
 10
74.29999999999999
 20
6.159240000000019
 30
0.0
 11
74.29999999999999
 21
8.976780000000019
 31
0.0
  0
LINE
  5
137
330
1E
100
AcDbEntity
  8
0
100
AcDbLine
 10
74.29999999999999
 20
8.976780000000019
 30
0.0
 11
74.29999999999999
 21
6.159240000000019
 31
0.0
  0
LINE
  5
138
330
1E
100
AcDbEntity
  8
0
100
AcDbLine
 10
74.29999999999999
 20
8.976780000000019
 30
0.0
 11
74.29999999999999
 21
12.0
 31
0.0
  0
LINE
  5
139
330
1E
100
AcDbEntity
  8
0
100
AcDbLine
 10
74.29999999999999
 20
12.0
 30
0.0
 11
74.29999999999999
 21
8.976780000000019
 31
0.0
  0
LINE
  5
13A
330
1E
100
AcDbEntity
  8
0
100
AcDbLine
 10
74.29999999999999
 20
12.0
 30
0.0
 11
74.29999999999999
 21
85.0
 31
0.0
  0
LINE
  5
13B
330
1E
100
AcDbEntity
  8
0
100
AcDbLine
 10
74.29999999999999
 20
12.0
 30
0.0
 11
74.29999999999999
 21
85.0
 31
0.0
  0
LINE
  5
13C
330
1E
100
AcDbEntity
  8
0
100
AcDbLine
 10
74.29999999999999
 20
3.70000000000002
 30
0.0
 11
74.29999999999999
 21
1.85940000000002
 31
0.0
  0
LINE
  5
13D
330
1E
100
AcDbEntity
  8
0
100
AcDbLine
 10
74.29999999999999
 20
3.70000000000002
 30
0.0
 11
74.29999999999999
 21
6.159240000000019
 31
0.0
  0
LINE
  5
13E
330
1E
100
AcDbEntity
  8
0
100
AcDbLine
 10
74.29999999999999
 20
1.85940000000002
 30
0.0
 11
74.29999999999999
 21
0.7411040000000171
 31
0.0
  0
LINE
  5
13F
330
1E
100
AcDbEntity
  8
0
100
AcDbLine
 10
74.29999999999999
 20
1.85940000000002
 30
0.0
 11
74.29999999999999
 21
3.70000000000002
 31
0.0
  0
LINE
  5
140
330
1E
100
AcDbEntity
  8
0
100
AcDbLine
 10
74.29999999999999
 20
0.7411040000000171
 30
0.0
 11
74.29999999999999
 21
0.300000000000017
 31
0.0
  0
LINE
  5
141
330
1E
100
AcDbEntity
  8
0
100
AcDbLine
 10
74.29999999999999
 20
0.7411040000000171
 30
0.0
 11
74.29999999999999
 21
1.85940000000002
 31
0.0
  0
LINE
  5
142
330
1E
100
AcDbEntity
  8
0
100
AcDbLine
 10
74.0
 20
97.5
 30
0.0
 11
74.0
 21
100.0
 31
0.0
  0
LINE
  5
143
330
1E
100
AcDbEntity
  8
0
100
AcDbLine
 10
74.0
 20
97.5
 30
0.0
 11
74.0
 21
96.6
 31
0.0
  0
LINE
  5
144
330
1E
100
AcDbEntity
  8
0
100
AcDbLine
 10
74.0
 20
108.6
 30
0.0
 11
74.0
 21
107.0999999999999
 31
0.0
  0
LINE
  5
145
330
1E
100
AcDbEntity
  8
0
100
AcDbLine
 10
74.0
 20
108.6
 30
0.0
 11
74.0
 21
111.0999999999999
 31
0.0
  0
LINE
  5
146
330
1E
100
AcDbEntity
  8
0
100
AcDbLine
 10
74.0
 20
107.0999999999999
 30
0.0
 11
74.0
 21
106.4999999999999
 31
0.0
  0
LINE
  5
147
330
1E
100
AcDbEntity
  8
0
100
AcDbLine
 10
74.0
 20
107.0999999999999
 30
0.0
 11
74.0
 21
108.6
 31
0.0
  0
LINE
  5
148
330
1E
100
AcDbEntity
  8
0
100
AcDbLine
 10
74.0
 20
111.0999999999999
 30
0.0
 11
74.0
 21
114.3
 31
0.0
  0
LINE
  5
149
330
1E
100
AcDbEntity
  8
0
100
AcDbLine
 10
74.0
 20
111.0999999999999
 30
0.0
 11
74.0
 21
108.6
 31
0.0
  0
LINE
  5
14A
330
1E
100
AcDbEntity
  8
0
100
AcDbLine
 10
74.0
 20
114.3
 30
0.0
 11
74.0
 21
111.0999999999999
 31
0.0
  0
LINE
  5
14B
330
1E
100
AcDbEntity
  8
0
100
AcDbLine
 10
74.0
 20
114.3
 30
0.0
 11
74.0
 21
118.0
 31
0.0
  0
LINE
  5
14C
330
1E
100
AcDbEntity
  8
0
100
AcDbLine
 10
74.0
 20
118.0
 30
0.0
 11
74.0
 21
114.3
 31
0.0
  0
LINE
  5
14D
330
1E
100
AcDbEntity
  8
0
100
AcDbLine
 10
74.0
 20
118.0
 30
0.0
 11
74.0
 21
122.0
 31
0.0
  0
LINE
  5
14E
330
1E
100
AcDbEntity
  8
0
100
AcDbLine
 10
74.0
 20
109.8
 30
0.0
 11
74.0
 21
115.7
 31
0.0
  0
LINE
  5
14F
330
1E
100
AcDbEntity
  8
0
100
AcDbLine
 10
74.0
 20
109.8
 30
0.0
 11
74.0
 21
104.6
 31
0.0
  0
LINE
  5
150
330
1E
100
AcDbEntity
  8
0
100
AcDbLine
 10
74.0
 20
128.3
 30
0.0
 11
74.0
 21
134.1999999999999
 31
0.0
  0
LINE
  5
151
330
1E
100
AcDbEntity
  8
0
100
AcDbLine
 10
74.0
 20
128.3
 30
0.0
 11
74.0
 21
122.0
 31
0.0
  0
LINE
  5
152
330
1E
100
AcDbEntity
  8
0
100
AcDbLine
 10
74.0
 20
126.0
 30
0.0
 11
74.0
 21
122.0
 31
0.0
  0
LINE
  5
153
330
1E
100
AcDbEntity
  8
0
100
AcDbLine
 10
74.0
 20
126.0
 30
0.0
 11
74.0
 21
129.6999999999999
 31
0.0
  0
LINE
  5
154
330
1E
100
AcDbEntity
  8
0
100
AcDbLine
 10
74.0
 20
122.0
 30
0.0
 11
74.0
 21
118.0
 31
0.0
  0
LINE
  5
155
330
1E
100
AcDbEntity
  8
0
100
AcDbLine
 10
74.0
 20
122.0
 30
0.0
 11
74.0
 21
128.3
 31
0.0
  0
LINE
  5
156
330
1E
100
AcDbEntity
  8
0
100
AcDbLine
 10
74.0
 20
122.0
 30
0.0
 11
74.0
 21
126.0
 31
0.0
  0
LINE
  5
157
330
1E
100
AcDbEntity
  8
0
100
AcDbLine
 10
74.0
 20
122.0
 30
0.0
 11
74.0
 21
128.4999999999999
 31
0.0
  0
LINE
  5
158
330
1E
100
AcDbEntity
  8
0
100
AcDbLine
 10
74.0
 20
122.0
 30
0.0
 11
74.0
 21
115.7
 31
0.0
  0
LINE
  5
159
330
1E
100
AcDbEntity
  8
0
100
AcDbLine
 10
74.0
 20
115.7
 30
0.0
 11
74.0
 21
122.0
 31
0.0
  0
LINE
  5
15A
330
1E
100
AcDbEntity
  8
0
100
AcDbLine
 10
74.0
 20
115.7
 30
0.0
 11
74.0
 21
109.8
 31
0.0
  0
LINE
  5
15B
330
1E
100
AcDbEntity
  8
0
100
AcDbLine
 10
74.0
 20
129.6999999999999
 30
0.0
 11
74.0
 21
126.0
 31
0.0
  0
LINE
  5
15C
330
1E
100
AcDbEntity
  8
0
100
AcDbLine
 10
74.0
 20
129.6999999999999
 30
0.0
 11
74.0
 21
132.9
 31
0.0
  0
LINE
  5
15D
330
1E
100
AcDbEntity
  8
0
100
AcDbLine
 10
74.0
 20
134.1999999999999
 30
0.0
 11
74.0
 21
128.3
 31
0.0
  0
LINE
  5
15E
330
1E
100
AcDbEntity
  8
0
100
AcDbLine
 10
74.0
 20
132.9
 30
0.0
 11
74.0
 21
135.4
 31
0.0
  0
LINE
  5
15F
330
1E
100
AcDbEntity
  8
0
100
AcDbLine
 10
74.0
 20
132.9
 30
0.0
 11
74.0
 21
129.6999999999999
 31
0.0
  0
LINE
  5
160
330
1E
100
AcDbEntity
  8
0
100
AcDbLine
 10
74.0
 20
135.4
 30
0.0
 11
74.0
 21
132.9
 31
0.0
  0
LINE
  5
161
330
1E
100
AcDbEntity
  8
0
100
AcDbLine
 10
74.0
 20
135.4
 30
0.0
 11
74.0
 21
136.8999999999999
 31
0.0
  0
LINE
  5
162
330
1E
100
AcDbEntity
  8
0
100
AcDbLine
 10
74.0
 20
136.8999999999999
 30
0.0
 11
74.0
 21
135.4
 31
0.0
  0
LINE
  5
163
330
1E
100
AcDbEntity
  8
0
100
AcDbLine
 10
74.0
 20
136.8999999999999
 30
0.0
 11
74.0
 21
137.5
 31
0.0
  0
LINE
  5
164
330
1E
100
AcDbEntity
  8
0
100
AcDbLine
 10
74.0
 20
134.5999999999999
 30
0.0
 11
74.0
 21
128.4999999999999
 31
0.0
  0
LINE
  5
165
330
1E
100
AcDbEntity
  8
0
100
AcDbLine
 10
74.0
 20
134.5999999999999
 30
0.0
 11
74.0
 21
139.9
 31
0.0
  0
LINE
  5
166
330
1E
100
AcDbEntity
  8
0
100
AcDbLine
 10
74.0
 20
128.4999999999999
 30
0.0
 11
74.0
 21
122.0
 31
0.0
  0
LINE
  5
167
330
1E
100
AcDbEntity
  8
0
100
AcDbLine
 10
74.0
 20
128.4999999999999
 30
0.0
 11
74.0
 21
134.5999999999999
 31
0.0
  0
LINE
  5
168
330
1E
100
AcDbEntity
  8
0
100
AcDbLine
 10
74.0
 20
109.4
 30
0.0
 11
74.0
 21
104.0999999999999
 31
0.0
  0
LINE
  5
169
330
1E
100
AcDbEntity
  8
0
100
AcDbLine
 10
74.0
 20
139.4
 30
0.0
 11
74.0
 21
143.3
 31
0.0
  0
LINE
  5
16A
330
1E
100
AcDbEntity
  8
0
100
AcDbLine
 10
74.0
 20
143.3
 30
0.0
 11
74.0
 21
139.4
 31
0.0
  0
LINE
  5
16B
330
1E
100
AcDbEntity
  8
0
100
AcDbLine
 10
74.0
 20
143.3
 30
0.0
 11
74.0
 21
145.6999999999999
 31
0.0
  0
LINE
  5
16C
330
1E
100
AcDbEntity
  8
0
100
AcDbLine
 10
74.0
 20
139.9
 30
0.0
 11
74.0
 21
137.0
 31
0.0
  0
LINE
  5
16D
330
1E
100
AcDbEntity
  8
0
100
AcDbLine
 10
74.0
 20
139.9
 30
0.0
 11
74.0
 21
144.0
 31
0.0
  0
LINE
  5
16E
330
1E
100
AcDbEntity
  8
0
100
AcDbLine
 10
74.0
 20
139.9
 30
0.0
 11
74.0
 21
134.5999999999999
 31
0.0
  0
LINE
  5
16F
330
1E
100
AcDbEntity
  8
0
100
AcDbLine
 10
74.0
 20
137.5
 30
0.0
 11
74.0
 21
137.0
 31
0.0
  0
LINE
  5
170
330
1E
100
AcDbEntity
  8
0
100
AcDbLine
 10
74.0
 20
137.5
 30
0.0
 11
74.0
 21
136.8999999999999
 31
0.0
  0
LINE
  5
171
330
1E
100
AcDbEntity
  8
0
100
AcDbLine
 10
74.0
 20
137.0
 30
0.0
 11
74.0
 21
137.5
 31
0.0
  0
LINE
  5
172
330
1E
100
AcDbEntity
  8
0
100
AcDbLine
 10
74.0
 20
137.0
 30
0.0
 11
74.0
 21
139.9
 31
0.0
  0
LINE
  5
173
330
1E
100
AcDbEntity
  8
0
100
AcDbLine
 10
74.0
 20
146.6
 30
0.0
 11
74.0
 21
145.6999999999999
 31
0.0
  0
LINE
  5
174
330
1E
100
AcDbEntity
  8
0
100
AcDbLine
 10
74.0
 20
145.6999999999999
 30
0.0
 11
74.0
 21
146.6
 31
0.0
  0
LINE
  5
175
330
1E
100
AcDbEntity
  8
0
100
AcDbLine
 10
74.0
 20
145.6999999999999
 30
0.0
 11
74.0
 21
143.3
 31
0.0
  0
LINE
  5
176
330
1E
100
AcDbEntity
  8
0
100
AcDbLine
 10
74.0
 20
144.0
 30
0.0
 11
74.0
 21
139.9
 31
0.0
  0
LINE
  5
177
330
1E
100
AcDbEntity
  8
0
100
AcDbLine
 10
74.0
 20
144.0
 30
0.0
 11
74.0
 21
146.5
 31
0.0
  0
LINE
  5
178
330
1E
100
AcDbEntity
  8
0
100
AcDbLine
 10
74.0
 20
146.5
 30
0.0
 11
74.0
 21
144.0
 31
0.0
  0
LINE
  5
179
330
1E
100
AcDbEntity
  8
0
100
AcDbLine
 10
74.0
 20
146.5
 30
0.0
 11
74.0
 21
147.4
 31
0.0
  0
LINE
  5
17A
330
1E
100
AcDbEntity
  8
0
100
AcDbLine
 10
74.0
 20
160.837
 30
0.0
 11
74.0
 21
85.0
 31
0.0
  0
LINE
  5
17B
330
1E
100
AcDbEntity
  8
0
100
AcDbLine
 10
74.0
 20
147.4
 30
0.0
 11
74.0
 21
146.5
 31
0.0
  0
LINE
  5
17C
330
1E
100
AcDbEntity
  8
0
100
AcDbLine
 10
74.0
 20
106.4999999999999
 30
0.0
 11
74.0
 21
107.0
 31
0.0
  0
LINE
  5
17D
330
1E
100
AcDbEntity
  8
0
100
AcDbLine
 10
74.0
 20
106.4999999999999
 30
0.0
 11
74.0
 21
107.0999999999999
 31
0.0
  0
LINE
  5
17E
330
1E
100
AcDbEntity
  8
0
100
AcDbLine
 10
74.0
 20
104.6
 30
0.0
 11
74.0
 21
107.0
 31
0.0
  0
LINE
  5
17F
330
1E
100
AcDbEntity
  8
0
100
AcDbLine
 10
74.0
 20
104.6
 30
0.0
 11
74.0
 21
100.7
 31
0.0
  0
LINE
  5
180
330
1E
100
AcDbEntity
  8
0
100
AcDbLine
 10
74.0
 20
104.6
 30
0.0
 11
74.0
 21
109.8
 31
0.0
  0
LINE
  5
181
330
1E
100
AcDbEntity
  8
0
100
AcDbLine
 10
74.0
 20
107.0
 30
0.0
 11
74.0
 21
104.0999999999999
 31
0.0
  0
LINE
  5
182
330
1E
100
AcDbEntity
  8
0
100
AcDbLine
 10
74.0
 20
107.0
 30
0.0
 11
74.0
 21
104.6
 31
0.0
  0
LINE
  5
183
330
1E
100
AcDbEntity
  8
0
100
AcDbLine
 10
74.0
 20
107.0
 30
0.0
 11
74.0
 21
106.4999999999999
 31
0.0
  0
LINE
  5
184
330
1E
100
AcDbEntity
  8
0
100
AcDbLine
 10
74.0
 20
168.5599999999999
 30
0.0
 11
74.0
 21
169.0
 31
0.0
  0
LINE
  5
185
330
1E
100
AcDbEntity
  8
0
100
AcDbLine
 10
74.0
 20
168.5599999999999
 30
0.0
 11
74.0
 21
167.5119999999999
 31
0.0
  0
LINE
  5
186
330
1E
100
AcDbEntity
  8
0
100
AcDbLine
 10
74.0
 20
167.5119999999999
 30
0.0
 11
74.0
 21
168.5599999999999
 31
0.0
  0
LINE
  5
187
330
1E
100
AcDbEntity
  8
0
100
AcDbLine
 10
74.0
 20
167.5119999999999
 30
0.0
 11
74.0
 21
165.8
 31
0.0
  0
LINE
  5
188
330
1E
100
AcDbEntity
  8
0
100
AcDbLine
 10
74.0
 20
165.8
 30
0.0
 11
74.0
 21
167.5119999999999
 31
0.0
  0
LINE
  5
189
330
1E
100
AcDbEntity
  8
0
100
AcDbLine
 10
74.0
 20
165.8
 30
0.0
 11
74.0
 21
160.837
 31
0.0
  0
LINE
  5
18A
330
1E
100
AcDbEntity
  8
0
100
AcDbLine
 10
74.0
 20
160.837
 30
0.0
 11
74.0
 21
165.8
 31
0.0
  0
LINE
  5
18B
330
1E
100
AcDbEntity
  8
0
100
AcDbLine
 10
74.0
 20
169.0
 30
0.0
 11
74.29999999999999
 21
169.6999999999999
 31
0.0
  0
LINE
  5
18C
330
1E
100
AcDbEntity
  8
0
100
AcDbLine
 10
74.0
 20
169.0
 30
0.0
 11
74.0
 21
168.5599999999999
 31
0.0
  0
LINE
  5
18D
330
1E
100
AcDbEntity
  8
0
100
AcDbLine
 10
74.0
 20
104.0999999999999
 30
0.0
 11
74.0
 21
107.0
 31
0.0
  0
LINE
  5
18E
330
1E
100
AcDbEntity
  8
0
100
AcDbLine
 10
74.0
 20
104.0999999999999
 30
0.0
 11
74.0
 21
109.4
 31
0.0
  0
LINE
  5
18F
330
1E
100
AcDbEntity
  8
0
100
AcDbLine
 10
74.29999999999999
 20
85.0
 30
0.0
 11
74.29999999999999
 21
158.0
 31
0.0
  0
LINE
  5
190
330
1E
100
AcDbEntity
  8
0
100
AcDbLine
 10
74.29999999999999
 20
163.8409999999999
 30
0.0
 11
74.29999999999999
 21
161.023
 31
0.0
  0
LINE
  5
191
330
1E
100
AcDbEntity
  8
0
100
AcDbLine
 10
74.29999999999999
 20
163.8409999999999
 30
0.0
 11
74.29999999999999
 21
166.3
 31
0.0
  0
LINE
  5
192
330
1E
100
AcDbEntity
  8
0
100
AcDbLine
 10
74.29999999999999
 20
161.023
 30
0.0
 11
74.29999999999999
 21
158.0
 31
0.0
  0
LINE
  5
193
330
1E
100
AcDbEntity
  8
0
100
AcDbLine
 10
74.29999999999999
 20
161.023
 30
0.0
 11
74.29999999999999
 21
163.8409999999999
 31
0.0
  0
LINE
  5
194
330
1E
100
AcDbEntity
  8
0
100
AcDbLine
 10
74.29999999999999
 20
158.0
 30
0.0
 11
74.29999999999999
 21
85.0
 31
0.0
  0
LINE
  5
195
330
1E
100
AcDbEntity
  8
0
100
AcDbLine
 10
74.29999999999999
 20
158.0
 30
0.0
 11
74.29999999999999
 21
161.023
 31
0.0
  0
LINE
  5
196
330
1E
100
AcDbEntity
  8
0
100
AcDbLine
 10
74.29999999999999
 20
166.3
 30
0.0
 11
74.29999999999999
 21
168.1409999999999
 31
0.0
  0
LINE
  5
197
330
1E
100
AcDbEntity
  8
0
100
AcDbLine
 10
74.29999999999999
 20
166.3
 30
0.0
 11
74.29999999999999
 21
163.8409999999999
 31
0.0
  0
LINE
  5
198
330
1E
100
AcDbEntity
  8
0
100
AcDbLine
 10
74.29999999999999
 20
168.1409999999999
 30
0.0
 11
74.29999999999999
 21
166.3
 31
0.0
  0
LINE
  5
199
330
1E
100
AcDbEntity
  8
0
100
AcDbLine
 10
74.29999999999999
 20
168.1409999999999
 30
0.0
 11
74.29999999999999
 21
169.259
 31
0.0
  0
LINE
  5
19A
330
1E
100
AcDbEntity
  8
0
100
AcDbLine
 10
74.29999999999999
 20
169.259
 30
0.0
 11
74.29999999999999
 21
168.1409999999999
 31
0.0
  0
LINE
  5
19B
330
1E
100
AcDbEntity
  8
0
100
AcDbLine
 10
74.29999999999999
 20
169.259
 30
0.0
 11
74.29999999999999
 21
169.6999999999999
 31
0.0
  0
LINE
  5
19C
330
1E
100
AcDbEntity
  8
0
100
AcDbLine
 10
75.0
 20
0.0000000000000166
 30
0.0
 11
86.0
 21
0.000000000000016
 31
0.0
  0
LINE
  5
19D
330
1E
100
AcDbEntity
  8
0
100
AcDbLine
 10
86.0
 20
0.400000000000016
 30
0.0
 11
86.0
 21
0.000000000000016
 31
0.0
  0
LINE
  5
19E
330
1E
100
AcDbEntity
  8
0
100
AcDbLine
 10
86.0
 20
0.400000000000016
 30
0.0
 11
86.0
 21
1.60000000000002
 31
0.0
  0
LINE
  5
19F
330
1E
100
AcDbEntity
  8
0
100
AcDbLine
 10
86.0
 20
1.60000000000002
 30
0.0
 11
86.0
 21
0.400000000000016
 31
0.0
  0
LINE
  5
1A0
330
1E
100
AcDbEntity
  8
0
100
AcDbLine
 10
86.0
 20
1.60000000000002
 30
0.0
 11
86.0
 21
3.50000000000002
 31
0.0
  0
LINE
  5
1A1
330
1E
100
AcDbEntity
  8
0
100
AcDbLine
 10
86.0
 20
3.50000000000002
 30
0.0
 11
86.0
 21
1.60000000000002
 31
0.0
  0
LINE
  5
1A2
330
1E
100
AcDbEntity
  8
0
100
AcDbLine
 10
86.0
 20
3.50000000000002
 30
0.0
 11
86.0
 21
6.000000000000018
 31
0.0
  0
LINE
  5
1A3
330
1E
100
AcDbEntity
  8
0
100
AcDbLine
 10
86.0
 20
6.000000000000018
 30
0.0
 11
86.0
 21
3.50000000000002
 31
0.0
  0
LINE
  5
1A4
330
1E
100
AcDbEntity
  8
0
100
AcDbLine
 10
86.0
 20
6.000000000000018
 30
0.0
 11
86.0
 21
8.900000000000019
 31
0.0
  0
LINE
  5
1A5
330
1E
100
AcDbEntity
  8
0
100
AcDbLine
 10
125.0
 20
9.500000000000019
 30
0.0
 11
125.0
 21
59.5
 31
0.0
  0
LINE
  5
1A6
330
1E
100
AcDbEntity
  8
0
100
AcDbLine
 10
121.0
 20
9.644000000000019
 30
0.0
 11
121.0
 21
10.02799999999999
 31
0.0
  0
LINE
  5
1A7
330
1E
100
AcDbEntity
  8
0
100
AcDbLine
 10
121.0
 20
9.644000000000019
 30
0.0
 11
121.0
 21
9.500000000000019
 31
0.0
  0
LINE
  5
1A8
330
1E
100
AcDbEntity
  8
0
100
AcDbLine
 10
121.0
 20
10.5
 30
0.0
 11
121.0
 21
15.5
 31
0.0
  0
LINE
  5
1A9
330
1E
100
AcDbEntity
  8
0
100
AcDbLine
 10
121.0
 20
10.02799999999999
 30
0.0
 11
121.0
 21
10.66799999999999
 31
0.0
  0
LINE
  5
1AA
330
1E
100
AcDbEntity
  8
0
100
AcDbLine
 10
121.0
 20
10.02799999999999
 30
0.0
 11
121.0
 21
9.644000000000019
 31
0.0
  0
LINE
  5
1AB
330
1E
100
AcDbEntity
  8
0
100
AcDbLine
 10
121.0
 20
10.66799999999999
 30
0.0
 11
121.0
 21
11.51599999999999
 31
0.0
  0
LINE
  5
1AC
330
1E
100
AcDbEntity
  8
0
100
AcDbLine
 10
121.0
 20
10.66799999999999
 30
0.0
 11
121.0
 21
10.02799999999999
 31
0.0
  0
LINE
  5
1AD
330
1E
100
AcDbEntity
  8
0
100
AcDbLine
 10
121.0
 20
11.51599999999999
 30
0.0
 11
121.0
 21
12.476
 31
0.0
  0
LINE
  5
1AE
330
1E
100
AcDbEntity
  8
0
100
AcDbLine
 10
121.0
 20
11.51599999999999
 30
0.0
 11
121.0
 21
10.66799999999999
 31
0.0
  0
LINE
  5
1AF
330
1E
100
AcDbEntity
  8
0
100
AcDbLine
 10
121.0
 20
11.5
 30
0.0
 11
121.0
 21
9.500000000000019
 31
0.0
  0
LINE
  5
1B0
330
1E
100
AcDbEntity
  8
0
100
AcDbLine
 10
121.0
 20
11.5
 30
0.0
 11
121.0
 21
24.0
 31
0.0
  0
LINE
  5
1B1
330
1E
100
AcDbEntity
  8
0
100
AcDbLine
 10
121.0
 20
9.500000000000019
 30
0.0
 11
125.0
 21
9.500000000000019
 31
0.0
  0
LINE
  5
1B2
330
1E
100
AcDbEntity
  8
0
100
AcDbLine
 10
121.0
 20
9.500000000000019
 30
0.0
 11
121.0
 21
11.5
 31
0.0
  0
LINE
  5
1B3
330
1E
100
AcDbEntity
  8
0
100
AcDbLine
 10
121.0
 20
9.500000000000019
 30
0.0
 11
121.0
 21
24.0
 31
0.0
  0
LINE
  5
1B4
330
1E
100
AcDbEntity
  8
0
100
AcDbLine
 10
121.0
 20
9.500000000000019
 30
0.0
 11
121.0
 21
9.644000000000019
 31
0.0
  0
LINE
  5
1B5
330
1E
100
AcDbEntity
  8
0
100
AcDbLine
 10
121.0
 20
9.500000000000019
 30
0.0
 11
121.0
 21
59.5
 31
0.0
  0
LINE
  5
1B6
330
1E
100
AcDbEntity
  8
0
100
AcDbLine
 10
86.0
 20
8.900000000000019
 30
0.0
 11
86.0
 21
6.000000000000018
 31
0.0
  0
LINE
  5
1B7
330
1E
100
AcDbEntity
  8
0
100
AcDbLine
 10
86.0
 20
8.900000000000019
 30
0.0
 11
86.0
 21
12.0
 31
0.0
  0
LINE
  5
1B8
330
1E
100
AcDbEntity
  8
0
100
AcDbLine
 10
86.0
 20
24.0
 30
0.0
 11
121.0
 21
24.0
 31
0.0
  0
LINE
  5
1B9
330
1E
100
AcDbEntity
  8
0
100
AcDbLine
 10
86.0
 20
146.0
 30
0.0
 11
121.0
 21
146.0
 31
0.0
  0
LINE
  5
1BA
330
1E
100
AcDbEntity
  8
0
100
AcDbLine
 10
121.0
 20
12.4374
 30
0.0
 11
121.0
 21
24.0
 31
0.0
  0
LINE
  5
1BB
330
1E
100
AcDbEntity
  8
0
100
AcDbLine
 10
121.0
 20
12.4374
 30
0.0
 11
121.0
 21
13.69551
 31
0.0
  0
LINE
  5
1BC
330
1E
100
AcDbEntity
  8
0
100
AcDbLine
 10
121.0
 20
12.4374
 30
0.0
 11
121.0
 21
36.16179999999999
 31
0.0
  0
LINE
  5
1BD
330
1E
100
AcDbEntity
  8
0
100
AcDbLine
 10
121.0
 20
13.69551
 30
0.0
 11
121.0
 21
12.4374
 31
0.0
  0
LINE
  5
1BE
330
1E
100
AcDbEntity
  8
0
100
AcDbLine
 10
121.0
 20
13.69551
 30
0.0
 11
121.0
 21
24.0
 31
0.0
  0
LINE
  5
1BF
330
1E
100
AcDbEntity
  8
0
100
AcDbLine
 10
121.0
 20
13.69551
 30
0.0
 11
121.0
 21
34.8138
 31
0.0
  0
LINE
  5
1C0
330
1E
100
AcDbEntity
  8
0
100
AcDbLine
 10
121.0
 20
15.11032
 30
0.0
 11
121.0
 21
15.25432
 31
0.0
  0
LINE
  5
1C1
330
1E
100
AcDbEntity
  8
0
100
AcDbLine
 10
121.0
 20
15.25432
 30
0.0
 11
121.0
 21
15.63832
 31
0.0
  0
LINE
  5
1C2
330
1E
100
AcDbEntity
  8
0
100
AcDbLine
 10
121.0
 20
15.25432
 30
0.0
 11
121.0
 21
15.11032
 31
0.0
  0
LINE
  5
1C3
330
1E
100
AcDbEntity
  8
0
100
AcDbLine
 10
121.0
 20
15.5
 30
0.0
 11
121.0
 21
10.5
 31
0.0
  0
LINE
  5
1C4
330
1E
100
AcDbEntity
  8
0
100
AcDbLine
 10
121.0
 20
16.18492
 30
0.0
 11
121.0
 21
24.0
 31
0.0
  0
LINE
  5
1C5
330
1E
100
AcDbEntity
  8
0
100
AcDbLine
 10
121.0
 20
16.18492
 30
0.0
 11
121.0
 21
15.84241
 31
0.0
  0
LINE
  5
1C6
330
1E
100
AcDbEntity
  8
0
100
AcDbLine
 10
121.0
 20
16.18492
 30
0.0
 11
121.0
 21
27.355
 31
0.0
  0
LINE
  5
1C7
330
1E
100
AcDbEntity
  8
0
100
AcDbLine
 10
121.0
 20
15.84241
 30
0.0
 11
121.0
 21
16.18492
 31
0.0
  0
LINE
  5
1C8
330
1E
100
AcDbEntity
  8
0
100
AcDbLine
 10
121.0
 20
15.84241
 30
0.0
 11
121.0
 21
24.0
 31
0.0
  0
LINE
  5
1C9
330
1E
100
AcDbEntity
  8
0
100
AcDbLine
 10
121.0
 20
15.84241
 30
0.0
 11
121.0
 21
26.54619999999999
 31
0.0
  0
LINE
  5
1CA
330
1E
100
AcDbEntity
  8
0
100
AcDbLine
 10
121.0
 20
15.63832
 30
0.0
 11
121.0
 21
16.27832
 31
0.0
  0
LINE
  5
1CB
330
1E
100
AcDbEntity
  8
0
100
AcDbLine
 10
121.0
 20
15.63832
 30
0.0
 11
121.0
 21
15.25432
 31
0.0
  0
LINE
  5
1CC
330
1E
100
AcDbEntity
  8
0
100
AcDbLine
 10
121.0
 20
16.27832
 30
0.0
 11
121.0
 21
17.12632
 31
0.0
  0
LINE
  5
1CD
330
1E
100
AcDbEntity
  8
0
100
AcDbLine
 10
121.0
 20
16.27832
 30
0.0
 11
121.0
 21
15.63832
 31
0.0
  0
LINE
  5
1CE
330
1E
100
AcDbEntity
  8
0
100
AcDbLine
 10
121.0
 20
17.12632
 30
0.0
 11
121.0
 21
18.08632
 31
0.0
  0
LINE
  5
1CF
330
1E
100
AcDbEntity
  8
0
100
AcDbLine
 10
121.0
 20
17.12632
 30
0.0
 11
121.0
 21
16.27832
 31
0.0
  0
LINE
  5
1D0
330
1E
100
AcDbEntity
  8
0
100
AcDbLine
 10
121.0
 20
21.9423
 30
0.0
 11
121.0
 21
21.0943
 31
0.0
  0
LINE
  5
1D1
330
1E
100
AcDbEntity
  8
0
100
AcDbLine
 10
121.0
 20
21.9423
 30
0.0
 11
121.0
 21
22.5823
 31
0.0
  0
LINE
  5
1D2
330
1E
100
AcDbEntity
  8
0
100
AcDbLine
 10
121.0
 20
21.0943
 30
0.0
 11
121.0
 21
20.1343
 31
0.0
  0
LINE
  5
1D3
330
1E
100
AcDbEntity
  8
0
100
AcDbLine
 10
121.0
 20
21.0943
 30
0.0
 11
121.0
 21
21.9423
 31
0.0
  0
LINE
  5
1D4
330
1E
100
AcDbEntity
  8
0
100
AcDbLine
 10
121.0
 20
20.1343
 30
0.0
 11
121.0
 21
19.11032
 31
0.0
  0
LINE
  5
1D5
330
1E
100
AcDbEntity
  8
0
100
AcDbLine
 10
121.0
 20
20.1343
 30
0.0
 11
121.0
 21
21.0943
 31
0.0
  0
LINE
  5
1D6
330
1E
100
AcDbEntity
  8
0
100
AcDbLine
 10
121.0
 20
19.11032
 30
0.0
 11
121.0
 21
18.08632
 31
0.0
  0
LINE
  5
1D7
330
1E
100
AcDbEntity
  8
0
100
AcDbLine
 10
121.0
 20
19.11032
 30
0.0
 11
121.0
 21
20.1343
 31
0.0
  0
LINE
  5
1D8
330
1E
100
AcDbEntity
  8
0
100
AcDbLine
 10
121.0
 20
18.08632
 30
0.0
 11
121.0
 21
19.11032
 31
0.0
  0
LINE
  5
1D9
330
1E
100
AcDbEntity
  8
0
100
AcDbLine
 10
121.0
 20
18.08632
 30
0.0
 11
121.0
 21
17.12632
 31
0.0
  0
LINE
  5
1DA
330
1E
100
AcDbEntity
  8
0
100
AcDbLine
 10
121.0
 20
17.5
 30
0.0
 11
121.0
 21
17.35599999999999
 31
0.0
  0
LINE
  5
1DB
330
1E
100
AcDbEntity
  8
0
100
AcDbLine
 10
121.0
 20
17.35599999999999
 30
0.0
 11
121.0
 21
16.972
 31
0.0
  0
LINE
  5
1DC
330
1E
100
AcDbEntity
  8
0
100
AcDbLine
 10
121.0
 20
17.35599999999999
 30
0.0
 11
121.0
 21
17.5
 31
0.0
  0
LINE
  5
1DD
330
1E
100
AcDbEntity
  8
0
100
AcDbLine
 10
121.0
 20
16.972
 30
0.0
 11
121.0
 21
16.332
 31
0.0
  0
LINE
  5
1DE
330
1E
100
AcDbEntity
  8
0
100
AcDbLine
 10
121.0
 20
16.972
 30
0.0
 11
121.0
 21
17.35599999999999
 31
0.0
  0
LINE
  5
1DF
330
1E
100
AcDbEntity
  8
0
100
AcDbLine
 10
121.0
 20
16.332
 30
0.0
 11
121.0
 21
15.484
 31
0.0
  0
LINE
  5
1E0
330
1E
100
AcDbEntity
  8
0
100
AcDbLine
 10
121.0
 20
16.332
 30
0.0
 11
121.0
 21
16.972
 31
0.0
  0
LINE
  5
1E1
330
1E
100
AcDbEntity
  8
0
100
AcDbLine
 10
121.0
 20
15.484
 30
0.0
 11
121.0
 21
14.524
 31
0.0
  0
LINE
  5
1E2
330
1E
100
AcDbEntity
  8
0
100
AcDbLine
 10
121.0
 20
15.484
 30
0.0
 11
121.0
 21
16.332
 31
0.0
  0
LINE
  5
1E3
330
1E
100
AcDbEntity
  8
0
100
AcDbLine
 10
121.0
 20
14.524
 30
0.0
 11
121.0
 21
13.5
 31
0.0
  0
LINE
  5
1E4
330
1E
100
AcDbEntity
  8
0
100
AcDbLine
 10
121.0
 20
14.524
 30
0.0
 11
121.0
 21
15.484
 31
0.0
  0
LINE
  5
1E5
330
1E
100
AcDbEntity
  8
0
100
AcDbLine
 10
121.0
 20
13.5
 30
0.0
 11
121.0
 21
12.476
 31
0.0
  0
LINE
  5
1E6
330
1E
100
AcDbEntity
  8
0
100
AcDbLine
 10
121.0
 20
13.5
 30
0.0
 11
121.0
 21
14.524
 31
0.0
  0
LINE
  5
1E7
330
1E
100
AcDbEntity
  8
0
100
AcDbLine
 10
121.0
 20
12.476
 30
0.0
 11
121.0
 21
13.5
 31
0.0
  0
LINE
  5
1E8
330
1E
100
AcDbEntity
  8
0
100
AcDbLine
 10
121.0
 20
12.476
 30
0.0
 11
121.0
 21
11.51599999999999
 31
0.0
  0
LINE
  5
1E9
330
1E
100
AcDbEntity
  8
0
100
AcDbLine
 10
121.0
 20
23.1103
 30
0.0
 11
121.0
 21
22.96629999999999
 31
0.0
  0
LINE
  5
1EA
330
1E
100
AcDbEntity
  8
0
100
AcDbLine
 10
121.0
 20
22.96629999999999
 30
0.0
 11
121.0
 21
22.5823
 31
0.0
  0
LINE
  5
1EB
330
1E
100
AcDbEntity
  8
0
100
AcDbLine
 10
121.0
 20
22.96629999999999
 30
0.0
 11
121.0
 21
23.1103
 31
0.0
  0
LINE
  5
1EC
330
1E
100
AcDbEntity
  8
0
100
AcDbLine
 10
121.0
 20
22.5823
 30
0.0
 11
121.0
 21
21.9423
 31
0.0
  0
LINE
  5
1ED
330
1E
100
AcDbEntity
  8
0
100
AcDbLine
 10
121.0
 20
22.5823
 30
0.0
 11
121.0
 21
22.96629999999999
 31
0.0
  0
LINE
  5
1EE
330
1E
100
AcDbEntity
  8
0
100
AcDbLine
 10
121.0
 20
26.54619999999999
 30
0.0
 11
121.0
 21
15.84241
 31
0.0
  0
LINE
  5
1EF
330
1E
100
AcDbEntity
  8
0
100
AcDbLine
 10
121.0
 20
26.54619999999999
 30
0.0
 11
121.0
 21
27.355
 31
0.0
  0
LINE
  5
1F0
330
1E
100
AcDbEntity
  8
0
100
AcDbLine
 10
121.0
 20
34.5212
 30
0.0
 11
121.0
 21
34.6652
 31
0.0
  0
LINE
  5
1F1
330
1E
100
AcDbEntity
  8
0
100
AcDbLine
 10
121.0
 20
34.6652
 30
0.0
 11
121.0
 21
35.0492
 31
0.0
  0
LINE
  5
1F2
330
1E
100
AcDbEntity
  8
0
100
AcDbLine
 10
121.0
 20
34.6652
 30
0.0
 11
121.0
 21
34.5212
 31
0.0
  0
LINE
  5
1F3
330
1E
100
AcDbEntity
  8
0
100
AcDbLine
 10
121.0
 20
35.0492
 30
0.0
 11
121.0
 21
35.6892
 31
0.0
  0
LINE
  5
1F4
330
1E
100
AcDbEntity
  8
0
100
AcDbLine
 10
121.0
 20
35.0492
 30
0.0
 11
121.0
 21
34.6652
 31
0.0
  0
LINE
  5
1F5
330
1E
100
AcDbEntity
  8
0
100
AcDbLine
 10
121.0
 20
34.8138
 30
0.0
 11
121.0
 21
13.69551
 31
0.0
  0
LINE
  5
1F6
330
1E
100
AcDbEntity
  8
0
100
AcDbLine
 10
121.0
 20
34.8138
 30
0.0
 11
121.0
 21
36.16179999999999
 31
0.0
  0
LINE
  5
1F7
330
1E
100
AcDbEntity
  8
0
100
AcDbLine
 10
121.0
 20
27.355
 30
0.0
 11
121.0
 21
26.54619999999999
 31
0.0
  0
LINE
  5
1F8
330
1E
100
AcDbEntity
  8
0
100
AcDbLine
 10
121.0
 20
27.355
 30
0.0
 11
121.0
 21
16.18492
 31
0.0
  0
LINE
  5
1F9
330
1E
100
AcDbEntity
  8
0
100
AcDbLine
 10
121.0
 20
35.6892
 30
0.0
 11
121.0
 21
36.53719999999999
 31
0.0
  0
LINE
  5
1FA
330
1E
100
AcDbEntity
  8
0
100
AcDbLine
 10
121.0
 20
35.6892
 30
0.0
 11
121.0
 21
35.0492
 31
0.0
  0
LINE
  5
1FB
330
1E
100
AcDbEntity
  8
0
100
AcDbLine
 10
121.0
 20
36.53719999999999
 30
0.0
 11
121.0
 21
37.49719999999999
 31
0.0
  0
LINE
  5
1FC
330
1E
100
AcDbEntity
  8
0
100
AcDbLine
 10
121.0
 20
36.53719999999999
 30
0.0
 11
121.0
 21
35.6892
 31
0.0
  0
LINE
  5
1FD
330
1E
100
AcDbEntity
  8
0
100
AcDbLine
 10
121.0
 20
42.5212
 30
0.0
 11
121.0
 21
42.3772
 31
0.0
  0
LINE
  5
1FE
330
1E
100
AcDbEntity
  8
0
100
AcDbLine
 10
121.0
 20
42.3772
 30
0.0
 11
121.0
 21
41.9932
 31
0.0
  0
LINE
  5
1FF
330
1E
100
AcDbEntity
  8
0
100
AcDbLine
 10
121.0
 20
42.3772
 30
0.0
 11
121.0
 21
42.5212
 31
0.0
  0
LINE
  5
200
330
1E
100
AcDbEntity
  8
0
100
AcDbLine
 10
121.0
 20
41.9932
 30
0.0
 11
121.0
 21
41.3532
 31
0.0
  0
LINE
  5
201
330
1E
100
AcDbEntity
  8
0
100
AcDbLine
 10
121.0
 20
41.9932
 30
0.0
 11
121.0
 21
42.3772
 31
0.0
  0
LINE
  5
202
330
1E
100
AcDbEntity
  8
0
100
AcDbLine
 10
121.0
 20
41.3532
 30
0.0
 11
121.0
 21
40.5052
 31
0.0
  0
LINE
  5
203
330
1E
100
AcDbEntity
  8
0
100
AcDbLine
 10
121.0
 20
41.3532
 30
0.0
 11
121.0
 21
41.9932
 31
0.0
  0
LINE
  5
204
330
1E
100
AcDbEntity
  8
0
100
AcDbLine
 10
121.0
 20
40.5052
 30
0.0
 11
121.0
 21
39.5452
 31
0.0
  0
LINE
  5
205
330
1E
100
AcDbEntity
  8
0
100
AcDbLine
 10
121.0
 20
40.5052
 30
0.0
 11
121.0
 21
41.3532
 31
0.0
  0
LINE
  5
206
330
1E
100
AcDbEntity
  8
0
100
AcDbLine
 10
121.0
 20
39.5452
 30
0.0
 11
121.0
 21
38.5212
 31
0.0
  0
LINE
  5
207
330
1E
100
AcDbEntity
  8
0
100
AcDbLine
 10
121.0
 20
39.5452
 30
0.0
 11
121.0
 21
40.5052
 31
0.0
  0
LINE
  5
208
330
1E
100
AcDbEntity
  8
0
100
AcDbLine
 10
121.0
 20
38.5212
 30
0.0
 11
121.0
 21
37.49719999999999
 31
0.0
  0
LINE
  5
209
330
1E
100
AcDbEntity
  8
0
100
AcDbLine
 10
121.0
 20
38.5212
 30
0.0
 11
121.0
 21
39.5452
 31
0.0
  0
LINE
  5
20A
330
1E
100
AcDbEntity
  8
0
100
AcDbLine
 10
121.0
 20
37.49719999999999
 30
0.0
 11
121.0
 21
38.5212
 31
0.0
  0
LINE
  5
20B
330
1E
100
AcDbEntity
  8
0
100
AcDbLine
 10
121.0
 20
37.49719999999999
 30
0.0
 11
121.0
 21
36.53719999999999
 31
0.0
  0
LINE
  5
20C
330
1E
100
AcDbEntity
  8
0
100
AcDbLine
 10
121.0
 20
36.16179999999999
 30
0.0
 11
121.0
 21
34.8138
 31
0.0
  0
LINE
  5
20D
330
1E
100
AcDbEntity
  8
0
100
AcDbLine
 10
121.0
 20
36.16179999999999
 30
0.0
 11
121.0
 21
12.4374
 31
0.0
  0
LINE
  5
20E
330
1E
100
AcDbEntity
  8
0
100
AcDbLine
 10
121.0
 20
49.8391
 30
0.0
 11
121.0
 21
58.8304
 31
0.0
  0
LINE
  5
20F
330
1E
100
AcDbEntity
  8
0
100
AcDbLine
 10
121.0
 20
49.8391
 30
0.0
 11
121.0
 21
47.1417
 31
0.0
  0
LINE
  5
210
330
1E
100
AcDbEntity
  8
0
100
AcDbLine
 10
121.0
 20
47.1417
 30
0.0
 11
121.0
 21
49.8391
 31
0.0
  0
LINE
  5
211
330
1E
100
AcDbEntity
  8
0
100
AcDbLine
 10
121.0
 20
47.1417
 30
0.0
 11
121.0
 21
57.57159999999999
 31
0.0
  0
LINE
  5
212
330
1E
100
AcDbEntity
  8
0
100
AcDbLine
 10
121.0
 20
57.57159999999999
 30
0.0
 11
121.0
 21
47.1417
 31
0.0
  0
LINE
  5
213
330
1E
100
AcDbEntity
  8
0
100
AcDbLine
 10
121.0
 20
57.57159999999999
 30
0.0
 11
121.0
 21
58.8304
 31
0.0
  0
LINE
  5
214
330
1E
100
AcDbEntity
  8
0
100
AcDbLine
 10
121.0
 20
57.14999999999999
 30
0.0
 11
121.0
 21
57.294
 31
0.0
  0
LINE
  5
215
330
1E
100
AcDbEntity
  8
0
100
AcDbLine
 10
121.0
 20
58.8304
 30
0.0
 11
121.0
 21
57.57159999999999
 31
0.0
  0
LINE
  5
216
330
1E
100
AcDbEntity
  8
0
100
AcDbLine
 10
121.0
 20
58.8304
 30
0.0
 11
121.0
 21
49.8391
 31
0.0
  0
LINE
  5
217
330
1E
100
AcDbEntity
  8
0
100
AcDbLine
 10
121.0
 20
60.126
 30
0.0
 11
121.0
 21
59.166
 31
0.0
  0
LINE
  5
218
330
1E
100
AcDbEntity
  8
0
100
AcDbLine
 10
121.0
 20
60.126
 30
0.0
 11
121.0
 21
61.15
 31
0.0
  0
LINE
  5
219
330
1E
100
AcDbEntity
  8
0
100
AcDbLine
 10
121.0
 20
59.166
 30
0.0
 11
121.0
 21
58.31800000000001
 31
0.0
  0
LINE
  5
21A
330
1E
100
AcDbEntity
  8
0
100
AcDbLine
 10
121.0
 20
59.166
 30
0.0
 11
121.0
 21
60.126
 31
0.0
  0
LINE
  5
21B
330
1E
100
AcDbEntity
  8
0
100
AcDbLine
 10
121.0
 20
58.31800000000001
 30
0.0
 11
121.0
 21
57.67800000000001
 31
0.0
  0
LINE
  5
21C
330
1E
100
AcDbEntity
  8
0
100
AcDbLine
 10
121.0
 20
58.31800000000001
 30
0.0
 11
121.0
 21
59.166
 31
0.0
  0
LINE
  5
21D
330
1E
100
AcDbEntity
  8
0
100
AcDbLine
 10
121.0
 20
57.67800000000001
 30
0.0
 11
121.0
 21
57.294
 31
0.0
  0
LINE
  5
21E
330
1E
100
AcDbEntity
  8
0
100
AcDbLine
 10
121.0
 20
57.67800000000001
 30
0.0
 11
121.0
 21
58.31800000000001
 31
0.0
  0
LINE
  5
21F
330
1E
100
AcDbEntity
  8
0
100
AcDbLine
 10
121.0
 20
57.294
 30
0.0
 11
121.0
 21
57.14999999999999
 31
0.0
  0
LINE
  5
220
330
1E
100
AcDbEntity
  8
0
100
AcDbLine
 10
121.0
 20
57.294
 30
0.0
 11
121.0
 21
57.67800000000001
 31
0.0
  0
LINE
  5
221
330
1E
100
AcDbEntity
  8
0
100
AcDbLine
 10
121.0
 20
60.3
 30
0.0
 11
121.0
 21
59.5
 31
0.0
  0
LINE
  5
222
330
1E
100
AcDbEntity
  8
0
100
AcDbLine
 10
121.0
 20
60.3
 30
0.0
 11
121.0
 21
11.5
 31
0.0
  0
LINE
  5
223
330
1E
100
AcDbEntity
  8
0
100
AcDbLine
 10
121.0
 20
59.5
 30
0.0
 11
121.0
 21
9.500000000000019
 31
0.0
  0
LINE
  5
224
330
1E
100
AcDbEntity
  8
0
100
AcDbLine
 10
121.0
 20
59.5
 30
0.0
 11
125.0
 21
59.5
 31
0.0
  0
LINE
  5
225
330
1E
100
AcDbEntity
  8
0
100
AcDbLine
 10
121.0
 20
59.5
 30
0.0
 11
121.0
 21
60.3
 31
0.0
  0
LINE
  5
226
330
1E
100
AcDbEntity
  8
0
100
AcDbLine
 10
121.0
 20
59.5
 30
0.0
 11
121.0
 21
110.4999999999999
 31
0.0
  0
LINE
  5
227
330
1E
100
AcDbEntity
  8
0
100
AcDbLine
 10
121.0
 20
46.696
 30
0.0
 11
121.0
 21
40.648
 31
0.0
  0
LINE
  5
228
330
1E
100
AcDbEntity
  8
0
100
AcDbLine
 10
121.0
 20
46.696
 30
0.0
 11
121.0
 21
53.75199999999999
 31
0.0
  0
LINE
  5
229
330
1E
100
AcDbEntity
  8
0
100
AcDbLine
 10
121.0
 20
53.75199999999999
 30
0.0
 11
121.0
 21
46.696
 31
0.0
  0
LINE
  5
22A
330
1E
100
AcDbEntity
  8
0
100
AcDbLine
 10
121.0
 20
53.75199999999999
 30
0.0
 11
121.0
 21
61.06
 31
0.0
  0
LINE
  5
22B
330
1E
100
AcDbEntity
  8
0
100
AcDbLine
 10
121.0
 20
61.5539
 30
0.0
 11
121.0
 21
63.416
 31
0.0
  0
LINE
  5
22C
330
1E
100
AcDbEntity
  8
0
100
AcDbLine
 10
121.0
 20
61.5539
 30
0.0
 11
121.0
 21
63.5243
 31
0.0
  0
LINE
  5
22D
330
1E
100
AcDbEntity
  8
0
100
AcDbLine
 10
121.0
 20
62.174
 30
0.0
 11
121.0
 21
61.15
 31
0.0
  0
LINE
  5
22E
330
1E
100
AcDbEntity
  8
0
100
AcDbLine
 10
121.0
 20
62.174
 30
0.0
 11
121.0
 21
63.13399999999999
 31
0.0
  0
LINE
  5
22F
330
1E
100
AcDbEntity
  8
0
100
AcDbLine
 10
121.0
 20
63.416
 30
0.0
 11
121.0
 21
65.48399999999999
 31
0.0
  0
LINE
  5
230
330
1E
100
AcDbEntity
  8
0
100
AcDbLine
 10
121.0
 20
63.416
 30
0.0
 11
121.0
 21
61.5539
 31
0.0
  0
LINE
  5
231
330
1E
100
AcDbEntity
  8
0
100
AcDbLine
 10
121.0
 20
63.5243
 30
0.0
 11
121.0
 21
61.5539
 31
0.0
  0
LINE
  5
232
330
1E
100
AcDbEntity
  8
0
100
AcDbLine
 10
121.0
 20
63.5243
 30
0.0
 11
121.0
 21
65.48399999999999
 31
0.0
  0
LINE
  5
233
330
1E
100
AcDbEntity
  8
0
100
AcDbLine
 10
121.0
 20
63.13399999999999
 30
0.0
 11
121.0
 21
62.174
 31
0.0
  0
LINE
  5
234
330
1E
100
AcDbEntity
  8
0
100
AcDbLine
 10
121.0
 20
63.13399999999999
 30
0.0
 11
121.0
 21
63.982
 31
0.0
  0
LINE
  5
235
330
1E
100
AcDbEntity
  8
0
100
AcDbLine
 10
121.0
 20
63.982
 30
0.0
 11
121.0
 21
63.13399999999999
 31
0.0
  0
LINE
  5
236
330
1E
100
AcDbEntity
  8
0
100
AcDbLine
 10
121.0
 20
63.982
 30
0.0
 11
121.0
 21
64.622
 31
0.0
  0
LINE
  5
237
330
1E
100
AcDbEntity
  8
0
100
AcDbLine
 10
121.0
 20
64.622
 30
0.0
 11
121.0
 21
63.982
 31
0.0
  0
LINE
  5
238
330
1E
100
AcDbEntity
  8
0
100
AcDbLine
 10
121.0
 20
64.622
 30
0.0
 11
121.0
 21
65.006
 31
0.0
  0
LINE
  5
239
330
1E
100
AcDbEntity
  8
0
100
AcDbLine
 10
121.0
 20
65.006
 30
0.0
 11
121.0
 21
64.622
 31
0.0
  0
LINE
  5
23A
330
1E
100
AcDbEntity
  8
0
100
AcDbLine
 10
121.0
 20
65.006
 30
0.0
 11
121.0
 21
65.15
 31
0.0
  0
LINE
  5
23B
330
1E
100
AcDbEntity
  8
0
100
AcDbLine
 10
121.0
 20
65.48399999999999
 30
0.0
 11
121.0
 21
63.5243
 31
0.0
  0
LINE
  5
23C
330
1E
100
AcDbEntity
  8
0
100
AcDbLine
 10
121.0
 20
65.48399999999999
 30
0.0
 11
121.0
 21
63.416
 31
0.0
  0
LINE
  5
23D
330
1E
100
AcDbEntity
  8
0
100
AcDbLine
 10
121.0
 20
65.15
 30
0.0
 11
121.0
 21
65.006
 31
0.0
  0
LINE
  5
23E
330
1E
100
AcDbEntity
  8
0
100
AcDbLine
 10
121.0
 20
61.15
 30
0.0
 11
121.0
 21
60.126
 31
0.0
  0
LINE
  5
23F
330
1E
100
AcDbEntity
  8
0
100
AcDbLine
 10
121.0
 20
61.15
 30
0.0
 11
121.0
 21
62.174
 31
0.0
  0
LINE
  5
240
330
1E
100
AcDbEntity
  8
0
100
AcDbLine
 10
121.0
 20
61.06
 30
0.0
 11
121.0
 21
53.75199999999999
 31
0.0
  0
LINE
  5
241
330
1E
100
AcDbEntity
  8
0
100
AcDbLine
 10
121.0
 20
61.06
 30
0.0
 11
121.0
 21
68.87199999999999
 31
0.0
  0
LINE
  5
242
330
1E
100
AcDbEntity
  8
0
100
AcDbLine
 10
121.0
 20
40.648
 30
0.0
 11
121.0
 21
35.104
 31
0.0
  0
LINE
  5
243
330
1E
100
AcDbEntity
  8
0
100
AcDbLine
 10
121.0
 20
40.648
 30
0.0
 11
121.0
 21
46.696
 31
0.0
  0
LINE
  5
244
330
1E
100
AcDbEntity
  8
0
100
AcDbLine
 10
121.0
 20
35.104
 30
0.0
 11
121.0
 21
30.316
 31
0.0
  0
LINE
  5
245
330
1E
100
AcDbEntity
  8
0
100
AcDbLine
 10
121.0
 20
35.104
 30
0.0
 11
121.0
 21
40.648
 31
0.0
  0
LINE
  5
246
330
1E
100
AcDbEntity
  8
0
100
AcDbLine
 10
121.0
 20
30.316
 30
0.0
 11
121.0
 21
27.04
 31
0.0
  0
LINE
  5
247
330
1E
100
AcDbEntity
  8
0
100
AcDbLine
 10
121.0
 20
30.316
 30
0.0
 11
121.0
 21
35.104
 31
0.0
  0
LINE
  5
248
330
1E
100
AcDbEntity
  8
0
100
AcDbLine
 10
121.0
 20
27.04
 30
0.0
 11
121.0
 21
24.268
 31
0.0
  0
LINE
  5
249
330
1E
100
AcDbEntity
  8
0
100
AcDbLine
 10
121.0
 20
27.04
 30
0.0
 11
121.0
 21
30.316
 31
0.0
  0
LINE
  5
24A
330
1E
100
AcDbEntity
  8
0
100
AcDbLine
 10
121.0
 20
24.268
 30
0.0
 11
121.0
 21
22.756
 31
0.0
  0
LINE
  5
24B
330
1E
100
AcDbEntity
  8
0
100
AcDbLine
 10
121.0
 20
24.268
 30
0.0
 11
121.0
 21
27.04
 31
0.0
  0
LINE
  5
24C
330
1E
100
AcDbEntity
  8
0
100
AcDbLine
 10
121.0
 20
24.0
 30
0.0
 11
121.0
 21
22.756
 31
0.0
  0
LINE
  5
24D
330
1E
100
AcDbEntity
  8
0
100
AcDbLine
 10
121.0
 20
24.0
 30
0.0
 11
121.0
 21
9.500000000000019
 31
0.0
  0
LINE
  5
24E
330
1E
100
AcDbEntity
  8
0
100
AcDbLine
 10
121.0
 20
24.0
 30
0.0
 11
121.0
 21
13.69551
 31
0.0
  0
LINE
  5
24F
330
1E
100
AcDbEntity
  8
0
100
AcDbLine
 10
121.0
 20
24.0
 30
0.0
 11
121.0
 21
12.4374
 31
0.0
  0
LINE
  5
250
330
1E
100
AcDbEntity
  8
0
100
AcDbLine
 10
121.0
 20
24.0
 30
0.0
 11
121.0
 21
15.84241
 31
0.0
  0
LINE
  5
251
330
1E
100
AcDbEntity
  8
0
100
AcDbLine
 10
121.0
 20
24.0
 30
0.0
 11
121.0
 21
16.18492
 31
0.0
  0
LINE
  5
252
330
1E
100
AcDbEntity
  8
0
100
AcDbLine
 10
125.0
 20
59.5
 30
0.0
 11
125.0
 21
9.500000000000019
 31
0.0
  0
LINE
  5
253
330
1E
100
AcDbEntity
  8
0
100
AcDbLine
 10
125.0
 20
59.5
 30
0.0
 11
125.0
 21
110.4999999999999
 31
0.0
  0
LINE
  5
254
330
1E
100
AcDbEntity
  8
0
100
AcDbLine
 10
121.0
 20
22.756
 30
0.0
 11
121.0
 21
24.0
 31
0.0
  0
LINE
  5
255
330
1E
100
AcDbEntity
  8
0
100
AcDbLine
 10
121.0
 20
22.756
 30
0.0
 11
121.0
 21
22.0
 31
0.0
  0
LINE
  5
256
330
1E
100
AcDbEntity
  8
0
100
AcDbLine
 10
121.0
 20
22.756
 30
0.0
 11
121.0
 21
24.268
 31
0.0
  0
LINE
  5
257
330
1E
100
AcDbEntity
  8
0
100
AcDbLine
 10
121.0
 20
22.0
 30
0.0
 11
121.0
 21
22.756
 31
0.0
  0
LINE
  5
258
330
1E
100
AcDbEntity
  8
0
100
AcDbLine
 10
152.72
 20
22.0
 30
0.0
 11
154.64
 21
22.0
 31
0.0
  0
LINE
  5
259
330
1E
100
AcDbEntity
  8
0
100
AcDbLine
 10
152.72
 20
24.0
 30
0.0
 11
154.64
 21
24.0
 31
0.0
  0
LINE
  5
25A
330
1E
100
AcDbEntity
  8
0
100
AcDbLine
 10
152.0
 20
24.0
 30
0.0
 11
152.0
 21
22.0
 31
0.0
  0
LINE
  5
25B
330
1E
100
AcDbEntity
  8
0
100
AcDbLine
 10
152.0
 20
24.0
 30
0.0
 11
152.72
 21
24.0
 31
0.0
  0
LINE
  5
25C
330
1E
100
AcDbEntity
  8
0
100
AcDbLine
 10
152.0
 20
22.0
 30
0.0
 11
152.72
 21
22.0
 31
0.0
  0
LINE
  5
25D
330
1E
100
AcDbEntity
  8
0
100
AcDbLine
 10
152.0
 20
22.0
 30
0.0
 11
152.0
 21
24.0
 31
0.0
  0
LINE
  5
25E
330
1E
100
AcDbEntity
  8
0
100
AcDbLine
 10
154.64
 20
22.0
 30
0.0
 11
157.84
 21
22.0
 31
0.0
  0
LINE
  5
25F
330
1E
100
AcDbEntity
  8
0
100
AcDbLine
 10
157.84
 20
22.0
 30
0.0
 11
162.08
 21
22.0
 31
0.0
  0
LINE
  5
260
330
1E
100
AcDbEntity
  8
0
100
AcDbLine
 10
157.244
 20
22.0
 30
0.0
 11
159.9639999999999
 21
22.0
 31
0.0
  0
LINE
  5
261
330
1E
100
AcDbEntity
  8
0
100
AcDbLine
 10
155.6119999999999
 20
22.0
 30
0.0
 11
157.244
 21
22.0
 31
0.0
  0
LINE
  5
262
330
1E
100
AcDbEntity
  8
0
100
AcDbLine
 10
155.0
 20
22.0
 30
0.0
 11
155.6119999999999
 21
22.0
 31
0.0
  0
LINE
  5
263
330
1E
100
AcDbEntity
  8
0
100
AcDbLine
 10
162.08
 20
22.0
 30
0.0
 11
166.88
 21
22.0
 31
0.0
  0
LINE
  5
264
330
1E
100
AcDbEntity
  8
0
100
AcDbLine
 10
166.88
 20
22.0
 30
0.0
 11
172.0
 21
22.0
 31
0.0
  0
LINE
  5
265
330
1E
100
AcDbEntity
  8
0
100
AcDbLine
 10
163.5679999999999
 20
22.0
 30
0.0
 11
167.6479999999999
 21
22.0
 31
0.0
  0
LINE
  5
266
330
1E
100
AcDbEntity
  8
0
100
AcDbLine
 10
159.9639999999999
 20
22.0
 30
0.0
 11
163.5679999999999
 21
22.0
 31
0.0
  0
LINE
  5
267
330
1E
100
AcDbEntity
  8
0
100
AcDbLine
 10
167.6479999999999
 20
22.0
 30
0.0
 11
172.0
 21
22.0
 31
0.0
  0
LINE
  5
268
330
1E
100
AcDbEntity
  8
0
100
AcDbLine
 10
176.3519999999999
 20
22.0
 30
0.0
 11
180.432
 21
22.0
 31
0.0
  0
LINE
  5
269
330
1E
100
AcDbEntity
  8
0
100
AcDbLine
 10
172.0
 20
22.0
 30
0.0
 11
177.12
 21
22.0
 31
0.0
  0
LINE
  5
26A
330
1E
100
AcDbEntity
  8
0
100
AcDbLine
 10
172.0
 20
22.0
 30
0.0
 11
176.3519999999999
 21
22.0
 31
0.0
  0
LINE
  5
26B
330
1E
100
AcDbEntity
  8
0
100
AcDbLine
 10
177.12
 20
22.0
 30
0.0
 11
181.92
 21
22.0
 31
0.0
  0
LINE
  5
26C
330
1E
100
AcDbEntity
  8
0
100
AcDbLine
 10
172.0
 20
24.0
 30
0.0
 11
177.12
 21
24.0
 31
0.0
  0
LINE
  5
26D
330
1E
100
AcDbEntity
  8
0
100
AcDbLine
 10
180.432
 20
22.0
 30
0.0
 11
184.0359999999999
 21
22.0
 31
0.0
  0
LINE
  5
26E
330
1E
100
AcDbEntity
  8
0
100
AcDbLine
 10
181.92
 20
22.0
 30
0.0
 11
186.1599999999999
 21
22.0
 31
0.0
  0
LINE
  5
26F
330
1E
100
AcDbEntity
  8
0
100
AcDbLine
 10
177.12
 20
24.0
 30
0.0
 11
181.92
 21
24.0
 31
0.0
  0
LINE
  5
270
330
1E
100
AcDbEntity
  8
0
100
AcDbLine
 10
181.92
 20
24.0
 30
0.0
 11
186.1599999999999
 21
24.0
 31
0.0
  0
LINE
  5
271
330
1E
100
AcDbEntity
  8
0
100
AcDbLine
 10
166.88
 20
24.0
 30
0.0
 11
172.0
 21
24.0
 31
0.0
  0
LINE
  5
272
330
1E
100
AcDbEntity
  8
0
100
AcDbLine
 10
162.08
 20
24.0
 30
0.0
 11
166.88
 21
24.0
 31
0.0
  0
LINE
  5
273
330
1E
100
AcDbEntity
  8
0
100
AcDbLine
 10
157.84
 20
24.0
 30
0.0
 11
162.08
 21
24.0
 31
0.0
  0
LINE
  5
274
330
1E
100
AcDbEntity
  8
0
100
AcDbLine
 10
154.64
 20
24.0
 30
0.0
 11
157.84
 21
24.0
 31
0.0
  0
LINE
  5
275
330
1E
100
AcDbEntity
  8
0
100
AcDbLine
 10
152.72
 20
24.0
 30
0.0
 11
154.64
 21
24.0
 31
0.0
  0
LINE
  5
276
330
1E
100
AcDbEntity
  8
0
100
AcDbLine
 10
166.88
 20
27.3963
 30
0.0
 11
172.0
 21
27.65
 31
0.0
  0
LINE
  5
277
330
1E
100
AcDbEntity
  8
0
100
AcDbLine
 10
162.08
 20
26.7401
 30
0.0
 11
166.88
 21
27.3963
 31
0.0
  0
LINE
  5
278
330
1E
100
AcDbEntity
  8
0
100
AcDbLine
 10
157.84
 20
25.8896
 30
0.0
 11
162.08
 21
26.7401
 31
0.0
  0
LINE
  5
279
330
1E
100
AcDbEntity
  8
0
100
AcDbLine
 10
154.64
 20
25.0876
 30
0.0
 11
157.84
 21
25.8896
 31
0.0
  0
LINE
  5
27A
330
1E
100
AcDbEntity
  8
0
100
AcDbLine
 10
152.72
 20
24.4072
 30
0.0
 11
154.64
 21
25.0876
 31
0.0
  0
LINE
  5
27B
330
1E
100
AcDbEntity
  8
0
100
AcDbLine
 10
166.88
 20
65.72
 30
0.0
 11
172.0
 21
65.0
 31
0.0
  0
LINE
  5
27C
330
1E
100
AcDbEntity
  8
0
100
AcDbLine
 10
172.0
 20
27.65
 30
0.0
 11
177.12
 21
27.3963
 31
0.0
  0
LINE
  5
27D
330
1E
100
AcDbEntity
  8
0
100
AcDbLine
 10
177.12
 20
27.3963
 30
0.0
 11
181.92
 21
26.7401
 31
0.0
  0
LINE
  5
27E
330
1E
100
AcDbEntity
  8
0
100
AcDbLine
 10
181.92
 20
26.7401
 30
0.0
 11
188.1163092269329
 21
25.3993
 31
0.0
  0
LINE
  5
27F
330
1E
100
AcDbEntity
  8
0
100
AcDbLine
 10
172.0
 20
65.0
 30
0.0
 11
177.12
 21
65.69580000000001
 31
0.0
  0
LINE
  5
281
330
1E
100
AcDbEntity
  8
0
100
AcDbLine
 10
177.12
 20
65.69580000000001
 30
0.0
 11
181.92
 21
67.6389
 31
0.0
  0
LINE
  5
283
330
1E
100
AcDbEntity
  8
0
100
AcDbLine
 10
152.0
 20
24.0
 30
0.0
 11
152.72
 21
24.0
 31
0.0
  0
LINE
  5
284
330
1E
100
AcDbEntity
  8
0
100
AcDbLine
 10
152.0
 20
24.0
 30
0.0
 11
152.72
 21
24.4072
 31
0.0
  0
LINE
  5
285
330
1E
100
AcDbEntity
  8
0
100
AcDbLine
 10
125.0
 20
24.0
 30
0.0
 11
152.0
 21
24.0
 31
0.0
  0
LINE
  5
286
330
1E
100
AcDbEntity
  8
0
100
AcDbLine
 10
121.0
 20
68.87199999999999
 30
0.0
 11
121.0
 21
61.06
 31
0.0
  0
LINE
  5
287
330
1E
100
AcDbEntity
  8
0
100
AcDbLine
 10
121.0
 20
68.87199999999999
 30
0.0
 11
121.0
 21
76.684
 31
0.0
  0
LINE
  5
288
330
1E
100
AcDbEntity
  8
0
100
AcDbLine
 10
157.84
 20
70.84
 30
0.0
 11
162.08
 21
67.64
 31
0.0
  0
LINE
  5
289
330
1E
100
AcDbEntity
  8
0
100
AcDbLine
 10
181.92
 20
67.6389
 30
0.0
 11
186.1599999999999
 21
70.8207
 31
0.0
  0
LINE
  5
28A
330
1E
100
AcDbEntity
  8
0
100
AcDbLine
 10
167.6479999999999
 20
68.612
 30
0.0
 11
172.0
 21
68.0
 31
0.0
  0
LINE
  5
28B
330
1E
100
AcDbEntity
  8
0
100
AcDbLine
 10
172.0
 20
68.0
 30
0.0
 11
176.3519999999999
 21
68.612
 31
0.0
  0
LINE
  5
28C
330
1E
100
AcDbEntity
  8
0
100
AcDbLine
 10
163.5679999999999
 20
70.24399999999999
 30
0.0
 11
167.6479999999999
 21
68.612
 31
0.0
  0
LINE
  5
28E
330
1E
100
AcDbEntity
  8
0
100
AcDbLine
 10
176.3519999999999
 20
68.612
 30
0.0
 11
180.432
 21
70.24399999999999
 31
0.0
  0
LINE
  5
28F
330
1E
100
AcDbEntity
  8
0
100
AcDbLine
 10
172.0
 20
70.42860000000001
 30
0.0
 11
175.7303
 21
70.95310000000001
 31
0.0
  0
LINE
  5
290
330
1E
100
AcDbEntity
  8
0
100
AcDbLine
 10
180.432
 20
70.24399999999999
 30
0.0
 11
184.0359999999999
 21
72.964
 31
0.0
  0
LINE
  5
291
330
1E
100
AcDbEntity
  8
0
100
AcDbLine
 10
162.08
 20
67.64
 30
0.0
 11
166.88
 21
65.72
 31
0.0
  0
LINE
  5
296
330
1E
100
AcDbEntity
  8
0
100
AcDbLine
 10
184.0359999999999
 20
22.0
 30
0.0
 11
186.7559999999999
 21
22.0
 31
0.0
  0
LINE
  5
297
330
1E
100
AcDbEntity
  8
0
100
AcDbLine
 10
186.1599999999999
 20
22.0
 30
0.0
 11
189.36
 21
22.0
 31
0.0
  0
LINE
  5
298
330
1E
100
AcDbEntity
  8
0
100
AcDbLine
 10
189.36
 20
22.0
 30
0.0
 11
191.28
 21
22.0
 31
0.0
  0
LINE
  5
299
330
1E
100
AcDbEntity
  8
0
100
AcDbLine
 10
186.7559999999999
 20
22.0
 30
0.0
 11
188.3879999999999
 21
22.0
 31
0.0
  0
LINE
  5
29A
330
1E
100
AcDbEntity
  8
0
100
AcDbLine
 10
188.3879999999999
 20
22.0
 30
0.0
 11
189.0
 21
22.0
 31
0.0
  0
LINE
  5
29B
330
1E
100
AcDbEntity
  8
0
100
AcDbLine
 10
186.1599999999999
 20
24.0
 30
0.0
 11
189.36
 21
24.0
 31
0.0
  0
LINE
  5
2E0
330
1E
100
AcDbEntity
  8
0
100
AcDbLine
 10
188.1163092269329
 20
25.3993
 30
0.0
 11
189.36
 21
25.0876
 31
0.0
  0
LINE
  5
2E1
330
1E
100
AcDbEntity
  8
0
100
AcDbLine
 10
189.36
 20
25.0876
 30
0.0
 11
191.28
 21
24.4072
 31
0.0
  0
LINE
  5
2E2
330
1E
100
AcDbEntity
  8
0
100
AcDbLine
 10
189.36
 20
24.0
 30
0.0
 11
191.28
 21
24.0
 31
0.0
  0
LINE
  5
2E3
330
1E
100
AcDbEntity
  8
0
100
AcDbLine
 10
186.1599999999999
 20
70.84
 30
0.0
 11
189.36
 21
75.08
 31
0.0
  0
LINE
  5
2E4
330
1E
100
AcDbEntity
  8
0
100
AcDbLine
 10
186.1599999999999
 20
70.8207
 30
0.0
 11
189.36
 21
75.0713
 31
0.0
  0
LINE
  5
2E6
330
1E
100
AcDbEntity
  8
0
100
AcDbLine
 10
152.72
 20
79.87999999999999
 30
0.0
 11
154.64
 21
75.08
 31
0.0
  0
LINE
  5
2E7
330
1E
100
AcDbEntity
  8
0
100
AcDbLine
 10
121.0
 20
76.684
 30
0.0
 11
121.0
 21
68.87199999999999
 31
0.0
  0
LINE
  5
2E8
330
1E
100
AcDbEntity
  8
0
100
AcDbLine
 10
121.0
 20
76.684
 30
0.0
 11
121.0
 21
85.0
 31
0.0
  0
LINE
  5
2E9
330
1E
100
AcDbEntity
  8
0
100
AcDbLine
 10
168.2697
 20
70.95310000000001
 30
0.0
 11
172.0
 21
70.42860000000001
 31
0.0
  0
LINE
  5
2EA
330
1E
100
AcDbEntity
  8
0
100
AcDbLine
 10
164.7726
 20
72.352
 30
0.0
 11
168.2697
 21
70.95310000000001
 31
0.0
  0
LINE
  5
2EB
330
1E
100
AcDbEntity
  8
0
100
AcDbLine
 10
175.7303
 20
70.95310000000001
 30
0.0
 11
179.2273999999999
 21
72.352
 31
0.0
  0
LINE
  5
2EC
330
1E
100
AcDbEntity
  8
0
100
AcDbLine
 10
159.9639999999999
 20
72.964
 30
0.0
 11
163.5679999999999
 21
70.24399999999999
 31
0.0
  0
LINE
  5
2ED
330
1E
100
AcDbEntity
  8
0
100
AcDbLine
 10
161.6834
 20
74.68340000000001
 30
0.0
 11
164.7726
 21
72.352
 31
0.0
  0
LINE
  5
2EE
330
1E
100
AcDbEntity
  8
0
100
AcDbLine
 10
184.0359999999999
 20
72.964
 30
0.0
 11
186.7559999999999
 21
76.568
 31
0.0
  0
LINE
  5
2EF
330
1E
100
AcDbEntity
  8
0
100
AcDbLine
 10
182.3166
 20
74.68340000000001
 30
0.0
 11
184.6479999999999
 21
77.7726
 31
0.0
  0
LINE
  5
2F0
330
1E
100
AcDbEntity
  8
0
100
AcDbLine
 10
179.2273999999999
 20
72.352
 30
0.0
 11
182.3166
 21
74.68340000000001
 31
0.0
  0
LINE
  5
2F1
330
1E
100
AcDbEntity
  8
0
100
AcDbLine
 10
189.36
 20
75.0713
 30
0.0
 11
191.28
 21
79.8561
 31
0.0
  0
LINE
  5
2F2
330
1E
100
AcDbEntity
  8
0
100
AcDbLine
 10
157.244
 20
76.568
 30
0.0
 11
159.9639999999999
 21
72.964
 31
0.0
  0
LINE
  5
2F3
330
1E
100
AcDbEntity
  8
0
100
AcDbLine
 10
154.64
 20
75.08
 30
0.0
 11
157.84
 21
70.84
 31
0.0
  0
LINE
  5
2F4
330
1E
100
AcDbEntity
  8
0
100
AcDbLine
 10
159.352
 20
77.7726
 30
0.0
 11
161.6834
 21
74.68340000000001
 31
0.0
  0
LINE
  5
2F5
330
1E
100
AcDbEntity
  8
0
100
AcDbLine
 10
186.7559999999999
 20
76.568
 30
0.0
 11
188.3879999999999
 21
80.64799999999999
 31
0.0
  0
LINE
  5
2F6
330
1E
100
AcDbEntity
  8
0
100
AcDbLine
 10
184.6479999999999
 20
77.7726
 30
0.0
 11
186.047
 21
81.2697
 31
0.0
  0
LINE
  5
2F8
330
1E
100
AcDbEntity
  8
0
100
AcDbLine
 10
152.72
 20
79.8561
 30
0.0
 11
154.64
 21
75.0713
 31
0.0
  0
LINE
  5
2F9
330
1E
100
AcDbEntity
  8
0
100
AcDbLine
 10
186.1599999999999
 20
70.84
 30
0.0
 11
189.36
 21
75.08
 31
0.0
  0
LINE
  5
2FA
330
1E
100
AcDbEntity
  8
0
100
AcDbLine
 10
191.28
 20
22.0
 30
0.0
 11
192.0
 21
22.0
 31
0.0
  0
LINE
  5
2FB
330
1E
100
AcDbEntity
  8
0
100
AcDbLine
 10
192.0
 20
22.0
 30
0.0
 11
192.0
 21
24.0
 31
0.0
  0
LINE
  5
2FC
330
1E
100
AcDbEntity
  8
0
100
AcDbLine
 10
194.0
 20
24.0
 30
0.0
 11
194.0
 21
24.6421
 31
0.0
  0
LINE
  5
2FD
330
1E
100
AcDbEntity
  8
0
100
AcDbLine
 10
191.28
 20
24.0
 30
0.0
 11
192.0
 21
24.0
 31
0.0
  0
LINE
  5
2FE
330
1E
100
AcDbEntity
  8
0
100
AcDbLine
 10
194.0
 20
25.3993
 30
0.0
 11
194.0
 21
25.65129999999999
 31
0.0
  0
LINE
  5
2FF
330
1E
100
AcDbEntity
  8
0
100
AcDbLine
 10
194.0
 20
25.3993
 30
0.0
 11
194.0
 21
24.6421
 31
0.0
  0
LINE
  5
300
330
1E
100
AcDbEntity
  8
0
100
AcDbLine
 10
194.0
 20
25.65129999999999
 30
0.0
 11
194.0
 21
26.3233
 31
0.0
  0
LINE
  5
301
330
1E
100
AcDbEntity
  8
0
100
AcDbLine
 10
194.0
 20
25.65129999999999
 30
0.0
 11
194.0
 21
25.3993
 31
0.0
  0
LINE
  5
302
330
1E
100
AcDbEntity
  8
0
100
AcDbLine
 10
194.0
 20
26.3233
 30
0.0
 11
194.0
 21
27.4433
 31
0.0
  0
LINE
  5
303
330
1E
100
AcDbEntity
  8
0
100
AcDbLine
 10
194.0
 20
26.3233
 30
0.0
 11
194.0
 21
25.65129999999999
 31
0.0
  0
LINE
  5
304
330
1E
100
AcDbEntity
  8
0
100
AcDbLine
 10
194.0
 20
27.4433
 30
0.0
 11
194.0
 21
28.9273
 31
0.0
  0
LINE
  5
305
330
1E
100
AcDbEntity
  8
0
100
AcDbLine
 10
194.0
 20
27.4433
 30
0.0
 11
194.0
 21
26.3233
 31
0.0
  0
LINE
  5
306
330
1E
100
AcDbEntity
  8
0
100
AcDbLine
 10
194.0
 20
28.9273
 30
0.0
 11
194.0
 21
30.60729999999999
 31
0.0
  0
LINE
  5
307
330
1E
100
AcDbEntity
  8
0
100
AcDbLine
 10
194.0
 20
28.9273
 30
0.0
 11
194.0
 21
27.4433
 31
0.0
  0
LINE
  5
308
330
1E
100
AcDbEntity
  8
0
100
AcDbLine
 10
194.0
 20
38.47529999999999
 30
0.0
 11
194.0
 21
37.3553
 31
0.0
  0
LINE
  5
309
330
1E
100
AcDbEntity
  8
0
100
AcDbLine
 10
194.0
 20
38.47529999999999
 30
0.0
 11
194.0
 21
54.4105
 31
0.0
  0
LINE
  5
30A
330
1E
100
AcDbEntity
  8
0
100
AcDbLine
 10
194.0
 20
37.3553
 30
0.0
 11
194.0
 21
35.8713
 31
0.0
  0
LINE
  5
30B
330
1E
100
AcDbEntity
  8
0
100
AcDbLine
 10
194.0
 20
37.3553
 30
0.0
 11
194.0
 21
38.47529999999999
 31
0.0
  0
LINE
  5
30C
330
1E
100
AcDbEntity
  8
0
100
AcDbLine
 10
194.0
 20
35.8713
 30
0.0
 11
194.0
 21
34.1913
 31
0.0
  0
LINE
  5
30D
330
1E
100
AcDbEntity
  8
0
100
AcDbLine
 10
194.0
 20
35.8713
 30
0.0
 11
194.0
 21
37.3553
 31
0.0
  0
LINE
  5
30E
330
1E
100
AcDbEntity
  8
0
100
AcDbLine
 10
194.0
 20
34.1913
 30
0.0
 11
194.0
 21
32.39929999999999
 31
0.0
  0
LINE
  5
30F
330
1E
100
AcDbEntity
  8
0
100
AcDbLine
 10
194.0
 20
34.1913
 30
0.0
 11
194.0
 21
35.8713
 31
0.0
  0
LINE
  5
310
330
1E
100
AcDbEntity
  8
0
100
AcDbLine
 10
194.0
 20
32.39929999999999
 30
0.0
 11
194.0
 21
30.60729999999999
 31
0.0
  0
LINE
  5
311
330
1E
100
AcDbEntity
  8
0
100
AcDbLine
 10
194.0
 20
32.39929999999999
 30
0.0
 11
194.0
 21
34.1913
 31
0.0
  0
LINE
  5
312
330
1E
100
AcDbEntity
  8
0
100
AcDbLine
 10
194.0
 20
30.60729999999999
 30
0.0
 11
194.0
 21
32.39929999999999
 31
0.0
  0
LINE
  5
313
330
1E
100
AcDbEntity
  8
0
100
AcDbLine
 10
194.0
 20
30.60729999999999
 30
0.0
 11
194.0
 21
28.9273
 31
0.0
  0
LINE
  5
314
330
1E
100
AcDbEntity
  8
0
100
AcDbLine
 10
194.0
 20
24.6421
 30
0.0
 11
194.0
 21
25.3993
 31
0.0
  0
LINE
  5
315
330
1E
100
AcDbEntity
  8
0
100
AcDbLine
 10
194.0
 20
24.6421
 30
0.0
 11
194.0
 21
24.0
 31
0.0
  0
LINE
  5
316
330
1E
100
AcDbEntity
  8
0
100
AcDbLine
 10
191.28
 20
24.4072
 30
0.0
 11
192.0
 21
24.0
 31
0.0
  0
LINE
  5
317
330
1E
100
AcDbEntity
  8
0
100
AcDbLine
 10
194.0
 20
54.4105
 30
0.0
 11
194.0
 21
54.62839999999999
 31
0.0
  0
LINE
  5
318
330
1E
100
AcDbEntity
  8
0
100
AcDbLine
 10
194.0
 20
54.4105
 30
0.0
 11
194.0
 21
38.47529999999999
 31
0.0
  0
LINE
  5
319
330
1E
100
AcDbEntity
  8
0
100
AcDbLine
 10
191.28
 20
79.87999999999999
 30
0.0
 11
192.0
 21
85.0
 31
0.0
  0
LINE
  5
31A
330
1E
100
AcDbEntity
  8
0
100
AcDbLine
 10
194.0
 20
69.2684
 30
0.0
 11
194.0
 21
77.03789999999999
 31
0.0
  0
LINE
  5
31B
330
1E
100
AcDbEntity
  8
0
100
AcDbLine
 10
194.0
 20
69.2684
 30
0.0
 11
194.0
 21
61.6916
 31
0.0
  0
LINE
  5
31C
330
1E
100
AcDbEntity
  8
0
100
AcDbLine
 10
194.0
 20
77.03789999999999
 30
0.0
 11
194.0
 21
85.0
 31
0.0
  0
LINE
  5
31D
330
1E
100
AcDbEntity
  8
0
100
AcDbLine
 10
194.0
 20
77.03789999999999
 30
0.0
 11
194.0
 21
69.2684
 31
0.0
  0
LINE
  5
31E
330
1E
100
AcDbEntity
  8
0
100
AcDbLine
 10
191.28
 20
79.8561
 30
0.0
 11
192.0
 21
85.0
 31
0.0
  0
LINE
  5
31F
330
1E
100
AcDbEntity
  8
0
100
AcDbLine
 10
194.0
 20
54.62839999999999
 30
0.0
 11
194.0
 21
54.4105
 31
0.0
  0
LINE
  5
320
330
1E
100
AcDbEntity
  8
0
100
AcDbLine
 10
194.0
 20
54.62839999999999
 30
0.0
 11
194.0
 21
61.6916
 31
0.0
  0
LINE
  5
321
330
1E
100
AcDbEntity
  8
0
100
AcDbLine
 10
194.0
 20
61.6916
 30
0.0
 11
194.0
 21
54.62839999999999
 31
0.0
  0
LINE
  5
322
330
1E
100
AcDbEntity
  8
0
100
AcDbLine
 10
194.0
 20
61.6916
 30
0.0
 11
194.0
 21
69.2684
 31
0.0
  0
LINE
  5
323
330
1E
100
AcDbEntity
  8
0
100
AcDbLine
 10
192.0
 20
24.0
 30
0.0
 11
194.0
 21
24.0
 31
0.0
  0
LINE
  5
324
330
1E
100
AcDbEntity
  8
0
100
AcDbLine
 10
192.0
 20
24.0
 30
0.0
 11
192.0
 21
22.0
 31
0.0
  0
LINE
  5
325
330
1E
100
AcDbEntity
  8
0
100
AcDbLine
 10
189.36
 20
75.08
 30
0.0
 11
191.28
 21
79.87999999999999
 31
0.0
  0
LINE
  5
326
330
1E
100
AcDbEntity
  8
0
100
AcDbLine
 10
189.36
 20
75.08
 30
0.0
 11
191.28
 21
79.87999999999999
 31
0.0
  0
LINE
  5
327
330
1E
100
AcDbEntity
  8
0
100
AcDbLine
 10
121.0
 20
81.0954
 30
0.0
 11
121.0
 21
81.23940000000001
 31
0.0
  0
LINE
  5
328
330
1E
100
AcDbEntity
  8
0
100
AcDbLine
 10
121.0
 20
84.0
 30
0.0
 11
121.0
 21
86.0
 31
0.0
  0
LINE
  5
329
330
1E
100
AcDbEntity
  8
0
100
AcDbLine
 10
121.0
 20
84.0714
 30
0.0
 11
121.0
 21
83.11139999999999
 31
0.0
  0
LINE
  5
32A
330
1E
100
AcDbEntity
  8
0
100
AcDbLine
 10
121.0
 20
84.0714
 30
0.0
 11
121.0
 21
85.09539999999999
 31
0.0
  0
LINE
  5
32B
330
1E
100
AcDbEntity
  8
0
100
AcDbLine
 10
121.0
 20
83.11139999999999
 30
0.0
 11
121.0
 21
82.2634
 31
0.0
  0
LINE
  5
32C
330
1E
100
AcDbEntity
  8
0
100
AcDbLine
 10
121.0
 20
83.11139999999999
 30
0.0
 11
121.0
 21
84.0714
 31
0.0
  0
LINE
  5
32D
330
1E
100
AcDbEntity
  8
0
100
AcDbLine
 10
121.0
 20
82.2634
 30
0.0
 11
121.0
 21
81.6234
 31
0.0
  0
LINE
  5
32E
330
1E
100
AcDbEntity
  8
0
100
AcDbLine
 10
121.0
 20
82.2634
 30
0.0
 11
121.0
 21
83.11139999999999
 31
0.0
  0
LINE
  5
32F
330
1E
100
AcDbEntity
  8
0
100
AcDbLine
 10
121.0
 20
81.6234
 30
0.0
 11
121.0
 21
81.23940000000001
 31
0.0
  0
LINE
  5
330
330
1E
100
AcDbEntity
  8
0
100
AcDbLine
 10
121.0
 20
81.6234
 30
0.0
 11
121.0
 21
82.2634
 31
0.0
  0
LINE
  5
331
330
1E
100
AcDbEntity
  8
0
100
AcDbLine
 10
121.0
 20
81.23940000000001
 30
0.0
 11
121.0
 21
81.0954
 31
0.0
  0
LINE
  5
332
330
1E
100
AcDbEntity
  8
0
100
AcDbLine
 10
121.0
 20
81.23940000000001
 30
0.0
 11
121.0
 21
81.6234
 31
0.0
  0
LINE
  5
333
330
1E
100
AcDbEntity
  8
0
100
AcDbLine
 10
121.0
 20
86.0
 30
0.0
 11
121.0
 21
84.0
 31
0.0
  0
LINE
  5
334
330
1E
100
AcDbEntity
  8
0
100
AcDbLine
 10
121.0
 20
86.1194
 30
0.0
 11
121.0
 21
85.09539999999999
 31
0.0
  0
LINE
  5
335
330
1E
100
AcDbEntity
  8
0
100
AcDbLine
 10
121.0
 20
86.1194
 30
0.0
 11
121.0
 21
87.0794
 31
0.0
  0
LINE
  5
336
330
1E
100
AcDbEntity
  8
0
100
AcDbLine
 10
121.0
 20
87.0794
 30
0.0
 11
121.0
 21
86.1194
 31
0.0
  0
LINE
  5
337
330
1E
100
AcDbEntity
  8
0
100
AcDbLine
 10
121.0
 20
87.0794
 30
0.0
 11
121.0
 21
87.9274
 31
0.0
  0
LINE
  5
338
330
1E
100
AcDbEntity
  8
0
100
AcDbLine
 10
121.0
 20
87.9274
 30
0.0
 11
121.0
 21
87.0794
 31
0.0
  0
LINE
  5
339
330
1E
100
AcDbEntity
  8
0
100
AcDbLine
 10
121.0
 20
87.9274
 30
0.0
 11
121.0
 21
88.5674
 31
0.0
  0
LINE
  5
33A
330
1E
100
AcDbEntity
  8
0
100
AcDbLine
 10
121.0
 20
88.5674
 30
0.0
 11
121.0
 21
87.9274
 31
0.0
  0
LINE
  5
33B
330
1E
100
AcDbEntity
  8
0
100
AcDbLine
 10
121.0
 20
88.5674
 30
0.0
 11
121.0
 21
88.95140000000001
 31
0.0
  0
LINE
  5
33C
330
1E
100
AcDbEntity
  8
0
100
AcDbLine
 10
121.0
 20
88.95140000000001
 30
0.0
 11
121.0
 21
88.5674
 31
0.0
  0
LINE
  5
33D
330
1E
100
AcDbEntity
  8
0
100
AcDbLine
 10
121.0
 20
88.95140000000001
 30
0.0
 11
121.0
 21
89.09539999999999
 31
0.0
  0
LINE
  5
33E
330
1E
100
AcDbEntity
  8
0
100
AcDbLine
 10
121.0
 20
89.09539999999999
 30
0.0
 11
121.0
 21
88.95140000000001
 31
0.0
  0
LINE
  5
33F
330
1E
100
AcDbEntity
  8
0
100
AcDbLine
 10
121.0
 20
85.09539999999999
 30
0.0
 11
121.0
 21
84.0714
 31
0.0
  0
LINE
  5
340
330
1E
100
AcDbEntity
  8
0
100
AcDbLine
 10
121.0
 20
85.09539999999999
 30
0.0
 11
121.0
 21
86.1194
 31
0.0
  0
LINE
  5
341
330
1E
100
AcDbEntity
  8
0
100
AcDbLine
 10
121.0
 20
104.516
 30
0.0
 11
121.0
 21
106.4756999999999
 31
0.0
  0
LINE
  5
342
330
1E
100
AcDbEntity
  8
0
100
AcDbLine
 10
121.0
 20
104.516
 30
0.0
 11
121.0
 21
106.584
 31
0.0
  0
LINE
  5
343
330
1E
100
AcDbEntity
  8
0
100
AcDbLine
 10
121.0
 20
106.584
 30
0.0
 11
121.0
 21
104.516
 31
0.0
  0
LINE
  5
344
330
1E
100
AcDbEntity
  8
0
100
AcDbLine
 10
121.0
 20
106.584
 30
0.0
 11
121.0
 21
108.4461
 31
0.0
  0
LINE
  5
345
330
1E
100
AcDbEntity
  8
0
100
AcDbLine
 10
121.0
 20
106.4756999999999
 30
0.0
 11
121.0
 21
108.4461
 31
0.0
  0
LINE
  5
346
330
1E
100
AcDbEntity
  8
0
100
AcDbLine
 10
121.0
 20
106.4756999999999
 30
0.0
 11
121.0
 21
104.516
 31
0.0
  0
LINE
  5
347
330
1E
100
AcDbEntity
  8
0
100
AcDbLine
 10
121.0
 20
108.4461
 30
0.0
 11
121.0
 21
106.584
 31
0.0
  0
LINE
  5
348
330
1E
100
AcDbEntity
  8
0
100
AcDbLine
 10
121.0
 20
108.4461
 30
0.0
 11
121.0
 21
106.4756999999999
 31
0.0
  0
LINE
  5
349
330
1E
100
AcDbEntity
  8
0
100
AcDbLine
 10
121.0
 20
107.8259999999999
 30
0.0
 11
121.0
 21
108.85
 31
0.0
  0
LINE
  5
34A
330
1E
100
AcDbEntity
  8
0
100
AcDbLine
 10
121.0
 20
107.8259999999999
 30
0.0
 11
121.0
 21
106.8659999999999
 31
0.0
  0
LINE
  5
34B
330
1E
100
AcDbEntity
  8
0
100
AcDbLine
 10
121.0
 20
106.8659999999999
 30
0.0
 11
121.0
 21
107.8259999999999
 31
0.0
  0
LINE
  5
34C
330
1E
100
AcDbEntity
  8
0
100
AcDbLine
 10
121.0
 20
106.8659999999999
 30
0.0
 11
121.0
 21
106.0179999999999
 31
0.0
  0
LINE
  5
34D
330
1E
100
AcDbEntity
  8
0
100
AcDbLine
 10
121.0
 20
106.0179999999999
 30
0.0
 11
121.0
 21
106.8659999999999
 31
0.0
  0
LINE
  5
34E
330
1E
100
AcDbEntity
  8
0
100
AcDbLine
 10
121.0
 20
106.0179999999999
 30
0.0
 11
121.0
 21
105.3779999999999
 31
0.0
  0
LINE
  5
34F
330
1E
100
AcDbEntity
  8
0
100
AcDbLine
 10
121.0
 20
105.3779999999999
 30
0.0
 11
121.0
 21
106.0179999999999
 31
0.0
  0
LINE
  5
350
330
1E
100
AcDbEntity
  8
0
100
AcDbLine
 10
121.0
 20
105.3779999999999
 30
0.0
 11
121.0
 21
104.994
 31
0.0
  0
LINE
  5
351
330
1E
100
AcDbEntity
  8
0
100
AcDbLine
 10
121.0
 20
104.994
 30
0.0
 11
121.0
 21
105.3779999999999
 31
0.0
  0
LINE
  5
352
330
1E
100
AcDbEntity
  8
0
100
AcDbLine
 10
121.0
 20
104.994
 30
0.0
 11
121.0
 21
104.8499999999999
 31
0.0
  0
LINE
  5
353
330
1E
100
AcDbEntity
  8
0
100
AcDbLine
 10
121.0
 20
104.8499999999999
 30
0.0
 11
121.0
 21
104.994
 31
0.0
  0
LINE
  5
354
330
1E
100
AcDbEntity
  8
0
100
AcDbLine
 10
121.0
 20
108.85
 30
0.0
 11
121.0
 21
109.874
 31
0.0
  0
LINE
  5
355
330
1E
100
AcDbEntity
  8
0
100
AcDbLine
 10
121.0
 20
108.85
 30
0.0
 11
121.0
 21
107.8259999999999
 31
0.0
  0
LINE
  5
356
330
1E
100
AcDbEntity
  8
0
100
AcDbLine
 10
121.0
 20
109.874
 30
0.0
 11
121.0
 21
110.834
 31
0.0
  0
LINE
  5
357
330
1E
100
AcDbEntity
  8
0
100
AcDbLine
 10
121.0
 20
109.874
 30
0.0
 11
121.0
 21
108.85
 31
0.0
  0
LINE
  5
358
330
1E
100
AcDbEntity
  8
0
100
AcDbLine
 10
121.0
 20
111.17
 30
0.0
 11
121.0
 21
112.4279999999999
 31
0.0
  0
LINE
  5
359
330
1E
100
AcDbEntity
  8
0
100
AcDbLine
 10
121.0
 20
111.17
 30
0.0
 11
121.0
 21
120.161
 31
0.0
  0
LINE
  5
35A
330
1E
100
AcDbEntity
  8
0
100
AcDbLine
 10
121.0
 20
110.834
 30
0.0
 11
121.0
 21
111.682
 31
0.0
  0
LINE
  5
35B
330
1E
100
AcDbEntity
  8
0
100
AcDbLine
 10
121.0
 20
110.834
 30
0.0
 11
121.0
 21
109.874
 31
0.0
  0
LINE
  5
35C
330
1E
100
AcDbEntity
  8
0
100
AcDbLine
 10
121.0
 20
111.682
 30
0.0
 11
121.0
 21
112.322
 31
0.0
  0
LINE
  5
35D
330
1E
100
AcDbEntity
  8
0
100
AcDbLine
 10
121.0
 20
111.682
 30
0.0
 11
121.0
 21
110.834
 31
0.0
  0
LINE
  5
35E
330
1E
100
AcDbEntity
  8
0
100
AcDbLine
 10
121.0
 20
112.4279999999999
 30
0.0
 11
121.0
 21
122.858
 31
0.0
  0
LINE
  5
35F
330
1E
100
AcDbEntity
  8
0
100
AcDbLine
 10
121.0
 20
112.4279999999999
 30
0.0
 11
121.0
 21
111.17
 31
0.0
  0
LINE
  5
360
330
1E
100
AcDbEntity
  8
0
100
AcDbLine
 10
121.0
 20
112.85
 30
0.0
 11
121.0
 21
112.7059999999999
 31
0.0
  0
LINE
  5
361
330
1E
100
AcDbEntity
  8
0
100
AcDbLine
 10
121.0
 20
112.322
 30
0.0
 11
121.0
 21
112.7059999999999
 31
0.0
  0
LINE
  5
362
330
1E
100
AcDbEntity
  8
0
100
AcDbLine
 10
121.0
 20
112.322
 30
0.0
 11
121.0
 21
111.682
 31
0.0
  0
LINE
  5
363
330
1E
100
AcDbEntity
  8
0
100
AcDbLine
 10
121.0
 20
112.7059999999999
 30
0.0
 11
121.0
 21
112.85
 31
0.0
  0
LINE
  5
364
330
1E
100
AcDbEntity
  8
0
100
AcDbLine
 10
121.0
 20
112.7059999999999
 30
0.0
 11
121.0
 21
112.322
 31
0.0
  0
LINE
  5
365
330
1E
100
AcDbEntity
  8
0
100
AcDbLine
 10
121.0
 20
109.6999999999999
 30
0.0
 11
121.0
 21
110.4999999999999
 31
0.0
  0
LINE
  5
366
330
1E
100
AcDbEntity
  8
0
100
AcDbLine
 10
121.0
 20
109.6999999999999
 30
0.0
 11
121.0
 21
60.3
 31
0.0
  0
LINE
  5
367
330
1E
100
AcDbEntity
  8
0
100
AcDbLine
 10
121.0
 20
110.4999999999999
 30
0.0
 11
125.0
 21
110.4999999999999
 31
0.0
  0
LINE
  5
368
330
1E
100
AcDbEntity
  8
0
100
AcDbLine
 10
121.0
 20
110.4999999999999
 30
0.0
 11
121.0
 21
160.4999999999999
 31
0.0
  0
LINE
  5
369
330
1E
100
AcDbEntity
  8
0
100
AcDbLine
 10
121.0
 20
110.4999999999999
 30
0.0
 11
121.0
 21
59.5
 31
0.0
  0
LINE
  5
36A
330
1E
100
AcDbEntity
  8
0
100
AcDbLine
 10
121.0
 20
110.4999999999999
 30
0.0
 11
121.0
 21
109.6999999999999
 31
0.0
  0
LINE
  5
36B
330
1E
100
AcDbEntity
  8
0
100
AcDbLine
 10
121.0
 20
120.161
 30
0.0
 11
121.0
 21
111.17
 31
0.0
  0
LINE
  5
36C
330
1E
100
AcDbEntity
  8
0
100
AcDbLine
 10
121.0
 20
120.161
 30
0.0
 11
121.0
 21
122.858
 31
0.0
  0
LINE
  5
36D
330
1E
100
AcDbEntity
  8
0
100
AcDbLine
 10
121.0
 20
122.858
 30
0.0
 11
121.0
 21
120.161
 31
0.0
  0
LINE
  5
36E
330
1E
100
AcDbEntity
  8
0
100
AcDbLine
 10
121.0
 20
122.858
 30
0.0
 11
121.0
 21
112.4279999999999
 31
0.0
  0
LINE
  5
36F
330
1E
100
AcDbEntity
  8
0
100
AcDbLine
 10
121.0
 20
127.479
 30
0.0
 11
121.0
 21
127.6229999999999
 31
0.0
  0
LINE
  5
370
330
1E
100
AcDbEntity
  8
0
100
AcDbLine
 10
121.0
 20
127.6229999999999
 30
0.0
 11
121.0
 21
128.007
 31
0.0
  0
LINE
  5
371
330
1E
100
AcDbEntity
  8
0
100
AcDbLine
 10
121.0
 20
127.6229999999999
 30
0.0
 11
121.0
 21
127.479
 31
0.0
  0
LINE
  5
372
330
1E
100
AcDbEntity
  8
0
100
AcDbLine
 10
121.0
 20
128.007
 30
0.0
 11
121.0
 21
128.647
 31
0.0
  0
LINE
  5
373
330
1E
100
AcDbEntity
  8
0
100
AcDbLine
 10
121.0
 20
128.007
 30
0.0
 11
121.0
 21
127.6229999999999
 31
0.0
  0
LINE
  5
374
330
1E
100
AcDbEntity
  8
0
100
AcDbLine
 10
121.0
 20
128.647
 30
0.0
 11
121.0
 21
129.495
 31
0.0
  0
LINE
  5
375
330
1E
100
AcDbEntity
  8
0
100
AcDbLine
 10
121.0
 20
128.647
 30
0.0
 11
121.0
 21
128.007
 31
0.0
  0
LINE
  5
376
330
1E
100
AcDbEntity
  8
0
100
AcDbLine
 10
121.0
 20
129.495
 30
0.0
 11
121.0
 21
130.455
 31
0.0
  0
LINE
  5
377
330
1E
100
AcDbEntity
  8
0
100
AcDbLine
 10
121.0
 20
129.495
 30
0.0
 11
121.0
 21
128.647
 31
0.0
  0
LINE
  5
378
330
1E
100
AcDbEntity
  8
0
100
AcDbLine
 10
121.0
 20
130.455
 30
0.0
 11
121.0
 21
131.4789999999999
 31
0.0
  0
LINE
  5
379
330
1E
100
AcDbEntity
  8
0
100
AcDbLine
 10
121.0
 20
130.455
 30
0.0
 11
121.0
 21
129.495
 31
0.0
  0
LINE
  5
37A
330
1E
100
AcDbEntity
  8
0
100
AcDbLine
 10
121.0
 20
131.4789999999999
 30
0.0
 11
121.0
 21
132.5029999999999
 31
0.0
  0
LINE
  5
37B
330
1E
100
AcDbEntity
  8
0
100
AcDbLine
 10
121.0
 20
131.4789999999999
 30
0.0
 11
121.0
 21
130.455
 31
0.0
  0
LINE
  5
37C
330
1E
100
AcDbEntity
  8
0
100
AcDbLine
 10
121.0
 20
134.311
 30
0.0
 11
121.0
 21
133.4629999999999
 31
0.0
  0
LINE
  5
37D
330
1E
100
AcDbEntity
  8
0
100
AcDbLine
 10
121.0
 20
134.311
 30
0.0
 11
121.0
 21
134.9509999999999
 31
0.0
  0
LINE
  5
37E
330
1E
100
AcDbEntity
  8
0
100
AcDbLine
 10
121.0
 20
133.4629999999999
 30
0.0
 11
121.0
 21
132.5029999999999
 31
0.0
  0
LINE
  5
37F
330
1E
100
AcDbEntity
  8
0
100
AcDbLine
 10
121.0
 20
133.4629999999999
 30
0.0
 11
121.0
 21
134.311
 31
0.0
  0
LINE
  5
380
330
1E
100
AcDbEntity
  8
0
100
AcDbLine
 10
121.0
 20
132.5029999999999
 30
0.0
 11
121.0
 21
131.4789999999999
 31
0.0
  0
LINE
  5
381
330
1E
100
AcDbEntity
  8
0
100
AcDbLine
 10
121.0
 20
132.5029999999999
 30
0.0
 11
121.0
 21
133.4629999999999
 31
0.0
  0
LINE
  5
382
330
1E
100
AcDbEntity
  8
0
100
AcDbLine
 10
121.0
 20
133.8379999999999
 30
0.0
 11
121.0
 21
135.186
 31
0.0
  0
LINE
  5
383
330
1E
100
AcDbEntity
  8
0
100
AcDbLine
 10
121.0
 20
133.8379999999999
 30
0.0
 11
121.0
 21
157.5629999999999
 31
0.0
  0
LINE
  5
384
330
1E
100
AcDbEntity
  8
0
100
AcDbLine
 10
121.0
 20
134.9509999999999
 30
0.0
 11
121.0
 21
134.311
 31
0.0
  0
LINE
  5
385
330
1E
100
AcDbEntity
  8
0
100
AcDbLine
 10
121.0
 20
134.9509999999999
 30
0.0
 11
121.0
 21
135.335
 31
0.0
  0
LINE
  5
386
330
1E
100
AcDbEntity
  8
0
100
AcDbLine
 10
121.0
 20
135.4789999999999
 30
0.0
 11
121.0
 21
135.335
 31
0.0
  0
LINE
  5
387
330
1E
100
AcDbEntity
  8
0
100
AcDbLine
 10
121.0
 20
135.335
 30
0.0
 11
121.0
 21
134.9509999999999
 31
0.0
  0
LINE
  5
388
330
1E
100
AcDbEntity
  8
0
100
AcDbLine
 10
121.0
 20
135.335
 30
0.0
 11
121.0
 21
135.4789999999999
 31
0.0
  0
LINE
  5
389
330
1E
100
AcDbEntity
  8
0
100
AcDbLine
 10
121.0
 20
135.186
 30
0.0
 11
121.0
 21
156.3039999999999
 31
0.0
  0
LINE
  5
38A
330
1E
100
AcDbEntity
  8
0
100
AcDbLine
 10
121.0
 20
135.186
 30
0.0
 11
121.0
 21
133.8379999999999
 31
0.0
  0
LINE
  5
38B
330
1E
100
AcDbEntity
  8
0
100
AcDbLine
 10
121.0
 20
142.645
 30
0.0
 11
121.0
 21
143.454
 31
0.0
  0
LINE
  5
38C
330
1E
100
AcDbEntity
  8
0
100
AcDbLine
 10
121.0
 20
142.645
 30
0.0
 11
121.0
 21
153.8149999999999
 31
0.0
  0
LINE
  5
38D
330
1E
100
AcDbEntity
  8
0
100
AcDbLine
 10
121.0
 20
134.896
 30
0.0
 11
121.0
 21
129.352
 31
0.0
  0
LINE
  5
38E
330
1E
100
AcDbEntity
  8
0
100
AcDbLine
 10
121.0
 20
134.896
 30
0.0
 11
121.0
 21
139.684
 31
0.0
  0
LINE
  5
38F
330
1E
100
AcDbEntity
  8
0
100
AcDbLine
 10
121.0
 20
139.684
 30
0.0
 11
121.0
 21
134.896
 31
0.0
  0
LINE
  5
390
330
1E
100
AcDbEntity
  8
0
100
AcDbLine
 10
121.0
 20
139.684
 30
0.0
 11
121.0
 21
142.96
 31
0.0
  0
LINE
  5
391
330
1E
100
AcDbEntity
  8
0
100
AcDbLine
 10
121.0
 20
143.454
 30
0.0
 11
121.0
 21
154.1579999999999
 31
0.0
  0
LINE
  5
392
330
1E
100
AcDbEntity
  8
0
100
AcDbLine
 10
121.0
 20
143.454
 30
0.0
 11
121.0
 21
142.645
 31
0.0
  0
LINE
  5
393
330
1E
100
AcDbEntity
  8
0
100
AcDbLine
 10
121.0
 20
142.96
 30
0.0
 11
121.0
 21
139.684
 31
0.0
  0
LINE
  5
394
330
1E
100
AcDbEntity
  8
0
100
AcDbLine
 10
121.0
 20
142.96
 30
0.0
 11
121.0
 21
145.7319999999999
 31
0.0
  0
LINE
  5
395
330
1E
100
AcDbEntity
  8
0
100
AcDbLine
 10
121.0
 20
145.7319999999999
 30
0.0
 11
121.0
 21
142.96
 31
0.0
  0
LINE
  5
396
330
1E
100
AcDbEntity
  8
0
100
AcDbLine
 10
121.0
 20
145.7319999999999
 30
0.0
 11
121.0
 21
147.2439999999999
 31
0.0
  0
LINE
  5
397
330
1E
100
AcDbEntity
  8
0
100
AcDbLine
 10
121.0
 20
129.352
 30
0.0
 11
121.0
 21
123.304
 31
0.0
  0
LINE
  5
398
330
1E
100
AcDbEntity
  8
0
100
AcDbLine
 10
121.0
 20
129.352
 30
0.0
 11
121.0
 21
134.896
 31
0.0
  0
LINE
  5
399
330
1E
100
AcDbEntity
  8
0
100
AcDbLine
 10
121.0
 20
123.304
 30
0.0
 11
121.0
 21
116.2479999999999
 31
0.0
  0
LINE
  5
39A
330
1E
100
AcDbEntity
  8
0
100
AcDbLine
 10
121.0
 20
123.304
 30
0.0
 11
121.0
 21
129.352
 31
0.0
  0
LINE
  5
39B
330
1E
100
AcDbEntity
  8
0
100
AcDbLine
 10
121.0
 20
116.2479999999999
 30
0.0
 11
121.0
 21
108.9399999999999
 31
0.0
  0
LINE
  5
39C
330
1E
100
AcDbEntity
  8
0
100
AcDbLine
 10
121.0
 20
116.2479999999999
 30
0.0
 11
121.0
 21
123.304
 31
0.0
  0
LINE
  5
39D
330
1E
100
AcDbEntity
  8
0
100
AcDbLine
 10
121.0
 20
108.9399999999999
 30
0.0
 11
121.0
 21
101.1279999999999
 31
0.0
  0
LINE
  5
39E
330
1E
100
AcDbEntity
  8
0
100
AcDbLine
 10
121.0
 20
108.9399999999999
 30
0.0
 11
121.0
 21
116.2479999999999
 31
0.0
  0
LINE
  5
39F
330
1E
100
AcDbEntity
  8
0
100
AcDbLine
 10
121.0
 20
101.1279999999999
 30
0.0
 11
121.0
 21
93.31599999999999
 31
0.0
  0
LINE
  5
3A0
330
1E
100
AcDbEntity
  8
0
100
AcDbLine
 10
121.0
 20
101.1279999999999
 30
0.0
 11
121.0
 21
108.9399999999999
 31
0.0
  0
LINE
  5
3A1
330
1E
100
AcDbEntity
  8
0
100
AcDbLine
 10
121.0
 20
93.31599999999999
 30
0.0
 11
121.0
 21
85.0
 31
0.0
  0
LINE
  5
3A2
330
1E
100
AcDbEntity
  8
0
100
AcDbLine
 10
121.0
 20
93.31599999999999
 30
0.0
 11
121.0
 21
101.1279999999999
 31
0.0
  0
LINE
  5
3A3
330
1E
100
AcDbEntity
  8
0
100
AcDbLine
 10
121.0
 20
146.8899999999999
 30
0.0
 11
121.0
 21
147.034
 31
0.0
  0
LINE
  5
3A4
330
1E
100
AcDbEntity
  8
0
100
AcDbLine
 10
121.0
 20
147.034
 30
0.0
 11
121.0
 21
147.418
 31
0.0
  0
LINE
  5
3A5
330
1E
100
AcDbEntity
  8
0
100
AcDbLine
 10
121.0
 20
147.034
 30
0.0
 11
121.0
 21
146.8899999999999
 31
0.0
  0
LINE
  5
3A6
330
1E
100
AcDbEntity
  8
0
100
AcDbLine
 10
121.0
 20
147.418
 30
0.0
 11
121.0
 21
148.0579999999999
 31
0.0
  0
LINE
  5
3A7
330
1E
100
AcDbEntity
  8
0
100
AcDbLine
 10
121.0
 20
147.418
 30
0.0
 11
121.0
 21
147.034
 31
0.0
  0
LINE
  5
3A8
330
1E
100
AcDbEntity
  8
0
100
AcDbLine
 10
121.0
 20
148.0579999999999
 30
0.0
 11
121.0
 21
148.906
 31
0.0
  0
LINE
  5
3A9
330
1E
100
AcDbEntity
  8
0
100
AcDbLine
 10
121.0
 20
148.0579999999999
 30
0.0
 11
121.0
 21
147.418
 31
0.0
  0
LINE
  5
3AA
330
1E
100
AcDbEntity
  8
0
100
AcDbLine
 10
121.0
 20
148.906
 30
0.0
 11
121.0
 21
149.866
 31
0.0
  0
LINE
  5
3AB
330
1E
100
AcDbEntity
  8
0
100
AcDbLine
 10
121.0
 20
148.906
 30
0.0
 11
121.0
 21
148.0579999999999
 31
0.0
  0
LINE
  5
3AC
330
1E
100
AcDbEntity
  8
0
100
AcDbLine
 10
121.0
 20
149.866
 30
0.0
 11
121.0
 21
150.8899999999999
 31
0.0
  0
LINE
  5
3AD
330
1E
100
AcDbEntity
  8
0
100
AcDbLine
 10
121.0
 20
149.866
 30
0.0
 11
121.0
 21
148.906
 31
0.0
  0
LINE
  5
3AE
330
1E
100
AcDbEntity
  8
0
100
AcDbLine
 10
121.0
 20
150.8899999999999
 30
0.0
 11
121.0
 21
151.9139999999999
 31
0.0
  0
LINE
  5
3AF
330
1E
100
AcDbEntity
  8
0
100
AcDbLine
 10
121.0
 20
150.8899999999999
 30
0.0
 11
121.0
 21
149.866
 31
0.0
  0
LINE
  5
3B0
330
1E
100
AcDbEntity
  8
0
100
AcDbLine
 10
121.0
 20
151.9139999999999
 30
0.0
 11
121.0
 21
150.8899999999999
 31
0.0
  0
LINE
  5
3B1
330
1E
100
AcDbEntity
  8
0
100
AcDbLine
 10
121.0
 20
151.9139999999999
 30
0.0
 11
121.0
 21
152.8739999999999
 31
0.0
  0
LINE
  5
3B2
330
1E
100
AcDbEntity
  8
0
100
AcDbLine
 10
121.0
 20
152.8739999999999
 30
0.0
 11
121.0
 21
151.9139999999999
 31
0.0
  0
LINE
  5
3B3
330
1E
100
AcDbEntity
  8
0
100
AcDbLine
 10
121.0
 20
152.8739999999999
 30
0.0
 11
121.0
 21
153.722
 31
0.0
  0
LINE
  5
3B4
330
1E
100
AcDbEntity
  8
0
100
AcDbLine
 10
121.0
 20
152.5
 30
0.0
 11
121.0
 21
152.644
 31
0.0
  0
LINE
  5
3B5
330
1E
100
AcDbEntity
  8
0
100
AcDbLine
 10
121.0
 20
152.644
 30
0.0
 11
121.0
 21
153.0279999999999
 31
0.0
  0
LINE
  5
3B6
330
1E
100
AcDbEntity
  8
0
100
AcDbLine
 10
121.0
 20
152.644
 30
0.0
 11
121.0
 21
152.5
 31
0.0
  0
LINE
  5
3B7
330
1E
100
AcDbEntity
  8
0
100
AcDbLine
 10
121.0
 20
153.722
 30
0.0
 11
121.0
 21
152.8739999999999
 31
0.0
  0
LINE
  5
3B8
330
1E
100
AcDbEntity
  8
0
100
AcDbLine
 10
121.0
 20
153.722
 30
0.0
 11
121.0
 21
154.3619999999999
 31
0.0
  0
LINE
  5
3B9
330
1E
100
AcDbEntity
  8
0
100
AcDbLine
 10
121.0
 20
154.3619999999999
 30
0.0
 11
121.0
 21
153.722
 31
0.0
  0
LINE
  5
3BA
330
1E
100
AcDbEntity
  8
0
100
AcDbLine
 10
121.0
 20
154.3619999999999
 30
0.0
 11
121.0
 21
154.746
 31
0.0
  0
LINE
  5
3BB
330
1E
100
AcDbEntity
  8
0
100
AcDbLine
 10
121.0
 20
154.4999999999999
 30
0.0
 11
121.0
 21
159.4999999999999
 31
0.0
  0
LINE
  5
3BC
330
1E
100
AcDbEntity
  8
0
100
AcDbLine
 10
121.0
 20
153.8149999999999
 30
0.0
 11
121.0
 21
146.0
 31
0.0
  0
LINE
  5
3BD
330
1E
100
AcDbEntity
  8
0
100
AcDbLine
 10
121.0
 20
153.8149999999999
 30
0.0
 11
121.0
 21
154.1579999999999
 31
0.0
  0
LINE
  5
3BE
330
1E
100
AcDbEntity
  8
0
100
AcDbLine
 10
121.0
 20
153.8149999999999
 30
0.0
 11
121.0
 21
142.645
 31
0.0
  0
LINE
  5
3BF
330
1E
100
AcDbEntity
  8
0
100
AcDbLine
 10
121.0
 20
154.1579999999999
 30
0.0
 11
121.0
 21
153.8149999999999
 31
0.0
  0
LINE
  5
3C0
330
1E
100
AcDbEntity
  8
0
100
AcDbLine
 10
121.0
 20
154.1579999999999
 30
0.0
 11
121.0
 21
146.0
 31
0.0
  0
LINE
  5
3C1
330
1E
100
AcDbEntity
  8
0
100
AcDbLine
 10
121.0
 20
154.1579999999999
 30
0.0
 11
121.0
 21
143.454
 31
0.0
  0
LINE
  5
3C2
330
1E
100
AcDbEntity
  8
0
100
AcDbLine
 10
121.0
 20
153.0279999999999
 30
0.0
 11
121.0
 21
153.668
 31
0.0
  0
LINE
  5
3C3
330
1E
100
AcDbEntity
  8
0
100
AcDbLine
 10
121.0
 20
153.0279999999999
 30
0.0
 11
121.0
 21
152.644
 31
0.0
  0
LINE
  5
3C4
330
1E
100
AcDbEntity
  8
0
100
AcDbLine
 10
121.0
 20
153.668
 30
0.0
 11
121.0
 21
154.5159999999999
 31
0.0
  0
LINE
  5
3C5
330
1E
100
AcDbEntity
  8
0
100
AcDbLine
 10
121.0
 20
153.668
 30
0.0
 11
121.0
 21
153.0279999999999
 31
0.0
  0
LINE
  5
3C6
330
1E
100
AcDbEntity
  8
0
100
AcDbLine
 10
121.0
 20
154.8899999999999
 30
0.0
 11
121.0
 21
154.746
 31
0.0
  0
LINE
  5
3C7
330
1E
100
AcDbEntity
  8
0
100
AcDbLine
 10
121.0
 20
154.746
 30
0.0
 11
121.0
 21
154.3619999999999
 31
0.0
  0
LINE
  5
3C8
330
1E
100
AcDbEntity
  8
0
100
AcDbLine
 10
121.0
 20
154.746
 30
0.0
 11
121.0
 21
154.8899999999999
 31
0.0
  0
LINE
  5
3C9
330
1E
100
AcDbEntity
  8
0
100
AcDbLine
 10
121.0
 20
154.5159999999999
 30
0.0
 11
121.0
 21
155.4759999999999
 31
0.0
  0
LINE
  5
3CA
330
1E
100
AcDbEntity
  8
0
100
AcDbLine
 10
121.0
 20
154.5159999999999
 30
0.0
 11
121.0
 21
153.668
 31
0.0
  0
LINE
  5
3CB
330
1E
100
AcDbEntity
  8
0
100
AcDbLine
 10
121.0
 20
155.4759999999999
 30
0.0
 11
121.0
 21
156.4999999999999
 31
0.0
  0
LINE
  5
3CC
330
1E
100
AcDbEntity
  8
0
100
AcDbLine
 10
121.0
 20
155.4759999999999
 30
0.0
 11
121.0
 21
154.5159999999999
 31
0.0
  0
LINE
  5
3CD
330
1E
100
AcDbEntity
  8
0
100
AcDbLine
 10
121.0
 20
156.4999999999999
 30
0.0
 11
121.0
 21
157.5239999999999
 31
0.0
  0
LINE
  5
3CE
330
1E
100
AcDbEntity
  8
0
100
AcDbLine
 10
121.0
 20
156.4999999999999
 30
0.0
 11
121.0
 21
155.4759999999999
 31
0.0
  0
LINE
  5
3CF
330
1E
100
AcDbEntity
  8
0
100
AcDbLine
 10
121.0
 20
157.5239999999999
 30
0.0
 11
121.0
 21
156.4999999999999
 31
0.0
  0
LINE
  5
3D0
330
1E
100
AcDbEntity
  8
0
100
AcDbLine
 10
121.0
 20
157.5239999999999
 30
0.0
 11
121.0
 21
158.4839999999999
 31
0.0
  0
LINE
  5
3D1
330
1E
100
AcDbEntity
  8
0
100
AcDbLine
 10
121.0
 20
157.5629999999999
 30
0.0
 11
121.0
 21
146.0
 31
0.0
  0
LINE
  5
3D2
330
1E
100
AcDbEntity
  8
0
100
AcDbLine
 10
121.0
 20
157.5629999999999
 30
0.0
 11
121.0
 21
156.3039999999999
 31
0.0
  0
LINE
  5
3D3
330
1E
100
AcDbEntity
  8
0
100
AcDbLine
 10
121.0
 20
157.5629999999999
 30
0.0
 11
121.0
 21
133.8379999999999
 31
0.0
  0
LINE
  5
3D4
330
1E
100
AcDbEntity
  8
0
100
AcDbLine
 10
121.0
 20
156.3039999999999
 30
0.0
 11
121.0
 21
157.5629999999999
 31
0.0
  0
LINE
  5
3D5
330
1E
100
AcDbEntity
  8
0
100
AcDbLine
 10
121.0
 20
156.3039999999999
 30
0.0
 11
121.0
 21
146.0
 31
0.0
  0
LINE
  5
3D6
330
1E
100
AcDbEntity
  8
0
100
AcDbLine
 10
121.0
 20
156.3039999999999
 30
0.0
 11
121.0
 21
135.186
 31
0.0
  0
LINE
  5
3D7
330
1E
100
AcDbEntity
  8
0
100
AcDbLine
 10
121.0
 20
148.0
 30
0.0
 11
121.0
 21
147.2439999999999
 31
0.0
  0
LINE
  5
3D8
330
1E
100
AcDbEntity
  8
0
100
AcDbLine
 10
121.0
 20
146.0
 30
0.0
 11
121.0
 21
147.2439999999999
 31
0.0
  0
LINE
  5
3D9
330
1E
100
AcDbEntity
  8
0
100
AcDbLine
 10
121.0
 20
146.0
 30
0.0
 11
121.0
 21
160.4999999999999
 31
0.0
  0
LINE
  5
3DA
330
1E
100
AcDbEntity
  8
0
100
AcDbLine
 10
121.0
 20
146.0
 30
0.0
 11
121.0
 21
158.4999999999999
 31
0.0
  0
LINE
  5
3DB
330
1E
100
AcDbEntity
  8
0
100
AcDbLine
 10
121.0
 20
146.0
 30
0.0
 11
121.0
 21
156.3039999999999
 31
0.0
  0
LINE
  5
3DC
330
1E
100
AcDbEntity
  8
0
100
AcDbLine
 10
121.0
 20
146.0
 30
0.0
 11
121.0
 21
157.5629999999999
 31
0.0
  0
LINE
  5
3DD
330
1E
100
AcDbEntity
  8
0
100
AcDbLine
 10
121.0
 20
146.0
 30
0.0
 11
121.0
 21
154.1579999999999
 31
0.0
  0
LINE
  5
3DE
330
1E
100
AcDbEntity
  8
0
100
AcDbLine
 10
121.0
 20
146.0
 30
0.0
 11
121.0
 21
153.8149999999999
 31
0.0
  0
LINE
  5
3DF
330
1E
100
AcDbEntity
  8
0
100
AcDbLine
 10
125.0
 20
110.4999999999999
 30
0.0
 11
125.0
 21
160.4999999999999
 31
0.0
  0
LINE
  5
3E0
330
1E
100
AcDbEntity
  8
0
100
AcDbLine
 10
125.0
 20
110.4999999999999
 30
0.0
 11
125.0
 21
59.5
 31
0.0
  0
LINE
  5
3E1
330
1E
100
AcDbEntity
  8
0
100
AcDbLine
 10
121.0
 20
147.2439999999999
 30
0.0
 11
121.0
 21
148.0
 31
0.0
  0
LINE
  5
3E2
330
1E
100
AcDbEntity
  8
0
100
AcDbLine
 10
121.0
 20
147.2439999999999
 30
0.0
 11
121.0
 21
146.0
 31
0.0
  0
LINE
  5
3E3
330
1E
100
AcDbEntity
  8
0
100
AcDbLine
 10
121.0
 20
147.2439999999999
 30
0.0
 11
121.0
 21
145.7319999999999
 31
0.0
  0
LINE
  5
3E4
330
1E
100
AcDbEntity
  8
0
100
AcDbLine
 10
121.0
 20
85.0
 30
0.0
 11
121.0
 21
76.684
 31
0.0
  0
LINE
  5
3E5
330
1E
100
AcDbEntity
  8
0
100
AcDbLine
 10
121.0
 20
85.0
 30
0.0
 11
121.0
 21
93.31599999999999
 31
0.0
  0
LINE
  5
3E6
330
1E
100
AcDbEntity
  8
0
100
AcDbLine
 10
152.0
 20
85.0
 30
0.0
 11
152.72
 21
79.87999999999999
 31
0.0
  0
LINE
  5
3E7
330
1E
100
AcDbEntity
  8
0
100
AcDbLine
 10
152.0
 20
85.0
 30
0.0
 11
152.72
 21
90.12
 31
0.0
  0
LINE
  5
3E8
330
1E
100
AcDbEntity
  8
0
100
AcDbLine
 10
152.000000000005
 20
84.9999999999671
 30
0.0
 11
152.72
 21
79.8561
 31
0.0
  0
LINE
  5
3E9
330
1E
100
AcDbEntity
  8
0
100
AcDbLine
 10
155.6119999999999
 20
80.64799999999999
 30
0.0
 11
157.244
 21
76.568
 31
0.0
  0
LINE
  5
3EA
330
1E
100
AcDbEntity
  8
0
100
AcDbLine
 10
155.6119999999999
 20
89.352
 30
0.0
 11
157.244
 21
93.43200000000001
 31
0.0
  0
LINE
  5
3EB
330
1E
100
AcDbEntity
  8
0
100
AcDbLine
 10
155.0
 20
85.0
 30
0.0
 11
155.6119999999999
 21
80.64799999999999
 31
0.0
  0
LINE
  5
3EC
330
1E
100
AcDbEntity
  8
0
100
AcDbLine
 10
155.0
 20
85.0
 30
0.0
 11
155.6119999999999
 21
89.352
 31
0.0
  0
LINE
  5
3ED
330
1E
100
AcDbEntity
  8
0
100
AcDbLine
 10
157.9531
 20
81.2697
 30
0.0
 11
159.352
 21
77.7726
 31
0.0
  0
LINE
  5
3EE
330
1E
100
AcDbEntity
  8
0
100
AcDbLine
 10
157.9531
 20
88.73029999999999
 30
0.0
 11
159.352
 21
92.22739999999999
 31
0.0
  0
LINE
  5
3EF
330
1E
100
AcDbEntity
  8
0
100
AcDbLine
 10
186.047
 20
81.2697
 30
0.0
 11
186.5709999999999
 21
85.0
 31
0.0
  0
LINE
  5
3F0
330
1E
100
AcDbEntity
  8
0
100
AcDbLine
 10
188.3879999999999
 20
80.64799999999999
 30
0.0
 11
189.0
 21
85.0
 31
0.0
  0
LINE
  5
3F1
330
1E
100
AcDbEntity
  8
0
100
AcDbLine
 10
191.28
 20
90.12
 30
0.0
 11
192.0
 21
85.0
 31
0.0
  0
LINE
  5
3F2
330
1E
100
AcDbEntity
  8
0
100
AcDbLine
 10
188.3879999999999
 20
89.352
 30
0.0
 11
189.0
 21
85.0
 31
0.0
  0
LINE
  5
3F3
330
1E
100
AcDbEntity
  8
0
100
AcDbLine
 10
186.047
 20
88.73029999999999
 30
0.0
 11
186.5709999999999
 21
85.0
 31
0.0
  0
LINE
  5
3F4
330
1E
100
AcDbEntity
  8
0
100
AcDbLine
 10
157.4285999999999
 20
85.0
 30
0.0
 11
157.9531
 21
81.2697
 31
0.0
  0
LINE
  5
3F5
330
1E
100
AcDbEntity
  8
0
100
AcDbLine
 10
157.4285999999999
 20
85.0
 30
0.0
 11
157.9531
 21
88.73029999999999
 31
0.0
  0
LINE
  5
3F6
330
1E
100
AcDbEntity
  8
0
100
AcDbLine
 10
152.72
 20
90.12
 30
0.0
 11
154.64
 21
94.92
 31
0.0
  0
LINE
  5
3F7
330
1E
100
AcDbEntity
  8
0
100
AcDbLine
 10
191.28
 20
90.1439
 30
0.0
 11
192.0
 21
85.0
 31
0.0
  0
LINE
  5
3F8
330
1E
100
AcDbEntity
  8
0
100
AcDbLine
 10
157.244
 20
93.43200000000001
 30
0.0
 11
159.9639999999999
 21
97.03600000000001
 31
0.0
  0
LINE
  5
3F9
330
1E
100
AcDbEntity
  8
0
100
AcDbLine
 10
154.64
 20
94.92
 30
0.0
 11
157.84
 21
99.16
 31
0.0
  0
LINE
  5
3FA
330
1E
100
AcDbEntity
  8
0
100
AcDbLine
 10
159.352
 20
92.22739999999999
 30
0.0
 11
161.6834
 21
95.3166
 31
0.0
  0
LINE
  5
3FB
330
1E
100
AcDbEntity
  8
0
100
AcDbLine
 10
186.7559999999999
 20
93.43200000000001
 30
0.0
 11
188.3879999999999
 21
89.352
 31
0.0
  0
LINE
  5
3FC
330
1E
100
AcDbEntity
  8
0
100
AcDbLine
 10
184.6479999999999
 20
92.22739999999999
 30
0.0
 11
186.047
 21
88.73029999999999
 31
0.0
  0
LINE
  5
3FD
330
1E
100
AcDbEntity
  8
0
100
AcDbLine
 10
152.72
 20
90.1439
 30
0.0
 11
154.64
 21
94.92870000000001
 31
0.0
  0
LINE
  5
3FE
330
1E
100
AcDbEntity
  8
0
100
AcDbLine
 10
152.000000000005
 20
85.000000000033
 30
0.0
 11
152.72
 21
90.1439
 31
0.0
  0
LINE
  5
3FF
330
1E
100
AcDbEntity
  8
0
100
AcDbLine
 10
154.64
 20
94.92870000000001
 30
0.0
 11
157.84
 21
99.1793
 31
0.0
  0
LINE
  5
400
330
1E
100
AcDbEntity
  8
0
100
AcDbLine
 10
159.9639999999999
 20
97.03600000000001
 30
0.0
 11
163.5679999999999
 21
99.756
 31
0.0
  0
LINE
  5
401
330
1E
100
AcDbEntity
  8
0
100
AcDbLine
 10
157.84
 20
99.16
 30
0.0
 11
162.08
 21
102.36
 31
0.0
  0
LINE
  5
402
330
1E
100
AcDbEntity
  8
0
100
AcDbLine
 10
161.6834
 20
95.3166
 30
0.0
 11
164.7726
 21
97.64800000000001
 31
0.0
  0
LINE
  5
403
330
1E
100
AcDbEntity
  8
0
100
AcDbLine
 10
162.08
 20
102.36
 30
0.0
 11
166.88
 21
104.2799999999999
 31
0.0
  0
LINE
  5
405
330
1E
100
AcDbEntity
  8
0
100
AcDbLine
 10
157.84
 20
99.1793
 30
0.0
 11
162.08
 21
102.3611
 31
0.0
  0
LINE
  5
406
330
1E
100
AcDbEntity
  8
0
100
AcDbLine
 10
163.5679999999999
 20
99.756
 30
0.0
 11
167.6479999999999
 21
101.3879999999999
 31
0.0
  0
LINE
  5
407
330
1E
100
AcDbEntity
  8
0
100
AcDbLine
 10
164.7726
 20
97.64800000000001
 30
0.0
 11
168.2697
 21
99.0469
 31
0.0
  0
LINE
  5
408
330
1E
100
AcDbEntity
  8
0
100
AcDbLine
 10
166.88
 20
104.2799999999999
 30
0.0
 11
172.0
 21
105.0
 31
0.0
  0
LINE
  5
409
330
1E
100
AcDbEntity
  8
0
100
AcDbLine
 10
166.88
 20
104.2799999999999
 30
0.0
 11
172.0
 21
105.0
 31
0.0
  0
LINE
  5
40A
330
1E
100
AcDbEntity
  8
0
100
AcDbLine
 10
167.6479999999999
 20
101.3879999999999
 30
0.0
 11
172.0
 21
102.0
 31
0.0
  0
LINE
  5
40B
330
1E
100
AcDbEntity
  8
0
100
AcDbLine
 10
172.0
 20
99.5714
 30
0.0
 11
175.7303
 21
99.0469
 31
0.0
  0
LINE
  5
40C
330
1E
100
AcDbEntity
  8
0
100
AcDbLine
 10
172.0
 20
102.0
 30
0.0
 11
176.3519999999999
 21
101.3879999999999
 31
0.0
  0
LINE
  5
40D
330
1E
100
AcDbEntity
  8
0
100
AcDbLine
 10
168.2697
 20
99.0469
 30
0.0
 11
172.0
 21
99.5714
 31
0.0
  0
LINE
  5
40E
330
1E
100
AcDbEntity
  8
0
100
AcDbLine
 10
177.12
 20
104.2799999999999
 30
0.0
 11
181.92
 21
102.36
 31
0.0
  0
LINE
  5
40F
330
1E
100
AcDbEntity
  8
0
100
AcDbLine
 10
176.3519999999999
 20
101.3879999999999
 30
0.0
 11
180.432
 21
99.756
 31
0.0
  0
LINE
  5
410
330
1E
100
AcDbEntity
  8
0
100
AcDbLine
 10
175.7303
 20
99.0469
 30
0.0
 11
179.2273999999999
 21
97.64800000000001
 31
0.0
  0
LINE
  5
411
330
1E
100
AcDbEntity
  8
0
100
AcDbLine
 10
172.0
 20
105.0
 30
0.0
 11
177.12
 21
104.2799999999999
 31
0.0
  0
LINE
  5
413
330
1E
100
AcDbEntity
  8
0
100
AcDbLine
 10
172.0
 20
105.0
 30
0.0
 11
177.12
 21
104.2799999999999
 31
0.0
  0
LINE
  5
416
330
1E
100
AcDbEntity
  8
0
100
AcDbLine
 10
172.0
 20
142.3499999999999
 30
0.0
 11
177.12
 21
142.6039999999999
 31
0.0
  0
LINE
  5
417
330
1E
100
AcDbEntity
  8
0
100
AcDbLine
 10
181.92
 20
102.36
 30
0.0
 11
186.1599999999999
 21
99.16
 31
0.0
  0
LINE
  5
418
330
1E
100
AcDbEntity
  8
0
100
AcDbLine
 10
180.432
 20
99.756
 30
0.0
 11
184.0359999999999
 21
97.03600000000001
 31
0.0
  0
LINE
  5
419
330
1E
100
AcDbEntity
  8
0
100
AcDbLine
 10
179.2273999999999
 20
97.64800000000001
 30
0.0
 11
182.3166
 21
95.3166
 31
0.0
  0
LINE
  5
41A
330
1E
100
AcDbEntity
  8
0
100
AcDbLine
 10
186.1599999999999
 20
99.16
 30
0.0
 11
189.36
 21
94.92
 31
0.0
  0
LINE
  5
41B
330
1E
100
AcDbEntity
  8
0
100
AcDbLine
 10
184.0359999999999
 20
97.03600000000001
 30
0.0
 11
186.7559999999999
 21
93.43200000000001
 31
0.0
  0
LINE
  5
41C
330
1E
100
AcDbEntity
  8
0
100
AcDbLine
 10
182.3166
 20
95.3166
 30
0.0
 11
184.6479999999999
 21
92.22739999999999
 31
0.0
  0
LINE
  5
45B
330
1E
100
AcDbEntity
  8
0
100
AcDbLine
 10
186.1599999999999
 20
99.1793
 30
0.0
 11
189.36
 21
94.92870000000001
 31
0.0
  0
LINE
  5
45C
330
1E
100
AcDbEntity
  8
0
100
AcDbLine
 10
189.36
 20
94.92870000000001
 30
0.0
 11
191.28
 21
90.1439
 31
0.0
  0
LINE
  5
45D
330
1E
100
AcDbEntity
  8
0
100
AcDbLine
 10
177.12
 20
142.6039999999999
 30
0.0
 11
181.92
 21
143.2599999999999
 31
0.0
  0
LINE
  5
45E
330
1E
100
AcDbEntity
  8
0
100
AcDbLine
 10
181.92
 20
143.2599999999999
 30
0.0
 11
186.1599999999999
 21
144.11
 31
0.0
  0
LINE
  5
461
330
1E
100
AcDbEntity
  8
0
100
AcDbLine
 10
186.1599999999999
 20
144.11
 30
0.0
 11
188.119102244389
 21
144.601
 31
0.0
  0
LINE
  5
462
330
1E
100
AcDbEntity
  8
0
100
AcDbLine
 10
166.88
 20
142.6039999999999
 30
0.0
 11
172.0
 21
142.3499999999999
 31
0.0
  0
LINE
  5
463
330
1E
100
AcDbEntity
  8
0
100
AcDbLine
 10
162.08
 20
143.2599999999999
 30
0.0
 11
166.88
 21
142.6039999999999
 31
0.0
  0
LINE
  5
468
330
1E
100
AcDbEntity
  8
0
100
AcDbLine
 10
188.119102244389
 20
144.601
 30
0.0
 11
189.36
 21
144.912
 31
0.0
  0
LINE
  5
469
330
1E
100
AcDbEntity
  8
0
100
AcDbLine
 10
189.36
 20
144.912
 30
0.0
 11
191.28
 21
145.5929999999999
 31
0.0
  0
LINE
  5
46A
330
1E
100
AcDbEntity
  8
0
100
AcDbLine
 10
191.28
 20
145.5929999999999
 30
0.0
 11
192.0
 21
146.0
 31
0.0
  0
LINE
  5
46B
330
1E
100
AcDbEntity
  8
0
100
AcDbLine
 10
157.84
 20
144.11
 30
0.0
 11
162.08
 21
143.2599999999999
 31
0.0
  0
LINE
  5
46C
330
1E
100
AcDbEntity
  8
0
100
AcDbLine
 10
154.64
 20
144.912
 30
0.0
 11
157.84
 21
144.11
 31
0.0
  0
LINE
  5
46D
330
1E
100
AcDbEntity
  8
0
100
AcDbLine
 10
152.72
 20
146.0
 30
0.0
 11
154.64
 21
146.0
 31
0.0
  0
LINE
  5
46E
330
1E
100
AcDbEntity
  8
0
100
AcDbLine
 10
162.08
 20
146.0
 30
0.0
 11
166.88
 21
146.0
 31
0.0
  0
LINE
  5
46F
330
1E
100
AcDbEntity
  8
0
100
AcDbLine
 10
166.88
 20
146.0
 30
0.0
 11
172.0
 21
146.0
 31
0.0
  0
LINE
  5
470
330
1E
100
AcDbEntity
  8
0
100
AcDbLine
 10
162.08
 20
146.0
 30
0.0
 11
166.88
 21
146.0
 31
0.0
  0
LINE
  5
471
330
1E
100
AcDbEntity
  8
0
100
AcDbLine
 10
157.84
 20
146.0
 30
0.0
 11
162.08
 21
146.0
 31
0.0
  0
LINE
  5
472
330
1E
100
AcDbEntity
  8
0
100
AcDbLine
 10
157.84
 20
146.0
 30
0.0
 11
162.08
 21
146.0
 31
0.0
  0
LINE
  5
473
330
1E
100
AcDbEntity
  8
0
100
AcDbLine
 10
154.64
 20
146.0
 30
0.0
 11
157.84
 21
146.0
 31
0.0
  0
LINE
  5
474
330
1E
100
AcDbEntity
  8
0
100
AcDbLine
 10
152.72
 20
146.0
 30
0.0
 11
154.64
 21
146.0
 31
0.0
  0
LINE
  5
475
330
1E
100
AcDbEntity
  8
0
100
AcDbLine
 10
172.0
 20
146.0
 30
0.0
 11
177.12
 21
146.0
 31
0.0
  0
LINE
  5
476
330
1E
100
AcDbEntity
  8
0
100
AcDbLine
 10
177.12
 20
146.0
 30
0.0
 11
181.92
 21
146.0
 31
0.0
  0
LINE
  5
477
330
1E
100
AcDbEntity
  8
0
100
AcDbLine
 10
181.92
 20
146.0
 30
0.0
 11
186.1599999999999
 21
146.0
 31
0.0
  0
LINE
  5
478
330
1E
100
AcDbEntity
  8
0
100
AcDbLine
 10
189.36
 20
146.0
 30
0.0
 11
191.28
 21
146.0
 31
0.0
  0
LINE
  5
479
330
1E
100
AcDbEntity
  8
0
100
AcDbLine
 10
186.1599999999999
 20
146.0
 30
0.0
 11
189.36
 21
146.0
 31
0.0
  0
LINE
  5
47A
330
1E
100
AcDbEntity
  8
0
100
AcDbLine
 10
186.1599999999999
 20
146.0
 30
0.0
 11
189.36
 21
146.0
 31
0.0
  0
LINE
  5
47B
330
1E
100
AcDbEntity
  8
0
100
AcDbLine
 10
189.36
 20
146.0
 30
0.0
 11
191.28
 21
146.0
 31
0.0
  0
LINE
  5
47C
330
1E
100
AcDbEntity
  8
0
100
AcDbLine
 10
191.28
 20
146.0
 30
0.0
 11
192.0
 21
146.0
 31
0.0
  0
LINE
  5
47D
330
1E
100
AcDbEntity
  8
0
100
AcDbLine
 10
191.28
 20
146.0
 30
0.0
 11
192.0
 21
146.0
 31
0.0
  0
LINE
  5
47E
330
1E
100
AcDbEntity
  8
0
100
AcDbLine
 10
152.72
 20
145.5929999999999
 30
0.0
 11
154.64
 21
144.912
 31
0.0
  0
LINE
  5
47F
330
1E
100
AcDbEntity
  8
0
100
AcDbLine
 10
152.0
 20
146.0
 30
0.0
 11
152.72
 21
145.5929999999999
 31
0.0
  0
LINE
  5
480
330
1E
100
AcDbEntity
  8
0
100
AcDbLine
 10
152.0
 20
146.0
 30
0.0
 11
152.72
 21
146.0
 31
0.0
  0
LINE
  5
481
330
1E
100
AcDbEntity
  8
0
100
AcDbLine
 10
152.0
 20
146.0
 30
0.0
 11
152.0
 21
148.0
 31
0.0
  0
LINE
  5
482
330
1E
100
AcDbEntity
  8
0
100
AcDbLine
 10
152.0
 20
146.0
 30
0.0
 11
152.72
 21
146.0
 31
0.0
  0
LINE
  5
483
330
1E
100
AcDbEntity
  8
0
100
AcDbLine
 10
189.36
 20
94.92
 30
0.0
 11
191.28
 21
90.12
 31
0.0
  0
LINE
  5
484
330
1E
100
AcDbEntity
  8
0
100
AcDbLine
 10
189.36
 20
94.92
 30
0.0
 11
191.28
 21
90.12
 31
0.0
  0
LINE
  5
485
330
1E
100
AcDbEntity
  8
0
100
AcDbLine
 10
194.0
 20
100.7316
 30
0.0
 11
194.0
 21
108.3084
 31
0.0
  0
LINE
  5
486
330
1E
100
AcDbEntity
  8
0
100
AcDbLine
 10
194.0
 20
100.7316
 30
0.0
 11
194.0
 21
92.9621
 31
0.0
  0
LINE
  5
487
330
1E
100
AcDbEntity
  8
0
100
AcDbLine
 10
194.0
 20
92.9621
 30
0.0
 11
194.0
 21
100.7316
 31
0.0
  0
LINE
  5
488
330
1E
100
AcDbEntity
  8
0
100
AcDbLine
 10
194.0
 20
92.9621
 30
0.0
 11
194.0
 21
85.0
 31
0.0
  0
LINE
  5
489
330
1E
100
AcDbEntity
  8
0
100
AcDbLine
 10
194.0
 20
85.0
 30
0.0
 11
194.0
 21
92.9621
 31
0.0
  0
LINE
  5
48A
330
1E
100
AcDbEntity
  8
0
100
AcDbLine
 10
194.0
 20
85.0
 30
0.0
 11
194.0
 21
77.03789999999999
 31
0.0
  0
LINE
  5
48B
330
1E
100
AcDbEntity
  8
0
100
AcDbLine
 10
194.0
 20
108.3084
 30
0.0
 11
194.0
 21
115.372
 31
0.0
  0
LINE
  5
48C
330
1E
100
AcDbEntity
  8
0
100
AcDbLine
 10
194.0
 20
108.3084
 30
0.0
 11
194.0
 21
100.7316
 31
0.0
  0
LINE
  5
48D
330
1E
100
AcDbEntity
  8
0
100
AcDbLine
 10
194.0
 20
131.525
 30
0.0
 11
194.0
 21
132.645
 31
0.0
  0
LINE
  5
48E
330
1E
100
AcDbEntity
  8
0
100
AcDbLine
 10
194.0
 20
131.525
 30
0.0
 11
194.0
 21
115.59
 31
0.0
  0
LINE
  5
48F
330
1E
100
AcDbEntity
  8
0
100
AcDbLine
 10
194.0
 20
132.645
 30
0.0
 11
194.0
 21
134.1289999999999
 31
0.0
  0
LINE
  5
490
330
1E
100
AcDbEntity
  8
0
100
AcDbLine
 10
194.0
 20
132.645
 30
0.0
 11
194.0
 21
131.525
 31
0.0
  0
LINE
  5
491
330
1E
100
AcDbEntity
  8
0
100
AcDbLine
 10
194.0
 20
134.1289999999999
 30
0.0
 11
194.0
 21
135.809
 31
0.0
  0
LINE
  5
492
330
1E
100
AcDbEntity
  8
0
100
AcDbLine
 10
194.0
 20
134.1289999999999
 30
0.0
 11
194.0
 21
132.645
 31
0.0
  0
LINE
  5
493
330
1E
100
AcDbEntity
  8
0
100
AcDbLine
 10
194.0
 20
135.809
 30
0.0
 11
194.0
 21
137.6009999999999
 31
0.0
  0
LINE
  5
494
330
1E
100
AcDbEntity
  8
0
100
AcDbLine
 10
194.0
 20
135.809
 30
0.0
 11
194.0
 21
134.1289999999999
 31
0.0
  0
LINE
  5
495
330
1E
100
AcDbEntity
  8
0
100
AcDbLine
 10
194.0
 20
137.6009999999999
 30
0.0
 11
194.0
 21
139.393
 31
0.0
  0
LINE
  5
496
330
1E
100
AcDbEntity
  8
0
100
AcDbLine
 10
194.0
 20
137.6009999999999
 30
0.0
 11
194.0
 21
135.809
 31
0.0
  0
LINE
  5
497
330
1E
100
AcDbEntity
  8
0
100
AcDbLine
 10
194.0
 20
144.3489999999999
 30
0.0
 11
194.0
 21
143.677
 31
0.0
  0
LINE
  5
498
330
1E
100
AcDbEntity
  8
0
100
AcDbLine
 10
194.0
 20
144.3489999999999
 30
0.0
 11
194.0
 21
144.601
 31
0.0
  0
LINE
  5
499
330
1E
100
AcDbEntity
  8
0
100
AcDbLine
 10
194.0
 20
143.677
 30
0.0
 11
194.0
 21
142.557
 31
0.0
  0
LINE
  5
49A
330
1E
100
AcDbEntity
  8
0
100
AcDbLine
 10
194.0
 20
143.677
 30
0.0
 11
194.0
 21
144.3489999999999
 31
0.0
  0
LINE
  5
49B
330
1E
100
AcDbEntity
  8
0
100
AcDbLine
 10
194.0
 20
142.557
 30
0.0
 11
194.0
 21
141.0729999999999
 31
0.0
  0
LINE
  5
49C
330
1E
100
AcDbEntity
  8
0
100
AcDbLine
 10
194.0
 20
142.557
 30
0.0
 11
194.0
 21
143.677
 31
0.0
  0
LINE
  5
49D
330
1E
100
AcDbEntity
  8
0
100
AcDbLine
 10
194.0
 20
141.0729999999999
 30
0.0
 11
194.0
 21
139.393
 31
0.0
  0
LINE
  5
49E
330
1E
100
AcDbEntity
  8
0
100
AcDbLine
 10
194.0
 20
141.0729999999999
 30
0.0
 11
194.0
 21
142.557
 31
0.0
  0
LINE
  5
49F
330
1E
100
AcDbEntity
  8
0
100
AcDbLine
 10
194.0
 20
139.393
 30
0.0
 11
194.0
 21
137.6009999999999
 31
0.0
  0
LINE
  5
4A0
330
1E
100
AcDbEntity
  8
0
100
AcDbLine
 10
194.0
 20
139.393
 30
0.0
 11
194.0
 21
141.0729999999999
 31
0.0
  0
LINE
  5
4A1
330
1E
100
AcDbEntity
  8
0
100
AcDbLine
 10
194.0
 20
144.601
 30
0.0
 11
194.0
 21
145.358
 31
0.0
  0
LINE
  5
4A2
330
1E
100
AcDbEntity
  8
0
100
AcDbLine
 10
194.0
 20
144.601
 30
0.0
 11
194.0
 21
144.3489999999999
 31
0.0
  0
LINE
  5
4A3
330
1E
100
AcDbEntity
  8
0
100
AcDbLine
 10
192.0
 20
146.0
 30
0.0
 11
192.0
 21
148.0
 31
0.0
  0
LINE
  5
4A4
330
1E
100
AcDbEntity
  8
0
100
AcDbLine
 10
194.0
 20
146.0
 30
0.0
 11
194.0
 21
145.358
 31
0.0
  0
LINE
  5
4A5
330
1E
100
AcDbEntity
  8
0
100
AcDbLine
 10
194.0
 20
145.358
 30
0.0
 11
194.0
 21
146.0
 31
0.0
  0
LINE
  5
4A6
330
1E
100
AcDbEntity
  8
0
100
AcDbLine
 10
194.0
 20
145.358
 30
0.0
 11
194.0
 21
144.601
 31
0.0
  0
LINE
  5
4A7
330
1E
100
AcDbEntity
  8
0
100
AcDbLine
 10
194.0
 20
115.59
 30
0.0
 11
194.0
 21
115.372
 31
0.0
  0
LINE
  5
4A8
330
1E
100
AcDbEntity
  8
0
100
AcDbLine
 10
194.0
 20
115.59
 30
0.0
 11
194.0
 21
131.525
 31
0.0
  0
LINE
  5
4A9
330
1E
100
AcDbEntity
  8
0
100
AcDbLine
 10
194.0
 20
115.372
 30
0.0
 11
194.0
 21
108.3084
 31
0.0
  0
LINE
  5
4AA
330
1E
100
AcDbEntity
  8
0
100
AcDbLine
 10
194.0
 20
115.372
 30
0.0
 11
194.0
 21
115.59
 31
0.0
  0
LINE
  5
4AB
330
1E
100
AcDbEntity
  8
0
100
AcDbLine
 10
191.28
 20
90.12
 30
0.0
 11
192.0
 21
85.0
 31
0.0
  0
LINE
  5
4AC
330
1E
100
AcDbEntity
  8
0
100
AcDbLine
 10
172.0
 20
148.0
 30
0.0
 11
177.12
 21
148.0
 31
0.0
  0
LINE
  5
4AD
330
1E
100
AcDbEntity
  8
0
100
AcDbLine
 10
177.12
 20
148.0
 30
0.0
 11
181.92
 21
148.0
 31
0.0
  0
LINE
  5
4AE
330
1E
100
AcDbEntity
  8
0
100
AcDbLine
 10
181.92
 20
148.0
 30
0.0
 11
186.1599999999999
 21
148.0
 31
0.0
  0
LINE
  5
4AF
330
1E
100
AcDbEntity
  8
0
100
AcDbLine
 10
186.1599999999999
 20
148.0
 30
0.0
 11
189.36
 21
148.0
 31
0.0
  0
LINE
  5
4B0
330
1E
100
AcDbEntity
  8
0
100
AcDbLine
 10
189.36
 20
148.0
 30
0.0
 11
191.28
 21
148.0
 31
0.0
  0
LINE
  5
4B1
330
1E
100
AcDbEntity
  8
0
100
AcDbLine
 10
192.0
 20
148.0
 30
0.0
 11
192.0
 21
146.0
 31
0.0
  0
LINE
  5
4B2
330
1E
100
AcDbEntity
  8
0
100
AcDbLine
 10
191.28
 20
148.0
 30
0.0
 11
192.0
 21
148.0
 31
0.0
  0
LINE
  5
4B3
330
1E
100
AcDbEntity
  8
0
100
AcDbLine
 10
166.88
 20
148.0
 30
0.0
 11
172.0
 21
148.0
 31
0.0
  0
LINE
  5
4B4
330
1E
100
AcDbEntity
  8
0
100
AcDbLine
 10
162.08
 20
148.0
 30
0.0
 11
166.88
 21
148.0
 31
0.0
  0
LINE
  5
4B5
330
1E
100
AcDbEntity
  8
0
100
AcDbLine
 10
157.84
 20
148.0
 30
0.0
 11
162.08
 21
148.0
 31
0.0
  0
LINE
  5
4B6
330
1E
100
AcDbEntity
  8
0
100
AcDbLine
 10
154.64
 20
148.0
 30
0.0
 11
157.84
 21
148.0
 31
0.0
  0
LINE
  5
4B7
330
1E
100
AcDbEntity
  8
0
100
AcDbLine
 10
152.72
 20
148.0
 30
0.0
 11
154.64
 21
148.0
 31
0.0
  0
LINE
  5
4B8
330
1E
100
AcDbEntity
  8
0
100
AcDbLine
 10
152.0
 20
148.0
 30
0.0
 11
152.0
 21
146.0
 31
0.0
  0
LINE
  5
4B9
330
1E
100
AcDbEntity
  8
0
100
AcDbLine
 10
152.0
 20
148.0
 30
0.0
 11
152.72
 21
148.0
 31
0.0
  0
LINE
  5
4BA
330
1E
100
AcDbEntity
  8
0
100
AcDbLine
 10
192.0
 20
146.0
 30
0.0
 11
194.0
 21
146.0
 31
0.0
  0
LINE
  5
4BB
330
1E
100
AcDbEntity
  8
0
100
AcDbLine
 10
125.0
 20
146.0
 30
0.0
 11
152.0
 21
146.0
 31
0.0
  0
LINE
  5
4BC
330
1E
100
AcDbEntity
  8
0
100
AcDbLine
 10
191.28
 20
79.87999999999999
 30
0.0
 11
192.0
 21
85.0
 31
0.0
  0
LINE
  5
4BD
330
1E
100
AcDbEntity
  8
0
100
AcDbLine
 10
86.0
 20
85.0
 30
0.0
 11
86.0
 21
158.0
 31
0.0
  0
LINE
  5
4BE
330
1E
100
AcDbEntity
  8
0
100
AcDbLine
 10
86.0
 20
170.0
 30
0.0
 11
86.0
 21
169.5999999999999
 31
0.0
  0
LINE
  5
4BF
330
1E
100
AcDbEntity
  8
0
100
AcDbLine
 10
86.0
 20
169.5999999999999
 30
0.0
 11
86.0
 21
168.4
 31
0.0
  0
LINE
  5
4C0
330
1E
100
AcDbEntity
  8
0
100
AcDbLine
 10
86.0
 20
169.5999999999999
 30
0.0
 11
86.0
 21
170.0
 31
0.0
  0
LINE
  5
4C1
330
1E
100
AcDbEntity
  8
0
100
AcDbLine
 10
86.0
 20
168.4
 30
0.0
 11
86.0
 21
166.5
 31
0.0
  0
LINE
  5
4C2
330
1E
100
AcDbEntity
  8
0
100
AcDbLine
 10
86.0
 20
168.4
 30
0.0
 11
86.0
 21
169.5999999999999
 31
0.0
  0
LINE
  5
4C3
330
1E
100
AcDbEntity
  8
0
100
AcDbLine
 10
86.0
 20
166.5
 30
0.0
 11
86.0
 21
164.0
 31
0.0
  0
LINE
  5
4C4
330
1E
100
AcDbEntity
  8
0
100
AcDbLine
 10
86.0
 20
166.5
 30
0.0
 11
86.0
 21
168.4
 31
0.0
  0
LINE
  5
4C5
330
1E
100
AcDbEntity
  8
0
100
AcDbLine
 10
86.0
 20
164.0
 30
0.0
 11
86.0
 21
161.0999999999999
 31
0.0
  0
LINE
  5
4C6
330
1E
100
AcDbEntity
  8
0
100
AcDbLine
 10
86.0
 20
164.0
 30
0.0
 11
86.0
 21
166.5
 31
0.0
  0
LINE
  5
4C7
330
1E
100
AcDbEntity
  8
0
100
AcDbLine
 10
121.0
 20
159.4999999999999
 30
0.0
 11
121.0
 21
154.4999999999999
 31
0.0
  0
LINE
  5
4C8
330
1E
100
AcDbEntity
  8
0
100
AcDbLine
 10
121.0
 20
160.3559999999999
 30
0.0
 11
121.0
 21
159.972
 31
0.0
  0
LINE
  5
4C9
330
1E
100
AcDbEntity
  8
0
100
AcDbLine
 10
121.0
 20
160.3559999999999
 30
0.0
 11
121.0
 21
160.4999999999999
 31
0.0
  0
LINE
  5
4CA
330
1E
100
AcDbEntity
  8
0
100
AcDbLine
 10
121.0
 20
159.972
 30
0.0
 11
121.0
 21
159.332
 31
0.0
  0
LINE
  5
4CB
330
1E
100
AcDbEntity
  8
0
100
AcDbLine
 10
121.0
 20
159.972
 30
0.0
 11
121.0
 21
160.3559999999999
 31
0.0
  0
LINE
  5
4CC
330
1E
100
AcDbEntity
  8
0
100
AcDbLine
 10
121.0
 20
159.332
 30
0.0
 11
121.0
 21
158.4839999999999
 31
0.0
  0
LINE
  5
4CD
330
1E
100
AcDbEntity
  8
0
100
AcDbLine
 10
121.0
 20
159.332
 30
0.0
 11
121.0
 21
159.972
 31
0.0
  0
LINE
  5
4CE
330
1E
100
AcDbEntity
  8
0
100
AcDbLine
 10
121.0
 20
158.4839999999999
 30
0.0
 11
121.0
 21
157.5239999999999
 31
0.0
  0
LINE
  5
4CF
330
1E
100
AcDbEntity
  8
0
100
AcDbLine
 10
121.0
 20
158.4839999999999
 30
0.0
 11
121.0
 21
159.332
 31
0.0
  0
LINE
  5
4D0
330
1E
100
AcDbEntity
  8
0
100
AcDbLine
 10
125.0
 20
160.4999999999999
 30
0.0
 11
125.0
 21
110.4999999999999
 31
0.0
  0
LINE
  5
4D1
330
1E
100
AcDbEntity
  8
0
100
AcDbLine
 10
121.0
 20
158.4999999999999
 30
0.0
 11
121.0
 21
109.6999999999999
 31
0.0
  0
LINE
  5
4D2
330
1E
100
AcDbEntity
  8
0
100
AcDbLine
 10
121.0
 20
158.4999999999999
 30
0.0
 11
121.0
 21
160.4999999999999
 31
0.0
  0
LINE
  5
4D3
330
1E
100
AcDbEntity
  8
0
100
AcDbLine
 10
121.0
 20
160.4999999999999
 30
0.0
 11
121.0
 21
110.4999999999999
 31
0.0
  0
LINE
  5
4D4
330
1E
100
AcDbEntity
  8
0
100
AcDbLine
 10
121.0
 20
160.4999999999999
 30
0.0
 11
125.0
 21
160.4999999999999
 31
0.0
  0
LINE
  5
4D5
330
1E
100
AcDbEntity
  8
0
100
AcDbLine
 10
121.0
 20
160.4999999999999
 30
0.0
 11
121.0
 21
158.4999999999999
 31
0.0
  0
LINE
  5
4D6
330
1E
100
AcDbEntity
  8
0
100
AcDbLine
 10
121.0
 20
160.4999999999999
 30
0.0
 11
121.0
 21
146.0
 31
0.0
  0
LINE
  5
4D7
330
1E
100
AcDbEntity
  8
0
100
AcDbLine
 10
121.0
 20
160.4999999999999
 30
0.0
 11
121.0
 21
160.3559999999999
 31
0.0
  0
LINE
  5
4D8
330
1E
100
AcDbEntity
  8
0
100
AcDbLine
 10
86.0
 20
161.0999999999999
 30
0.0
 11
86.0
 21
158.0
 31
0.0
  0
LINE
  5
4D9
330
1E
100
AcDbEntity
  8
0
100
AcDbLine
 10
86.0
 20
161.0999999999999
 30
0.0
 11
86.0
 21
164.0
 31
0.0
  0
LINE
  5
4DA
330
1E
100
AcDbEntity
  8
0
100
AcDbLine
 10
86.0
 20
158.0
 30
0.0
 11
86.0
 21
85.0
 31
0.0
  0
LINE
  5
4DB
330
1E
100
AcDbEntity
  8
0
100
AcDbLine
 10
86.0
 20
158.0
 30
0.0
 11
86.0
 21
161.0999999999999
 31
0.0
  0
LINE
  5
4DC
330
1E
100
AcDbEntity
  8
0
100
AcDbLine
 10
86.0
 20
12.0
 30
0.0
 11
86.0
 21
8.900000000000019
 31
0.0
  0
LINE
  5
4DD
330
1E
100
AcDbEntity
  8
0
100
AcDbLine
 10
86.0
 20
12.0
 30
0.0
 11
86.0
 21
85.0
 31
0.0
  0
LINE
  5
4DE
330
1E
100
AcDbEntity
  8
0
100
AcDbLine
 10
86.0
 20
12.0
 30
0.0
 11
86.0
 21
85.0
 31
0.0
  0
LINE
  5
4DF
330
1E
100
AcDbEntity
  8
0
100
AcDbLine
 10
74.29999999999999
 20
169.6999999999999
 30
0.0
 11
75.0
 21
170.0
 31
0.0
  0
LINE
  5
4E0
330
1E
100
AcDbEntity
  8
0
100
AcDbLine
 10
74.29999999999999
 20
169.6999999999999
 30
0.0
 11
74.29999999999999
 21
169.259
 31
0.0
  0
LINE
  5
4E1
330
1E
100
AcDbEntity
  8
0
100
AcDbLine
 10
75.0
 20
170.0
 30
0.0
 11
86.0
 21
170.0
 31
0.0
  0
LINE
  5
4E2
330
1E
100
AcDbEntity
  8
0
100
AcDbLine
 10
74.29999999999999
 20
0.300000000000017
 30
0.0
 11
75.0
 21
0.0000000000000166
 31
0.0
  0
LINE
  5
4E3
330
1E
100
AcDbEntity
  8
0
100
AcDbLine
 10
74.29999999999999
 20
0.300000000000017
 30
0.0
 11
75.0
 21
0.0000000000000166
 31
0.0
  0
LINE
  5
4E4
330
1E
100
AcDbEntity
  8
0
100
AcDbLine
 10
74.29999999999999
 20
0.300000000000017
 30
0.0
 11
74.29999999999999
 21
0.7411040000000171
 31
0.0
  0
LINE
  5
4E5
330
1E
100
AcDbEntity
  8
0
100
AcDbLine
 10
86.0
 20
0.000000000000016
 30
0.0
 11
86.0
 21
0.400000000000016
 31
0.0
  0
LINE
  5
4E6
330
1E
100
AcDbEntity
  8
0
100
AcDbLine
 10
74.0
 20
9.163060000000019
 30
0.0
 11
74.0
 21
12.0
 31
0.0
  0
LINE
  5
4E7
330
1E
100
AcDbEntity
  8
0
100
AcDbLine
 10
74.0
 20
9.163060000000019
 30
0.0
 11
74.0
 21
6.508520000000019
 31
0.0
  0
LINE
  5
4EC
330
1E
100
AcDbEntity
  8
0
100
AcDbLine
 10
46.88889999999999
 20
141.0
 30
0.0
 11
49.1111
 21
141.0
 31
0.0
  0
LINE
  5
4ED
330
1E
100
AcDbEntity
  8
0
100
AcDbLine
 10
46.0
 20
137.0
 30
0.0
 11
50.0
 21
137.0
 31
0.0
  0
LINE
  5
4EE
330
1E
100
AcDbEntity
  8
0
100
AcDbLine
 10
23.3148
 20
81.0
 30
0.0
 11
28.77779999999999
 21
81.0
 31
0.0
  0
LINE
  5
4EF
330
1E
100
AcDbEntity
  8
0
100
AcDbLine
 10
21.0
 20
75.0
 30
0.0
 11
31.0
 21
75.0
 31
0.0
  0
ENDSEC
  0
SECTION
  2
OBJECTS
  0
DICTIONARY
  5
C
330
0
100
AcDbDictionary
281
     1
  3
ACAD_GROUP
350
D
  3
ACAD_LAYOUT
350
19
  3
ACAD_MLINESTYLE
350
16
  3
ACAD_PLOTSETTINGS
350
18
  3
ACAD_PLOTSTYLENAME
350
E
  3
AcDbVariableDictionary
350
4F0
  0
DICTIONARY
  5
D
102
{ACAD_REACTORS
330
C
102
}
330
C
100
AcDbDictionary
281
     1
  0
DICTIONARY
  5
19
102
{ACAD_REACTORS
330
C
102
}
330
C
100
AcDbDictionary
281
     1
  3
Layout1
350
1D
  3
Model
350
21
  0
DICTIONARY
  5
16
102
{ACAD_REACTORS
330
C
102
}
330
C
100
AcDbDictionary
281
     1
  3
Standard
350
17
  0
DICTIONARY
  5
18
102
{ACAD_REACTORS
330
C
102
}
330
C
100
AcDbDictionary
281
     1
  0
ACDBDICTIONARYWDFLT
  5
E
102
{ACAD_REACTORS
330
C
102
}
330
C
100
AcDbDictionary
281
     1
  3
Normal
350
F
100
AcDbDictionaryWithDefault
340
F
  0
DICTIONARY
  5
4F0
102
{ACAD_REACTORS
330
C
102
}
330
C
100
AcDbDictionary
281
     1
  3
DIMASSOC
350
4F1
  0
LAYOUT
  5
1D
102
{ACAD_REACTORS
330
19
102
}
330
19
100
AcDbPlotSettings
  1

  2
hp deskjet 980c series
  4

  6

 40
0.0
 41
0.0
 42
0.0
 43
0.0
 44
0.0
 45
0.0
 46
0.0
 47
0.0
 48
0.0
 49
0.0
140
0.0
141
0.0
142
1.0
143
1.0
 70
   688
 72
     0
 73
     0
 74
     5
  7

 75
    16
147
1.0
148
0.0
149
0.0
100
AcDbLayout
  1
Layout1
 70
     1
 71
     1
 10
0.0
 20
0.0
 11
12.0
 21
9.0
 12
0.0
 22
0.0
 32
0.0
 14
1.000000000000000E+20
 24
1.000000000000000E+20
 34
1.000000000000000E+20
 15
-1.000000000000000E+20
 25
-1.000000000000000E+20
 35
-1.000000000000000E+20
146
0.0
 13
0.0
 23
0.0
 33
0.0
 16
1.0
 26
0.0
 36
0.0
 17
0.0
 27
1.0
 37
0.0
 76
     0
330
1A
  0
LAYOUT
  5
21
102
{ACAD_REACTORS
330
19
102
}
330
19
100
AcDbPlotSettings
  1

  2
hp deskjet 980c series
  4

  6

 40
0.0
 41
0.0
 42
0.0
 43
0.0
 44
0.0
 45
0.0
 46
0.0
 47
0.0
 48
0.0
 49
0.0
140
0.0
141
0.0
142
1.0
143
1.0
 70
  1712
 72
     0
 73
     0
 74
     0
  7

 75
     0
147
1.0
148
0.0
149
0.0
100
AcDbLayout
  1
Model
 70
     1
 71
     0
 10
0.0
 20
0.0
 11
12.0
 21
9.0
 12
0.0
 22
0.0
 32
0.0
 14
0.0
 24
0.0
 34
0.0
 15
0.0
 25
0.0
 35
0.0
146
0.0
 13
0.0
 23
0.0
 33
0.0
 16
1.0
 26
0.0
 36
0.0
 17
0.0
 27
1.0
 37
0.0
 76
     0
330
1E
  0
MLINESTYLE
  5
17
102
{ACAD_REACTORS
330
16
102
}
330
16
100
AcDbMlineStyle
  2
STANDARD
 70
     0
  3

 62
   256
 51
90.0
 52
90.0
 71
     2
 49
0.5
 62
   256
  6
BYLAYER
 49
-0.5
 62
   256
  6
BYLAYER
  0
ACDBPLACEHOLDER
  5
F
102
{ACAD_REACTORS
330
E
102
}
330
E
  0
DICTIONARYVAR
  5
4F1
102
{ACAD_REACTORS
330
4F0
102
}
330
4F0
100
DictionaryVariables
280
     0
  1
1
  0
ENDSEC
  0
EOF
