  0
SECTION
  2
HEADER
  9
$ACADVER
  1
AC1015
  9
$ACADMAINTVER
 70
    13
  9
$DWGCODEPAGE
  3
ANSI_1252
  9
$INSBASE
 10
0.0
 20
0.0
 30
0.0
  9
$EXTMIN
 10
0.0000000000000012
 20
0.133924248176407
 30
0.0
  9
$EXTMAX
 10
170.0
 20
348.866075751824
 30
0.0
  9
$LIMMIN
 10
0.0
 20
0.0
  9
$LIMMAX
 10
12.0
 20
9.0
  9
$ORTHOMODE
 70
     0
  9
$REGENMODE
 70
     1
  9
$FILLMODE
 70
     1
  9
$QTEXTMODE
 70
     0
  9
$MIRRTEXT
 70
     1
  9
$LTSCALE
 40
1.0
  9
$ATTMODE
 70
     1
  9
$TEXTSIZE
 40
0.2
  9
$TRACEWID
 40
0.05
  9
$TEXTSTYLE
  7
Standard
  9
$CLAYER
  8
0
  9
$CELTYPE
  6
Continuous
  9
$CECOLOR
 62
   256
  9
$CELTSCALE
 40
1.0
  9
$DISPSILH
 70
     0
  9
$DIMSCALE
 40
1.0
  9
$DIMASZ
 40
0.18
  9
$DIMEXO
 40
0.0625
  9
$DIMDLI
 40
0.38
  9
$DIMRND
 40
0.0
  9
$DIMDLE
 40
0.0
  9
$DIMEXE
 40
0.18
  9
$DIMTP
 40
0.0
  9
$DIMTM
 40
0.0
  9
$DIMTXT
 40
0.18
  9
$DIMCEN
 40
0.09
  9
$DIMTSZ
 40
0.0
  9
$DIMTOL
 70
     0
  9
$DIMLIM
 70
     0
  9
$DIMTIH
 70
     1
  9
$DIMTOH
 70
     1
  9
$DIMSE1
 70
     0
  9
$DIMSE2
 70
     0
  9
$DIMTAD
 70
     0
  9
$DIMZIN
 70
     0
  9
$DIMBLK
  1

  9
$DIMASO
 70
     1
  9
$DIMSHO
 70
     1
  9
$DIMPOST
  1

  9
$DIMAPOST
  1

  9
$DIMALT
 70
     0
  9
$DIMALTD
 70
     2
  9
$DIMALTF
 40
25.4
  9
$DIMLFAC
 40
1.0
  9
$DIMTOFL
 70
     0
  9
$DIMTVP
 40
0.0
  9
$DIMTIX
 70
     0
  9
$DIMSOXD
 70
     0
  9
$DIMSAH
 70
     0
  9
$DIMBLK1
  1

  9
$DIMBLK2
  1

  9
$DIMSTYLE
  2
Standard
  9
$DIMCLRD
 70
     0
  9
$DIMCLRE
 70
     0
  9
$DIMCLRT
 70
     0
  9
$DIMTFAC
 40
1.0
  9
$DIMGAP
 40
0.09
  9
$DIMJUST
 70
     0
  9
$DIMSD1
 70
     0
  9
$DIMSD2
 70
     0
  9
$DIMTOLJ
 70
     1
  9
$DIMTZIN
 70
     0
  9
$DIMALTZ
 70
     0
  9
$DIMALTTZ
 70
     0
  9
$DIMUPT
 70
     0
  9
$DIMDEC
 70
     4
  9
$DIMTDEC
 70
     4
  9
$DIMALTU
 70
     2
  9
$DIMALTTD
 70
     2
  9
$DIMTXSTY
  7
Standard
  9
$DIMAUNIT
 70
     0
  9
$DIMADEC
 70
     0
  9
$DIMALTRND
 40
0.0
  9
$DIMAZIN
 70
     0
  9
$DIMDSEP
 70
    46
  9
$DIMATFIT
 70
     3
  9
$DIMFRAC
 70
     0
  9
$DIMLDRBLK
  1

  9
$DIMLUNIT
 70
     2
  9
$DIMLWD
 70
    -2
  9
$DIMLWE
 70
    -2
  9
$DIMTMOVE
 70
     0
  9
$LUNITS
 70
     2
  9
$LUPREC
 70
     4
  9
$SKETCHINC
 40
0.1
  9
$FILLETRAD
 40
0.0
  9
$AUNITS
 70
     0
  9
$AUPREC
 70
     0
  9
$MENU
  1
.
  9
$ELEVATION
 40
0.0
  9
$PELEVATION
 40
0.0
  9
$THICKNESS
 40
0.0
  9
$LIMCHECK
 70
     0
  9
$CHAMFERA
 40
0.0
  9
$CHAMFERB
 40
0.0
  9
$CHAMFERC
 40
0.0
  9
$CHAMFERD
 40
0.0
  9
$SKPOLY
 70
     0
  9
$TDCREATE
 40
2454637.792515879
  9
$TDUCREATE
 40
2454637.709182546
  9
$TDUPDATE
 40
2454637.793520115
  9
$TDUUPDATE
 40
2454637.710186782
  9
$TDINDWG
 40
0.0010044097
  9
$TDUSRTIMER
 40
0.0010044097
  9
$USRTIMER
 70
     1
  9
$ANGBASE
 50
0.0
  9
$ANGDIR
 70
     0
  9
$PDMODE
 70
     0
  9
$PDSIZE
 40
0.0
  9
$PLINEWID
 40
0.0
  9
$SPLFRAME
 70
     0
  9
$SPLINETYPE
 70
     6
  9
$SPLINESEGS
 70
     8
  9
$HANDSEED
  5
16E
  9
$SURFTAB1
 70
     6
  9
$SURFTAB2
 70
     6
  9
$SURFTYPE
 70
     6
  9
$SURFU
 70
     6
  9
$SURFV
 70
     6
  9
$UCSBASE
  2

  9
$UCSNAME
  2

  9
$UCSORG
 10
0.0
 20
0.0
 30
0.0
  9
$UCSXDIR
 10
1.0
 20
0.0
 30
0.0
  9
$UCSYDIR
 10
0.0
 20
1.0
 30
0.0
  9
$UCSORTHOREF
  2

  9
$UCSORTHOVIEW
 70
     1
  9
$UCSORGTOP
 10
0.0
 20
0.0
 30
0.0
  9
$UCSORGBOTTOM
 10
0.0
 20
0.0
 30
0.0
  9
$UCSORGLEFT
 10
0.0
 20
0.0
 30
0.0
  9
$UCSORGRIGHT
 10
0.0
 20
0.0
 30
0.0
  9
$UCSORGFRONT
 10
0.0
 20
0.0
 30
0.0
  9
$UCSORGBACK
 10
0.0
 20
0.0
 30
0.0
  9
$PUCSBASE
  2

  9
$PUCSNAME
  2

  9
$PUCSORG
 10
0.0
 20
0.0
 30
0.0
  9
$PUCSXDIR
 10
1.0
 20
0.0
 30
0.0
  9
$PUCSYDIR
 10
0.0
 20
1.0
 30
0.0
  9
$PUCSORTHOREF
  2

  9
$PUCSORTHOVIEW
 70
     0
  9
$PUCSORGTOP
 10
0.0
 20
0.0
 30
0.0
  9
$PUCSORGBOTTOM
 10
0.0
 20
0.0
 30
0.0
  9
$PUCSORGLEFT
 10
0.0
 20
0.0
 30
0.0
  9
$PUCSORGRIGHT
 10
0.0
 20
0.0
 30
0.0
  9
$PUCSORGFRONT
 10
0.0
 20
0.0
 30
0.0
  9
$PUCSORGBACK
 10
0.0
 20
0.0
 30
0.0
  9
$USERI1
 70
     0
  9
$USERI2
 70
     0
  9
$USERI3
 70
     0
  9
$USERI4
 70
     0
  9
$USERI5
 70
     0
  9
$USERR1
 40
0.0
  9
$USERR2
 40
0.0
  9
$USERR3
 40
0.0
  9
$USERR4
 40
0.0
  9
$USERR5
 40
0.0
  9
$WORLDVIEW
 70
     1
  9
$SHADEDGE
 70
     3
  9
$SHADEDIF
 70
    70
  9
$TILEMODE
 70
     1
  9
$MAXACTVP
 70
    64
  9
$PINSBASE
 10
0.0
 20
0.0
 30
0.0
  9
$PLIMCHECK
 70
     0
  9
$PEXTMIN
 10
1.000000000000000E+20
 20
1.000000000000000E+20
 30
1.000000000000000E+20
  9
$PEXTMAX
 10
-1.000000000000000E+20
 20
-1.000000000000000E+20
 30
-1.000000000000000E+20
  9
$PLIMMIN
 10
0.0
 20
0.0
  9
$PLIMMAX
 10
12.0
 20
9.0
  9
$UNITMODE
 70
     0
  9
$VISRETAIN
 70
     1
  9
$PLINEGEN
 70
     0
  9
$PSLTSCALE
 70
     1
  9
$TREEDEPTH
 70
  3020
  9
$CMLSTYLE
  2
Standard
  9
$CMLJUST
 70
     0
  9
$CMLSCALE
 40
1.0
  9
$PROXYGRAPHICS
 70
     1
  9
$MEASUREMENT
 70
     0
  9
$CELWEIGHT
370
    -1
  9
$ENDCAPS
280
     0
  9
$JOINSTYLE
280
     0
  9
$LWDISPLAY
290
     0
  9
$INSUNITS
 70
     0
  9
$HYPERLINKBASE
  1

  9
$STYLESHEET
  1

  9
$XEDIT
290
     1
  9
$CEPSNTYPE
380
     0
  9
$PSTYLEMODE
290
     1
  9
$FINGERPRINTGUID
  2
{25021CE6-FC4C-4D06-9EF0-1F0602E7DF02}
  9
$VERSIONGUID
  2
{9B23922B-B895-4829-8680-04C89F785224}
  9
$EXTNAMES
290
     1
  9
$PSVPSCALE
 40
0.0
  9
$OLESTARTUP
290
     0
  0
ENDSEC
  0
SECTION
  2
CLASSES
  0
CLASS
  1
ACDBDICTIONARYWDFLT
  2
AcDbDictionaryWithDefault
  3
AutoCAD 2000
 90
        0
280
     0
281
     0
  0
CLASS
  1
ACDBPLACEHOLDER
  2
AcDbPlaceHolder
  3
AutoCAD 2000
 90
        0
280
     0
281
     0
  0
CLASS
  1
LAYOUT
  2
AcDbLayout
  3
AutoCAD 2000
 90
        0
280
     0
281
     0
  0
CLASS
  1
DICTIONARYVAR
  2
AcDbDictionaryVar
  3
AutoCAD 2000
 90
        0
280
     0
281
     0
  0
ENDSEC
  0
SECTION
  2
TABLES
  0
TABLE
  2
VPORT
  5
8
330
0
100
AcDbSymbolTable
 70
     2
  0
VPORT
  5
16D
330
8
100
AcDbSymbolTableRecord
100
AcDbViewportTableRecord
  2
*Active
 70
     0
 10
0.0
 20
0.0
 11
1.0
 21
1.0
 12
85.0
 22
174.5000000000002
 13
0.0
 23
0.0
 14
1.0
 24
1.0
 15
0.0
 25
0.0
 16
0.0
 26
0.0
 36
1.0
 17
0.0
 27
0.0
 37
0.0
 40
351.4078457607088
 41
2.043533930857874
 42
50.0
 43
0.0
 44
0.0
 50
0.0
 51
0.0
 71
     0
 72
   100
 73
     1
 74
     3
 75
     0
 76
     0
 77
     0
 78
     0
281
     0
 65
     1
110
0.0
120
0.0
130
0.0
111
1.0
121
0.0
131
0.0
112
0.0
122
1.0
132
0.0
 79
     1
146
0.0
  0
ENDTAB
  0
TABLE
  2
LTYPE
  5
5
330
0
100
AcDbSymbolTable
 70
     1
  0
LTYPE
  5
13
330
5
100
AcDbSymbolTableRecord
100
AcDbLinetypeTableRecord
  2
ByBlock
 70
     0
  3

 72
    65
 73
     0
 40
0.0
  0
LTYPE
  5
14
330
5
100
AcDbSymbolTableRecord
100
AcDbLinetypeTableRecord
  2
ByLayer
 70
     0
  3

 72
    65
 73
     0
 40
0.0
  0
LTYPE
  5
15
330
5
100
AcDbSymbolTableRecord
100
AcDbLinetypeTableRecord
  2
Continuous
 70
     0
  3
Solid line
 72
    65
 73
     0
 40
0.0
  0
ENDTAB
  0
TABLE
  2
LAYER
  5
2
330
0
100
AcDbSymbolTable
 70
     1
  0
LAYER
  5
10
330
2
100
AcDbSymbolTableRecord
100
AcDbLayerTableRecord
  2
0
 70
     0
 62
     7
  6
Continuous
370
    -3
390
F
  0
ENDTAB
  0
TABLE
  2
STYLE
  5
3
330
0
100
AcDbSymbolTable
 70
     1
  0
STYLE
  5
11
330
3
100
AcDbSymbolTableRecord
100
AcDbTextStyleTableRecord
  2
Standard
 70
     0
 40
0.0
 41
1.0
 50
0.0
 71
     0
 42
0.2
  3
txt
  4

  0
ENDTAB
  0
TABLE
  2
VIEW
  5
6
330
0
100
AcDbSymbolTable
 70
     0
  0
ENDTAB
  0
TABLE
  2
UCS
  5
7
330
0
100
AcDbSymbolTable
 70
     0
  0
ENDTAB
  0
TABLE
  2
APPID
  5
9
330
0
100
AcDbSymbolTable
 70
     1
  0
APPID
  5
12
330
9
100
AcDbSymbolTableRecord
100
AcDbRegAppTableRecord
  2
ACAD
 70
     0
  0
ENDTAB
  0
TABLE
  2
DIMSTYLE
  5
A
330
0
100
AcDbSymbolTable
 70
     1
100
AcDbDimStyleTable
 71
     0
  0
DIMSTYLE
105
166
330
A
100
AcDbSymbolTableRecord
100
AcDbDimStyleTableRecord
  2
Standard
 70
     0
340
11
  0
ENDTAB
  0
TABLE
  2
BLOCK_RECORD
  5
1
330
0
100
AcDbSymbolTable
 70
     0
  0
BLOCK_RECORD
  5
1E
330
1
100
AcDbSymbolTableRecord
100
AcDbBlockTableRecord
  2
*Model_Space
340
21
  0
BLOCK_RECORD
  5
1A
330
1
100
AcDbSymbolTableRecord
100
AcDbBlockTableRecord
  2
*Paper_Space
340
1D
  0
ENDTAB
  0
ENDSEC
  0
SECTION
  2
BLOCKS
  0
BLOCK
  5
1F
330
1E
100
AcDbEntity
  8
0
100
AcDbBlockBegin
  2
*Model_Space
 70
     0
 10
0.0
 20
0.0
 30
0.0
  3
*Model_Space
  1

  0
ENDBLK
  5
20
330
1E
100
AcDbEntity
  8
0
100
AcDbBlockEnd
  0
BLOCK
  5
1B
330
1A
100
AcDbEntity
 67
     1
  8
0
100
AcDbBlockBegin
  2
*Paper_Space
 70
     0
 10
0.0
 20
0.0
 30
0.0
  3
*Paper_Space
  1

  0
ENDBLK
  5
1C
330
1A
100
AcDbEntity
 67
     1
  8
0
100
AcDbBlockEnd
  0
ENDSEC
  0
SECTION
  2
ENTITIES
  0
LINE
  5
22
330
1E
100
AcDbEntity
  8
0
100
AcDbLine
 10
32.0
 20
37.8358769664342
 30
0.0
 11
37.4
 21
25.87260127437859
 31
0.0
  0
LINE
  5
23
330
1E
100
AcDbEntity
  8
0
100
AcDbLine
 10
32.0
 20
37.66683050025379
 30
0.0
 11
37.4
 21
25.7035548081982
 31
0.0
  0
LINE
  5
24
330
1E
100
AcDbEntity
  8
0
100
AcDbLine
 10
46.2
 20
15.4500504820574
 30
0.0
 11
57.7
 21
7.47453335402035
 31
0.0
  0
LINE
  5
25
330
1E
100
AcDbEntity
  8
0
100
AcDbLine
 10
46.2
 20
15.281004015877
 30
0.0
 11
57.7
 21
7.305486887839969
 31
0.0
  0
LINE
  5
26
330
1E
100
AcDbEntity
  8
0
100
AcDbLine
 10
46.2
 20
14.81612623388099
 30
0.0
 11
57.7
 21
6.840609105843941
 31
0.0
  0
LINE
  5
27
330
1E
100
AcDbEntity
  8
0
100
AcDbLine
 10
37.4
 20
25.87260127437859
 30
0.0
 11
46.2
 21
15.4500504820574
 31
0.0
  0
LINE
  5
28
330
1E
100
AcDbEntity
  8
0
100
AcDbLine
 10
37.4
 20
25.7035548081982
 30
0.0
 11
46.2
 21
15.281004015877
 31
0.0
  0
LINE
  5
29
330
1E
100
AcDbEntity
  8
0
100
AcDbLine
 10
37.4
 20
25.23867702620219
 30
0.0
 11
46.2
 21
14.81612623388099
 31
0.0
  0
LINE
  5
2A
330
1E
100
AcDbEntity
  8
0
100
AcDbLine
 10
32.0
 20
37.2019527182577
 30
0.0
 11
37.4
 21
25.23867702620219
 31
0.0
  0
LINE
  5
2B
330
1E
100
AcDbEntity
  8
0
100
AcDbLine
 10
30.0
 20
54.20706795291749
 30
0.0
 11
32.0
 21
66.9860215330677
 31
0.0
  0
LINE
  5
2C
330
1E
100
AcDbEntity
  8
0
100
AcDbLine
 10
30.0
 20
54.20706795291749
 30
0.0
 11
30.0
 21
50.61483054658439
 31
0.0
  0
LINE
  5
2D
330
1E
100
AcDbEntity
  8
0
100
AcDbLine
 10
30.0
 20
50.61483054658439
 30
0.0
 11
30.0
 21
54.20706795291749
 31
0.0
  0
LINE
  5
2E
330
1E
100
AcDbEntity
  8
0
100
AcDbLine
 10
30.0
 20
50.61483054658439
 30
0.0
 11
32.0
 21
37.8358769664342
 31
0.0
  0
LINE
  5
2F
330
1E
100
AcDbEntity
  8
0
100
AcDbLine
 10
37.4
 20
78.9492972251233
 30
0.0
 11
46.2
 21
89.37184801744448
 31
0.0
  0
LINE
  5
30
330
1E
100
AcDbEntity
  8
0
100
AcDbLine
 10
32.0
 20
66.9860215330677
 30
0.0
 11
37.4
 21
78.9492972251233
 31
0.0
  0
LINE
  5
31
330
1E
100
AcDbEntity
  8
0
100
AcDbLine
 10
30.0
 20
50.4457840804041
 30
0.0
 11
30.0132285061621
 21
50.5303073134943
 31
0.0
  0
LINE
  5
32
330
1E
100
AcDbEntity
  8
0
100
AcDbLine
 10
30.0
 20
50.4457840804041
 30
0.0
 11
30.0
 21
49.980906298408
 31
0.0
  0
LINE
  5
33
330
1E
100
AcDbEntity
  8
0
100
AcDbLine
 10
30.0
 20
50.4457840804041
 30
0.0
 11
32.0
 21
37.66683050025379
 31
0.0
  0
LINE
  5
34
330
1E
100
AcDbEntity
  8
0
100
AcDbLine
 10
30.0
 20
49.980906298408
 30
0.0
 11
30.0
 21
50.4457840804041
 31
0.0
  0
LINE
  5
35
330
1E
100
AcDbEntity
  8
0
100
AcDbLine
 10
30.0
 20
49.980906298408
 30
0.0
 11
32.0
 21
37.2019527182577
 31
0.0
  0
LINE
  5
36
330
1E
100
AcDbEntity
  8
0
100
AcDbLine
 10
57.7
 20
7.47453335402035
 30
0.0
 11
70.9
 21
2.580466025452149
 31
0.0
  0
LINE
  5
37
330
1E
100
AcDbEntity
  8
0
100
AcDbLine
 10
57.7
 20
7.47453335402035
 30
0.0
 11
70.9
 21
2.580466025452149
 31
0.0
  0
LINE
  5
38
330
1E
100
AcDbEntity
  8
0
100
AcDbLine
 10
57.7
 20
7.305486887839969
 30
0.0
 11
70.9
 21
2.411419559271779
 31
0.0
  0
LINE
  5
39
330
1E
100
AcDbEntity
  8
0
100
AcDbLine
 10
57.7
 20
7.305486887839969
 30
0.0
 11
70.9
 21
2.411419559271779
 31
0.0
  0
LINE
  5
3A
330
1E
100
AcDbEntity
  8
0
100
AcDbLine
 10
70.9
 20
2.580466025452149
 30
0.0
 11
85.0
 21
0.7678484963528211
 31
0.0
  0
LINE
  5
3B
330
1E
100
AcDbEntity
  8
0
100
AcDbLine
 10
70.9
 20
2.411419559271779
 30
0.0
 11
85.0
 21
0.598802030172444
 31
0.0
  0
LINE
  5
3C
330
1E
100
AcDbEntity
  8
0
100
AcDbLine
 10
70.9
 20
2.411419559271779
 30
0.0
 11
85.0
 21
0.598802030172444
 31
0.0
  0
LINE
  5
3D
330
1E
100
AcDbEntity
  8
0
100
AcDbLine
 10
57.7
 20
6.840609105843941
 30
0.0
 11
70.9
 21
1.946541777275739
 31
0.0
  0
LINE
  5
3E
330
1E
100
AcDbEntity
  8
0
100
AcDbLine
 10
57.7
 20
6.840609105843941
 30
0.0
 11
70.9
 21
1.946541777275739
 31
0.0
  0
LINE
  5
3F
330
1E
100
AcDbEntity
  8
0
100
AcDbLine
 10
70.9
 20
1.946541777275739
 30
0.0
 11
85.0
 21
0.133924248176407
 31
0.0
  0
LINE
  5
40
330
1E
100
AcDbEntity
  8
0
100
AcDbLine
 10
46.2
 20
89.37184801744448
 30
0.0
 11
57.7
 21
97.3473651454816
 31
0.0
  0
LINE
  5
41
330
1E
100
AcDbEntity
  8
0
100
AcDbLine
 10
0.0000000000000012
 20
348.866075751824
 30
0.0
 11
0.4000000000000011
 21
348.866075751824
 31
0.0
  0
LINE
  5
42
330
1E
100
AcDbEntity
  8
0
100
AcDbLine
 10
0.0000000000000012
 20
348.866075751824
 30
0.0
 11
0.0000000000000012
 21
337.866075751824
 31
0.0
  0
LINE
  5
43
330
1E
100
AcDbEntity
  8
0
100
AcDbLine
 10
0.3000000000000011
 20
337.166075751824
 30
0.0
 11
0.7411040000000011
 21
337.166075751824
 31
0.0
  0
LINE
  5
44
330
1E
100
AcDbEntity
  8
0
100
AcDbLine
 10
0.7411040000000011
 20
337.166075751824
 30
0.0
 11
1.859399999999999
 21
337.166075751824
 31
0.0
  0
LINE
  5
45
330
1E
100
AcDbEntity
  8
0
100
AcDbLine
 10
4.2
 20
336.8660757518239
 30
0.0
 11
6.508519999999999
 21
336.8660757518239
 31
0.0
  0
LINE
  5
46
330
1E
100
AcDbEntity
  8
0
100
AcDbLine
 10
6.508519999999999
 20
336.8660757518239
 30
0.0
 11
9.163059999999999
 21
336.8660757518239
 31
0.0
  0
LINE
  5
47
330
1E
100
AcDbEntity
  8
0
100
AcDbLine
 10
50.8
 20
336.8660757518239
 30
0.0
 11
54.29999999999999
 21
336.8660757518239
 31
0.0
  0
LINE
  5
48
330
1E
100
AcDbEntity
  8
0
100
AcDbLine
 10
49.5
 20
336.8660757518239
 30
0.0
 11
50.8
 21
336.8660757518239
 31
0.0
  0
LINE
  5
49
330
1E
100
AcDbEntity
  8
0
100
AcDbLine
 10
12.0
 20
336.8660757518239
 30
0.0
 11
74.0
 21
336.8660757518239
 31
0.0
  0
LINE
  5
4A
330
1E
100
AcDbEntity
  8
0
100
AcDbLine
 10
60.0
 20
336.8660757518239
 30
0.0
 11
60.9155
 21
336.8660757518239
 31
0.0
  0
LINE
  5
4B
330
1E
100
AcDbEntity
  8
0
100
AcDbLine
 10
59.9
 20
336.8660757518239
 30
0.0
 11
67.3
 21
336.8660757518239
 31
0.0
  0
LINE
  5
4C
330
1E
100
AcDbEntity
  8
0
100
AcDbLine
 10
54.29999999999999
 20
336.8660757518239
 30
0.0
 11
59.9
 21
336.8660757518239
 31
0.0
  0
LINE
  5
4D
330
1E
100
AcDbEntity
  8
0
100
AcDbLine
 10
63.38029999999999
 20
336.8660757518239
 30
0.0
 11
67.32389999999999
 21
336.8660757518239
 31
0.0
  0
LINE
  5
4E
330
1E
100
AcDbEntity
  8
0
100
AcDbLine
 10
60.9155
 20
336.8660757518239
 30
0.0
 11
63.38029999999999
 21
336.8660757518239
 31
0.0
  0
LINE
  5
4F
330
1E
100
AcDbEntity
  8
0
100
AcDbLine
 10
67.32389999999999
 20
336.8660757518239
 30
0.0
 11
72.5352
 21
336.8660757518239
 31
0.0
  0
LINE
  5
50
330
1E
100
AcDbEntity
  8
0
100
AcDbLine
 10
67.3
 20
336.8660757518239
 30
0.0
 11
75.9
 21
336.8660757518239
 31
0.0
  0
LINE
  5
51
330
1E
100
AcDbEntity
  8
0
100
AcDbLine
 10
63.87319999999999
 20
336.8660757518239
 30
0.0
 11
67.81690000000001
 21
336.8660757518239
 31
0.0
  0
LINE
  5
52
330
1E
100
AcDbEntity
  8
0
100
AcDbLine
 10
61.5493
 20
336.8660757518239
 30
0.0
 11
63.87319999999999
 21
336.8660757518239
 31
0.0
  0
LINE
  5
53
330
1E
100
AcDbEntity
  8
0
100
AcDbLine
 10
60.6338
 20
336.8660757518239
 30
0.0
 11
61.5493
 21
336.8660757518239
 31
0.0
  0
LINE
  5
54
330
1E
100
AcDbEntity
  8
0
100
AcDbLine
 10
60.6
 20
336.8660757518239
 30
0.0
 11
67.8
 21
336.8660757518239
 31
0.0
  0
LINE
  5
55
330
1E
100
AcDbEntity
  8
0
100
AcDbLine
 10
67.81690000000001
 20
336.8660757518239
 30
0.0
 11
72.8873
 21
336.8660757518239
 31
0.0
  0
LINE
  5
56
330
1E
100
AcDbEntity
  8
0
100
AcDbLine
 10
67.8
 20
336.8660757518239
 30
0.0
 11
74.0
 21
336.8660757518239
 31
0.0
  0
LINE
  5
57
330
1E
100
AcDbEntity
  8
0
100
AcDbLine
 10
55.0
 20
336.8660757518239
 30
0.0
 11
60.6
 21
336.8660757518239
 31
0.0
  0
LINE
  5
58
330
1E
100
AcDbEntity
  8
0
100
AcDbLine
 10
51.7
 20
336.8660757518239
 30
0.0
 11
55.0
 21
336.8660757518239
 31
0.0
  0
LINE
  5
59
330
1E
100
AcDbEntity
  8
0
100
AcDbLine
 10
50.4
 20
336.8660757518239
 30
0.0
 11
51.7
 21
336.8660757518239
 31
0.0
  0
LINE
  5
5A
330
1E
100
AcDbEntity
  8
0
100
AcDbLine
 10
9.163059999999999
 20
336.8660757518239
 30
0.0
 11
12.0
 21
336.8660757518239
 31
0.0
  0
LINE
  5
5B
330
1E
100
AcDbEntity
  8
0
100
AcDbLine
 10
12.0
 20
336.8660757518239
 30
0.0
 11
74.0
 21
336.8660757518239
 31
0.0
  0
LINE
  5
5C
330
1E
100
AcDbEntity
  8
0
100
AcDbLine
 10
2.488449999999999
 20
336.8660757518239
 30
0.0
 11
4.2
 21
336.8660757518239
 31
0.0
  0
LINE
  5
5D
330
1E
100
AcDbEntity
  8
0
100
AcDbLine
 10
1.859399999999999
 20
337.166075751824
 30
0.0
 11
3.7
 21
337.166075751824
 31
0.0
  0
LINE
  5
5E
330
1E
100
AcDbEntity
  8
0
100
AcDbLine
 10
3.7
 20
337.166075751824
 30
0.0
 11
6.15924
 21
337.166075751824
 31
0.0
  0
LINE
  5
5F
330
1E
100
AcDbEntity
  8
0
100
AcDbLine
 10
12.0
 20
337.166075751824
 30
0.0
 11
85.0
 21
337.166075751824
 31
0.0
  0
LINE
  5
60
330
1E
100
AcDbEntity
  8
0
100
AcDbLine
 10
6.15924
 20
337.166075751824
 30
0.0
 11
8.976779999999999
 21
337.166075751824
 31
0.0
  0
LINE
  5
61
330
1E
100
AcDbEntity
  8
0
100
AcDbLine
 10
8.976779999999999
 20
337.166075751824
 30
0.0
 11
12.0
 21
337.166075751824
 31
0.0
  0
LINE
  5
62
330
1E
100
AcDbEntity
  8
0
100
AcDbLine
 10
12.0
 20
337.166075751824
 30
0.0
 11
85.0
 21
337.166075751824
 31
0.0
  0
LINE
  5
63
330
1E
100
AcDbEntity
  8
0
100
AcDbLine
 10
1.440039999999999
 20
336.8660757518239
 30
0.0
 11
2.488449999999999
 21
336.8660757518239
 31
0.0
  0
LINE
  5
64
330
1E
100
AcDbEntity
  8
0
100
AcDbLine
 10
1.0
 20
336.8660757518239
 30
0.0
 11
1.440039999999999
 21
336.8660757518239
 31
0.0
  0
LINE
  5
65
330
1E
100
AcDbEntity
  8
0
100
AcDbLine
 10
0.4000000000000011
 20
348.866075751824
 30
0.0
 11
1.6
 21
348.866075751824
 31
0.0
  0
LINE
  5
66
330
1E
100
AcDbEntity
  8
0
100
AcDbLine
 10
1.6
 20
348.866075751824
 30
0.0
 11
3.5
 21
348.866075751824
 31
0.0
  0
LINE
  5
67
330
1E
100
AcDbEntity
  8
0
100
AcDbLine
 10
0.4000000000000011
 20
348.866075751824
 30
0.0
 11
1.6
 21
348.866075751824
 31
0.0
  0
LINE
  5
68
330
1E
100
AcDbEntity
  8
0
100
AcDbLine
 10
3.5
 20
348.866075751824
 30
0.0
 11
6.0
 21
348.866075751824
 31
0.0
  0
LINE
  5
69
330
1E
100
AcDbEntity
  8
0
100
AcDbLine
 10
6.0
 20
348.866075751824
 30
0.0
 11
8.9
 21
348.866075751824
 31
0.0
  0
LINE
  5
6A
330
1E
100
AcDbEntity
  8
0
100
AcDbLine
 10
8.9
 20
348.866075751824
 30
0.0
 11
12.0
 21
348.866075751824
 31
0.0
  0
LINE
  5
6B
330
1E
100
AcDbEntity
  8
0
100
AcDbLine
 10
12.0
 20
348.866075751824
 30
0.0
 11
85.0
 21
348.866075751824
 31
0.0
  0
LINE
  5
6C
330
1E
100
AcDbEntity
  8
0
100
AcDbLine
 10
12.0
 20
348.866075751824
 30
0.0
 11
85.0
 21
348.866075751824
 31
0.0
  0
LINE
  5
6D
330
1E
100
AcDbEntity
  8
0
100
AcDbLine
 10
0.3000000000000011
 20
337.166075751824
 30
0.0
 11
1.0
 21
336.8660757518239
 31
0.0
  0
LINE
  5
6E
330
1E
100
AcDbEntity
  8
0
100
AcDbLine
 10
0.3000000000000011
 20
337.166075751824
 30
0.0
 11
0.7411040000000011
 21
337.166075751824
 31
0.0
  0
LINE
  5
6F
330
1E
100
AcDbEntity
  8
0
100
AcDbLine
 10
0.0000000000000012
 20
337.866075751824
 30
0.0
 11
0.3000000000000011
 21
337.166075751824
 31
0.0
  0
LINE
  5
70
330
1E
100
AcDbEntity
  8
0
100
AcDbLine
 10
0.0000000000000012
 20
337.866075751824
 30
0.0
 11
0.0000000000000012
 21
348.866075751824
 31
0.0
  0
LINE
  5
71
330
1E
100
AcDbEntity
  8
0
100
AcDbLine
 10
57.7
 20
97.3473651454816
 30
0.0
 11
70.9
 21
102.2414324740499
 31
0.0
  0
LINE
  5
72
330
1E
100
AcDbEntity
  8
0
100
AcDbLine
 10
85.0
 20
0.598802030172444
 30
0.0
 11
99.1
 21
2.411419559271779
 31
0.0
  0
LINE
  5
73
330
1E
100
AcDbEntity
  8
0
100
AcDbLine
 10
85.0
 20
0.7678484963528211
 30
0.0
 11
99.1
 21
2.580466025452149
 31
0.0
  0
LINE
  5
74
330
1E
100
AcDbEntity
  8
0
100
AcDbLine
 10
85.0
 20
81.96299198535621
 30
0.0
 11
88.32799999999998
 21
82.38714448716541
 31
0.0
  0
LINE
  5
75
330
1E
100
AcDbEntity
  8
0
100
AcDbLine
 10
72.468
 20
90.72881035608048
 30
0.0
 11
73.716
 21
87.9011270106856
 31
0.0
  0
LINE
  5
76
330
1E
100
AcDbEntity
  8
0
100
AcDbLine
 10
73.716
 20
87.9011270106856
 30
0.0
 11
75.79600000000001
 21
85.40334005558669
 31
0.0
  0
LINE
  5
77
330
1E
100
AcDbEntity
  8
0
100
AcDbLine
 10
75.79600000000001
 20
85.40334005558669
 30
0.0
 11
78.55199999999999
 21
83.5182178253234
 31
0.0
  0
LINE
  5
78
330
1E
100
AcDbEntity
  8
0
100
AcDbLine
 10
78.55199999999999
 20
83.5182178253234
 30
0.0
 11
81.67199999999999
 21
82.38714448716541
 31
0.0
  0
LINE
  5
79
330
1E
100
AcDbEntity
  8
0
100
AcDbLine
 10
81.67199999999999
 20
82.38714448716541
 30
0.0
 11
85.0
 21
81.96299198535621
 31
0.0
  0
LINE
  5
7A
330
1E
100
AcDbEntity
  8
0
100
AcDbLine
 10
97.53200000000001
 20
90.72881035608048
 30
0.0
 11
98.0
 21
93.2748877020542
 31
0.0
  0
LINE
  5
7B
330
1E
100
AcDbEntity
  8
0
100
AcDbLine
 10
96.28399999999999
 20
87.9011270106856
 30
0.0
 11
97.53200000000001
 21
90.72881035608048
 31
0.0
  0
LINE
  5
7C
330
1E
100
AcDbEntity
  8
0
100
AcDbLine
 10
94.20399999999998
 20
85.40334005558669
 30
0.0
 11
96.28399999999999
 21
87.9011270106856
 31
0.0
  0
LINE
  5
7D
330
1E
100
AcDbEntity
  8
0
100
AcDbLine
 10
91.448
 20
83.5182178253234
 30
0.0
 11
94.20399999999998
 21
85.40334005558669
 31
0.0
  0
LINE
  5
7E
330
1E
100
AcDbEntity
  8
0
100
AcDbLine
 10
88.32799999999998
 20
82.38714448716541
 30
0.0
 11
91.448
 21
83.5182178253234
 31
0.0
  0
LINE
  5
7F
330
1E
100
AcDbEntity
  8
0
100
AcDbLine
 10
88.27600000000002
 20
91.33481206194558
 30
0.0
 11
91.292
 21
92.46588540010359
 31
0.0
  0
LINE
  5
80
330
1E
100
AcDbEntity
  8
0
100
AcDbLine
 10
85.0
 20
90.91065956013641
 30
0.0
 11
88.27600000000002
 21
91.33481206194558
 31
0.0
  0
LINE
  5
81
330
1E
100
AcDbEntity
  8
0
100
AcDbLine
 10
85.0
 20
91.46948954435769
 30
0.0
 11
86.89579999999999
 21
91.65419527057292
 31
0.0
  0
LINE
  5
82
330
1E
100
AcDbEntity
  8
0
100
AcDbLine
 10
86.89579999999999
 20
91.65419527057292
 30
0.0
 11
89.0681
 21
92.20813118746571
 31
0.0
  0
LINE
  5
83
330
1E
100
AcDbEntity
  8
0
100
AcDbLine
 10
83.1042
 20
91.65419527057292
 30
0.0
 11
85.0
 21
91.46948954435769
 31
0.0
  0
LINE
  5
84
330
1E
100
AcDbEntity
  8
0
100
AcDbLine
 10
81.72399999999999
 20
91.33481206194558
 30
0.0
 11
85.0
 21
90.91065956013641
 31
0.0
  0
LINE
  5
86
330
1E
100
AcDbEntity
  8
0
100
AcDbLine
 10
89.0681
 20
92.20813118746571
 30
0.0
 11
90.2655
 21
92.7017069406394
 31
0.0
  0
LINE
  5
87
330
1E
100
AcDbEntity
  8
0
100
AcDbLine
 10
80.93189999999999
 20
92.20813118746571
 30
0.0
 11
83.1042
 21
91.65419527057292
 31
0.0
  0
LINE
  5
8A
330
1E
100
AcDbEntity
  8
0
100
AcDbLine
 10
90.2655
 20
92.7017069406394
 30
0.0
 11
92.1117
 21
93.87211407917879
 31
0.0
  0
LINE
  5
8B
330
1E
100
AcDbEntity
  8
0
100
AcDbLine
 10
79.73449999999999
 20
92.7017069406394
 30
0.0
 11
80.93189999999999
 21
92.20813118746571
 31
0.0
  0
LINE
  5
8C
330
1E
100
AcDbEntity
  8
0
100
AcDbLine
 10
91.292
 20
92.46588540010359
 30
0.0
 11
93.944
 21
94.30387957461029
 31
0.0
  0
LINE
  5
8D
330
1E
100
AcDbEntity
  8
0
100
AcDbLine
 10
78.708
 20
92.46588540010359
 30
0.0
 11
81.72399999999999
 21
91.33481206194558
 31
0.0
  0
LINE
  5
8E
330
1E
100
AcDbEntity
  8
0
100
AcDbLine
 10
72.0
 20
93.2748877020542
 30
0.0
 11
72.468
 21
90.72881035608048
 31
0.0
  0
LINE
  5
8F
330
1E
100
AcDbEntity
  8
0
100
AcDbLine
 10
72.0
 20
93.7450059245018
 30
0.0
 11
72.0
 21
102.199864930513
 31
0.0
  0
LINE
  5
92
330
1E
100
AcDbEntity
  8
0
100
AcDbLine
 10
73.1109
 20
101.0656680051619
 30
0.0
 11
74.3601
 21
98.07847431720681
 31
0.0
  0
LINE
  5
93
330
1E
100
AcDbEntity
  8
0
100
AcDbLine
 10
72.0
 20
102.199864930513
 30
0.0
 11
72.0
 21
93.2748877020542
 31
0.0
  0
LINE
  5
94
330
1E
100
AcDbEntity
  8
0
100
AcDbLine
 10
72.0
 20
102.199864930513
 30
0.0
 11
72.468
 21
105.2160604989349
 31
0.0
  0
LINE
  5
95
330
1E
100
AcDbEntity
  8
0
100
AcDbLine
 10
72.78
 20
99.44083765207778
 30
0.0
 11
74.028
 21
96.70741041819599
 31
0.0
  0
LINE
  5
9A
330
1E
100
AcDbEntity
  8
0
100
AcDbLine
 10
74.3601
 20
98.07847431720681
 30
0.0
 11
76.4324
 21
95.09146189100402
 31
0.0
  0
LINE
  5
9B
330
1E
100
AcDbEntity
  8
0
100
AcDbLine
 10
75.328
 20
100.781756577561
 30
0.0
 11
77.1109
 21
98.64087401394129
 31
0.0
  0
LINE
  5
9C
330
1E
100
AcDbEntity
  8
0
100
AcDbLine
 10
74.028
 20
96.70741041819599
 30
0.0
 11
76.05599999999999
 21
94.30387957461029
 31
0.0
  0
LINE
  5
9E
330
1E
100
AcDbEntity
  8
0
100
AcDbLine
 10
92.1117
 20
93.87211407917879
 30
0.0
 11
93.56749999999999
 21
95.09146189100402
 31
0.0
  0
LINE
  5
A0
330
1E
100
AcDbEntity
  8
0
100
AcDbLine
 10
77.8884
 20
93.87211407917879
 30
0.0
 11
79.73449999999999
 21
92.7017069406394
 31
0.0
  0
LINE
  5
A2
330
1E
100
AcDbEntity
  8
0
100
AcDbLine
 10
76.4324
 20
95.09146189100402
 30
0.0
 11
77.8884
 21
93.87211407917879
 31
0.0
  0
LINE
  5
A9
330
1E
100
AcDbEntity
  8
0
100
AcDbLine
 10
85.0
 20
95.69192655584959
 30
0.0
 11
87.85259999999999
 21
96.05553763218692
 31
0.0
  0
LINE
  5
AB
330
1E
100
AcDbEntity
  8
0
100
AcDbLine
 10
77.1109
 20
98.64087401394129
 30
0.0
 11
79.4731
 21
97.02501611762571
 31
0.0
  0
LINE
  5
AC
330
1E
100
AcDbEntity
  8
0
100
AcDbLine
 10
79.4731
 20
97.02501611762571
 30
0.0
 11
82.1474
 21
96.05553763218692
 31
0.0
  0
LINE
  5
AD
330
1E
100
AcDbEntity
  8
0
100
AcDbLine
 10
82.1474
 20
96.05553763218692
 30
0.0
 11
85.0
 21
95.69192655584959
 31
0.0
  0
LINE
  5
B1
330
1E
100
AcDbEntity
  8
0
100
AcDbLine
 10
93.56749999999999
 20
95.09146189100402
 30
0.0
 11
95.6399
 21
98.07847431720681
 31
0.0
  0
LINE
  5
B6
330
1E
100
AcDbEntity
  8
0
100
AcDbLine
 10
95.6399
 20
98.07847431720681
 30
0.0
 11
96.88909999999999
 21
101.0656680051619
 31
0.0
  0
LINE
  5
BA
330
1E
100
AcDbEntity
  8
0
100
AcDbLine
 10
94.67200000000001
 20
100.781756577561
 30
0.0
 11
95.7417
 21
103.205498106596
 31
0.0
  0
LINE
  5
BB
330
1E
100
AcDbEntity
  8
0
100
AcDbLine
 10
92.88909999999999
 20
98.64087401394129
 30
0.0
 11
94.67200000000001
 21
100.781756577561
 31
0.0
  0
LINE
  5
BC
330
1E
100
AcDbEntity
  8
0
100
AcDbLine
 10
90.5269
 20
97.02501611762571
 30
0.0
 11
92.88909999999999
 21
98.64087401394129
 31
0.0
  0
LINE
  5
BD
330
1E
100
AcDbEntity
  8
0
100
AcDbLine
 10
87.85259999999999
 20
96.05553763218692
 30
0.0
 11
90.5269
 21
97.02501611762571
 31
0.0
  0
LINE
  5
C1
330
1E
100
AcDbEntity
  8
0
100
AcDbLine
 10
96.88909999999999
 20
101.0656680051619
 30
0.0
 11
97.0714
 21
102.409905164743
 31
0.0
  0
LINE
  5
C2
330
1E
100
AcDbEntity
  8
0
100
AcDbLine
 10
97.22000000000001
 20
99.44083765207778
 30
0.0
 11
97.68799999999998
 21
102.409905164743
 31
0.0
  0
LINE
  5
C3
330
1E
100
AcDbEntity
  8
0
100
AcDbLine
 10
95.972
 20
96.70741041819599
 30
0.0
 11
97.22000000000001
 21
99.44083765207778
 31
0.0
  0
LINE
  5
C4
330
1E
100
AcDbEntity
  8
0
100
AcDbLine
 10
93.944
 20
94.30387957461029
 30
0.0
 11
95.972
 21
96.70741041819599
 31
0.0
  0
LINE
  5
C5
330
1E
100
AcDbEntity
  8
0
100
AcDbLine
 10
76.05599999999999
 20
94.30387957461029
 30
0.0
 11
78.708
 21
92.46588540010359
 31
0.0
  0
LINE
  5
C7
330
1E
100
AcDbEntity
  8
0
100
AcDbLine
 10
98.0
 20
93.2748877020542
 30
0.0
 11
98.0
 21
102.199864930513
 31
0.0
  0
LINE
  5
C8
330
1E
100
AcDbEntity
  8
0
100
AcDbLine
 10
98.0
 20
102.199864930513
 30
0.0
 11
98.0
 21
93.2748877020542
 31
0.0
  0
LINE
  5
C9
330
1E
100
AcDbEntity
  8
0
100
AcDbLine
 10
98.0
 20
93.2748877020542
 30
0.0
 11
98.0
 21
93.2748877020542
 31
0.0
  0
LINE
  5
CB
330
1E
100
AcDbEntity
  8
0
100
AcDbLine
 10
72.0
 20
93.2748877020542
 30
0.0
 11
72.0
 21
93.2748877020542
 31
0.0
  0
LINE
  5
CE
330
1E
100
AcDbEntity
  8
0
100
AcDbLine
 10
99.1
 20
102.2414324740499
 30
0.0
 11
112.2999999999999
 21
97.3473651454816
 31
0.0
  0
LINE
  5
CF
330
1E
100
AcDbEntity
  8
0
100
AcDbLine
 10
72.312
 20
102.409905164743
 30
0.0
 11
72.78
 21
99.44083765207778
 31
0.0
  0
LINE
  5
D0
330
1E
100
AcDbEntity
  8
0
100
AcDbLine
 10
72.312
 20
102.409905164743
 30
0.0
 11
72.78
 21
105.3789726774069
 31
0.0
  0
LINE
  5
D1
330
1E
100
AcDbEntity
  8
0
100
AcDbLine
 10
72.5352
 20
336.8660757518239
 30
0.0
 11
78.59149999999999
 21
336.8660757518239
 31
0.0
  0
LINE
  5
D2
330
1E
100
AcDbEntity
  8
0
100
AcDbLine
 10
72.8873
 20
336.8660757518239
 30
0.0
 11
74.0
 21
336.8660757518239
 31
0.0
  0
LINE
  5
D3
330
1E
100
AcDbEntity
  8
0
100
AcDbLine
 10
72.8873
 20
336.8660757518239
 30
0.0
 11
78.7324
 21
336.8660757518239
 31
0.0
  0
LINE
  5
D4
330
1E
100
AcDbEntity
  8
0
100
AcDbLine
 10
72.78
 20
105.3789726774069
 30
0.0
 11
73.8571
 21
107.738086838957
 31
0.0
  0
LINE
  5
D5
330
1E
100
AcDbEntity
  8
0
100
AcDbLine
 10
72.468
 20
105.2160604989349
 30
0.0
 11
73.716
 21
108.04374384433
 31
0.0
  0
LINE
  5
D6
330
1E
100
AcDbEntity
  8
0
100
AcDbLine
 10
72.92860000000001
 20
102.409905164743
 30
0.0
 11
73.1109
 21
103.754142324323
 31
0.0
  0
LINE
  5
D7
330
1E
100
AcDbEntity
  8
0
100
AcDbLine
 10
72.92860000000001
 20
102.409905164743
 30
0.0
 11
73.1109
 21
101.0656680051619
 31
0.0
  0
LINE
  5
D8
330
1E
100
AcDbEntity
  8
0
100
AcDbLine
 10
95.7417
 20
103.205498106596
 30
0.0
 11
96.1429
 21
105.7908344883499
 31
0.0
  0
LINE
  5
D9
330
1E
100
AcDbEntity
  8
0
100
AcDbLine
 10
74.25830000000001
 20
103.205498106596
 30
0.0
 11
75.328
 21
100.781756577561
 31
0.0
  0
LINE
  5
DA
330
1E
100
AcDbEntity
  8
0
100
AcDbLine
 10
96.88909999999999
 20
103.754142324323
 30
0.0
 11
97.0714
 21
102.409905164743
 31
0.0
  0
LINE
  5
DB
330
1E
100
AcDbEntity
  8
0
100
AcDbLine
 10
73.8571
 20
105.7908344883499
 30
0.0
 11
74.25830000000001
 21
103.205498106596
 31
0.0
  0
LINE
  5
DC
330
1E
100
AcDbEntity
  8
0
100
AcDbLine
 10
73.8571
 20
105.7908344883499
 30
0.0
 11
73.8571
 21
110.6621619810369
 31
0.0
  0
LINE
  5
DD
330
1E
100
AcDbEntity
  8
0
100
AcDbLine
 10
96.1429
 20
110.6621619810369
 30
0.0
 11
96.0
 21
116.978775751824
 31
0.0
  0
LINE
  5
DE
330
1E
100
AcDbEntity
  8
0
100
AcDbLine
 10
73.8571
 20
110.6621619810369
 30
0.0
 11
74.0
 21
116.978775751824
 31
0.0
  0
LINE
  5
DF
330
1E
100
AcDbEntity
  8
0
100
AcDbLine
 10
74.0
 20
120.4472757518239
 30
0.0
 11
74.0
 21
124.6010757518239
 31
0.0
  0
LINE
  5
E0
330
1E
100
AcDbEntity
  8
0
100
AcDbLine
 10
74.0
 20
120.4472757518239
 30
0.0
 11
74.0
 21
116.978775751824
 31
0.0
  0
LINE
  5
E1
330
1E
100
AcDbEntity
  8
0
100
AcDbLine
 10
74.0
 20
116.978775751824
 30
0.0
 11
73.8571
 21
110.6621619810369
 31
0.0
  0
LINE
  5
E2
330
1E
100
AcDbEntity
  8
0
100
AcDbLine
 10
74.0
 20
116.978775751824
 30
0.0
 11
74.0
 21
120.4472757518239
 31
0.0
  0
LINE
  5
E3
330
1E
100
AcDbEntity
  8
0
100
AcDbLine
 10
74.0
 20
152.293875751824
 30
0.0
 11
74.0
 21
146.1378757518239
 31
0.0
  0
LINE
  5
E4
330
1E
100
AcDbEntity
  8
0
100
AcDbLine
 10
74.0
 20
152.293875751824
 30
0.0
 11
74.0
 21
158.557375751824
 31
0.0
  0
LINE
  5
E5
330
1E
100
AcDbEntity
  8
0
100
AcDbLine
 10
74.0
 20
146.1378757518239
 30
0.0
 11
74.0
 21
140.1940757518239
 31
0.0
  0
LINE
  5
E6
330
1E
100
AcDbEntity
  8
0
100
AcDbLine
 10
74.0
 20
146.1378757518239
 30
0.0
 11
74.0
 21
152.293875751824
 31
0.0
  0
LINE
  5
E7
330
1E
100
AcDbEntity
  8
0
100
AcDbLine
 10
74.0
 20
140.1940757518239
 30
0.0
 11
74.0
 21
134.5646757518239
 31
0.0
  0
LINE
  5
E8
330
1E
100
AcDbEntity
  8
0
100
AcDbLine
 10
74.0
 20
140.1940757518239
 30
0.0
 11
74.0
 21
146.1378757518239
 31
0.0
  0
LINE
  5
E9
330
1E
100
AcDbEntity
  8
0
100
AcDbLine
 10
74.0
 20
134.5646757518239
 30
0.0
 11
74.0
 21
140.1940757518239
 31
0.0
  0
LINE
  5
EA
330
1E
100
AcDbEntity
  8
0
100
AcDbLine
 10
74.0
 20
134.5646757518239
 30
0.0
 11
74.0
 21
129.3455757518239
 31
0.0
  0
LINE
  5
EB
330
1E
100
AcDbEntity
  8
0
100
AcDbLine
 10
74.0
 20
129.3455757518239
 30
0.0
 11
74.0
 21
124.6010757518239
 31
0.0
  0
LINE
  5
EC
330
1E
100
AcDbEntity
  8
0
100
AcDbLine
 10
74.0
 20
129.3455757518239
 30
0.0
 11
74.0
 21
134.5646757518239
 31
0.0
  0
LINE
  5
ED
330
1E
100
AcDbEntity
  8
0
100
AcDbLine
 10
74.0
 20
124.6010757518239
 30
0.0
 11
74.0
 21
129.3455757518239
 31
0.0
  0
LINE
  5
EE
330
1E
100
AcDbEntity
  8
0
100
AcDbLine
 10
74.0
 20
124.6010757518239
 30
0.0
 11
74.0
 21
120.4472757518239
 31
0.0
  0
LINE
  5
EF
330
1E
100
AcDbEntity
  8
0
100
AcDbLine
 10
74.0
 20
336.8660757518239
 30
0.0
 11
74.0
 21
158.557375751824
 31
0.0
  0
LINE
  5
F0
330
1E
100
AcDbEntity
  8
0
100
AcDbLine
 10
74.0
 20
158.557375751824
 30
0.0
 11
74.0
 21
336.8660757518239
 31
0.0
  0
LINE
  5
F1
330
1E
100
AcDbEntity
  8
0
100
AcDbLine
 10
74.0
 20
158.557375751824
 30
0.0
 11
74.0
 21
152.293875751824
 31
0.0
  0
LINE
  5
F2
330
1E
100
AcDbEntity
  8
0
100
AcDbLine
 10
78.7324
 20
336.8660757518239
 30
0.0
 11
85.0
 21
336.8660757518239
 31
0.0
  0
LINE
  5
F3
330
1E
100
AcDbEntity
  8
0
100
AcDbLine
 10
78.59149999999999
 20
336.8660757518239
 30
0.0
 11
85.0
 21
336.8660757518239
 31
0.0
  0
LINE
  5
F4
330
1E
100
AcDbEntity
  8
0
100
AcDbLine
 10
91.2676
 20
336.8660757518239
 30
0.0
 11
97.1127
 21
336.8660757518239
 31
0.0
  0
LINE
  5
F5
330
1E
100
AcDbEntity
  8
0
100
AcDbLine
 10
91.4085
 20
336.8660757518239
 30
0.0
 11
97.4648
 21
336.8660757518239
 31
0.0
  0
LINE
  5
F6
330
1E
100
AcDbEntity
  8
0
100
AcDbLine
 10
85.0
 20
336.8660757518239
 30
0.0
 11
94.1
 21
336.8660757518239
 31
0.0
  0
LINE
  5
F7
330
1E
100
AcDbEntity
  8
0
100
AcDbLine
 10
85.0
 20
336.8660757518239
 30
0.0
 11
91.4085
 21
336.8660757518239
 31
0.0
  0
LINE
  5
F8
330
1E
100
AcDbEntity
  8
0
100
AcDbLine
 10
85.0
 20
336.8660757518239
 30
0.0
 11
91.2676
 21
336.8660757518239
 31
0.0
  0
LINE
  5
F9
330
1E
100
AcDbEntity
  8
0
100
AcDbLine
 10
96.0
 20
120.4472757518239
 30
0.0
 11
96.0
 21
116.978775751824
 31
0.0
  0
LINE
  5
FA
330
1E
100
AcDbEntity
  8
0
100
AcDbLine
 10
96.0
 20
120.4472757518239
 30
0.0
 11
96.0
 21
124.6010757518239
 31
0.0
  0
LINE
  5
FB
330
1E
100
AcDbEntity
  8
0
100
AcDbLine
 10
96.0
 20
116.978775751824
 30
0.0
 11
96.1429
 21
110.6621619810369
 31
0.0
  0
LINE
  5
FC
330
1E
100
AcDbEntity
  8
0
100
AcDbLine
 10
96.0
 20
116.978775751824
 30
0.0
 11
96.0
 21
120.4472757518239
 31
0.0
  0
LINE
  5
FD
330
1E
100
AcDbEntity
  8
0
100
AcDbLine
 10
96.0
 20
146.1378757518239
 30
0.0
 11
96.0
 21
140.1940757518239
 31
0.0
  0
LINE
  5
FE
330
1E
100
AcDbEntity
  8
0
100
AcDbLine
 10
96.0
 20
146.1378757518239
 30
0.0
 11
96.0
 21
152.293875751824
 31
0.0
  0
LINE
  5
FF
330
1E
100
AcDbEntity
  8
0
100
AcDbLine
 10
96.0
 20
140.1940757518239
 30
0.0
 11
96.0
 21
134.5646757518239
 31
0.0
  0
LINE
  5
100
330
1E
100
AcDbEntity
  8
0
100
AcDbLine
 10
96.0
 20
140.1940757518239
 30
0.0
 11
96.0
 21
146.1378757518239
 31
0.0
  0
LINE
  5
101
330
1E
100
AcDbEntity
  8
0
100
AcDbLine
 10
96.0
 20
152.293875751824
 30
0.0
 11
96.0
 21
158.557375751824
 31
0.0
  0
LINE
  5
102
330
1E
100
AcDbEntity
  8
0
100
AcDbLine
 10
96.0
 20
152.293875751824
 30
0.0
 11
96.0
 21
146.1378757518239
 31
0.0
  0
LINE
  5
103
330
1E
100
AcDbEntity
  8
0
100
AcDbLine
 10
96.0
 20
158.557375751824
 30
0.0
 11
96.0
 21
336.8660757518239
 31
0.0
  0
LINE
  5
104
330
1E
100
AcDbEntity
  8
0
100
AcDbLine
 10
96.0
 20
158.557375751824
 30
0.0
 11
96.0
 21
152.293875751824
 31
0.0
  0
LINE
  5
105
330
1E
100
AcDbEntity
  8
0
100
AcDbLine
 10
96.0
 20
134.5646757518239
 30
0.0
 11
96.0
 21
129.3455757518239
 31
0.0
  0
LINE
  5
106
330
1E
100
AcDbEntity
  8
0
100
AcDbLine
 10
96.0
 20
134.5646757518239
 30
0.0
 11
96.0
 21
140.1940757518239
 31
0.0
  0
LINE
  5
107
330
1E
100
AcDbEntity
  8
0
100
AcDbLine
 10
96.0
 20
129.3455757518239
 30
0.0
 11
96.0
 21
124.6010757518239
 31
0.0
  0
LINE
  5
108
330
1E
100
AcDbEntity
  8
0
100
AcDbLine
 10
96.0
 20
129.3455757518239
 30
0.0
 11
96.0
 21
134.5646757518239
 31
0.0
  0
LINE
  5
109
330
1E
100
AcDbEntity
  8
0
100
AcDbLine
 10
96.0
 20
124.6010757518239
 30
0.0
 11
96.0
 21
129.3455757518239
 31
0.0
  0
LINE
  5
10A
330
1E
100
AcDbEntity
  8
0
100
AcDbLine
 10
96.0
 20
124.6010757518239
 30
0.0
 11
96.0
 21
120.4472757518239
 31
0.0
  0
LINE
  5
10B
330
1E
100
AcDbEntity
  8
0
100
AcDbLine
 10
94.1
 20
336.8660757518239
 30
0.0
 11
102.7
 21
336.8660757518239
 31
0.0
  0
LINE
  5
10C
330
1E
100
AcDbEntity
  8
0
100
AcDbLine
 10
85.0
 20
337.166075751824
 30
0.0
 11
158.0
 21
337.166075751824
 31
0.0
  0
LINE
  5
10D
330
1E
100
AcDbEntity
  8
0
100
AcDbLine
 10
85.0
 20
348.866075751824
 30
0.0
 11
158.0
 21
348.866075751824
 31
0.0
  0
LINE
  5
10E
330
1E
100
AcDbEntity
  8
0
100
AcDbLine
 10
75.9
 20
336.8660757518239
 30
0.0
 11
85.0
 21
336.8660757518239
 31
0.0
  0
LINE
  5
10F
330
1E
100
AcDbEntity
  8
0
100
AcDbLine
 10
96.0
 20
336.8660757518239
 30
0.0
 11
158.0
 21
336.8660757518239
 31
0.0
  0
LINE
  5
110
330
1E
100
AcDbEntity
  8
0
100
AcDbLine
 10
96.0
 20
336.8660757518239
 30
0.0
 11
102.2
 21
336.8660757518239
 31
0.0
  0
LINE
  5
111
330
1E
100
AcDbEntity
  8
0
100
AcDbLine
 10
96.0
 20
336.8660757518239
 30
0.0
 11
97.1127
 21
336.8660757518239
 31
0.0
  0
LINE
  5
112
330
1E
100
AcDbEntity
  8
0
100
AcDbLine
 10
96.0
 20
336.8660757518239
 30
0.0
 11
96.0
 21
158.557375751824
 31
0.0
  0
LINE
  5
114
330
1E
100
AcDbEntity
  8
0
100
AcDbLine
 10
73.8571
 20
110.6621619810369
 30
0.0
 11
73.8571
 21
105.7908344883499
 31
0.0
  0
LINE
  5
116
330
1E
100
AcDbEntity
  8
0
100
AcDbLine
 10
73.716
 20
108.04374384433
 30
0.0
 11
73.8571
 21
108.213185065178
 31
0.0
  0
LINE
  5
117
330
1E
100
AcDbEntity
  8
0
100
AcDbLine
 10
96.1429
 20
105.7908344883499
 30
0.0
 11
96.1429
 21
110.6621619810369
 31
0.0
  0
LINE
  5
118
330
1E
100
AcDbEntity
  8
0
100
AcDbLine
 10
96.1429
 20
107.738086838957
 30
0.0
 11
97.22000000000001
 21
105.3789726774069
 31
0.0
  0
LINE
  5
119
330
1E
100
AcDbEntity
  8
0
100
AcDbLine
 10
97.22000000000001
 20
105.3789726774069
 30
0.0
 11
97.68799999999998
 21
102.409905164743
 31
0.0
  0
LINE
  5
11A
330
1E
100
AcDbEntity
  8
0
100
AcDbLine
 10
97.53200000000001
 20
105.2160604989349
 30
0.0
 11
98.0
 21
102.199864930513
 31
0.0
  0
LINE
  5
11B
330
1E
100
AcDbEntity
  8
0
100
AcDbLine
 10
96.28399999999999
 20
108.04374384433
 30
0.0
 11
97.53200000000001
 21
105.2160604989349
 31
0.0
  0
LINE
  5
11C
330
1E
100
AcDbEntity
  8
0
100
AcDbLine
 10
97.4648
 20
336.8660757518239
 30
0.0
 11
102.676
 21
336.8660757518239
 31
0.0
  0
LINE
  5
11D
330
1E
100
AcDbEntity
  8
0
100
AcDbLine
 10
97.1127
 20
336.8660757518239
 30
0.0
 11
102.183
 21
336.8660757518239
 31
0.0
  0
LINE
  5
11E
330
1E
100
AcDbEntity
  8
0
100
AcDbLine
 10
96.1429
 20
110.6621619810369
 30
0.0
 11
96.1429
 21
105.7908344883499
 31
0.0
  0
LINE
  5
11F
330
1E
100
AcDbEntity
  8
0
100
AcDbLine
 10
96.1429
 20
108.213185065178
 30
0.0
 11
96.28399999999999
 21
108.04374384433
 31
0.0
  0
LINE
  5
120
330
1E
100
AcDbEntity
  8
0
100
AcDbLine
 10
96.11434237530659
 20
105.6068088998749
 30
0.0
 11
96.88909999999999
 21
103.754142324323
 31
0.0
  0
LINE
  5
123
330
1E
100
AcDbEntity
  8
0
100
AcDbLine
 10
73.1109
 20
103.754142324323
 30
0.0
 11
73.8856576246934
 21
105.6068088998749
 31
0.0
  0
LINE
  5
124
330
1E
100
AcDbEntity
  8
0
100
AcDbLine
 10
97.97103095275742
 20
102.386566451698
 30
0.0
 11
99.1
 21
102.2414324740499
 31
0.0
  0
LINE
  5
125
330
1E
100
AcDbEntity
  8
0
100
AcDbLine
 10
99.1
 20
2.580466025452149
 30
0.0
 11
112.2999999999999
 21
7.47453335402035
 31
0.0
  0
LINE
  5
126
330
1E
100
AcDbEntity
  8
0
100
AcDbLine
 10
99.1
 20
2.580466025452149
 30
0.0
 11
112.2999999999999
 21
7.47453335402035
 31
0.0
  0
LINE
  5
127
330
1E
100
AcDbEntity
  8
0
100
AcDbLine
 10
99.1
 20
2.411419559271779
 30
0.0
 11
112.2999999999999
 21
7.305486887839969
 31
0.0
  0
LINE
  5
128
330
1E
100
AcDbEntity
  8
0
100
AcDbLine
 10
99.1
 20
1.946541777275739
 30
0.0
 11
112.2999999999999
 21
6.840609105843941
 31
0.0
  0
LINE
  5
129
330
1E
100
AcDbEntity
  8
0
100
AcDbLine
 10
99.1
 20
2.411419559271779
 30
0.0
 11
112.2999999999999
 21
7.305486887839969
 31
0.0
  0
LINE
  5
12A
330
1E
100
AcDbEntity
  8
0
100
AcDbLine
 10
85.0
 20
0.598802030172444
 30
0.0
 11
99.1
 21
2.411419559271779
 31
0.0
  0
LINE
  5
12B
330
1E
100
AcDbEntity
  8
0
100
AcDbLine
 10
102.183
 20
336.8660757518239
 30
0.0
 11
106.127
 21
336.8660757518239
 31
0.0
  0
LINE
  5
12C
330
1E
100
AcDbEntity
  8
0
100
AcDbLine
 10
102.676
 20
336.8660757518239
 30
0.0
 11
106.62
 21
336.8660757518239
 31
0.0
  0
LINE
  5
12D
330
1E
100
AcDbEntity
  8
0
100
AcDbLine
 10
102.7
 20
336.8660757518239
 30
0.0
 11
110.0999999999999
 21
336.8660757518239
 31
0.0
  0
LINE
  5
12E
330
1E
100
AcDbEntity
  8
0
100
AcDbLine
 10
106.62
 20
336.8660757518239
 30
0.0
 11
109.0849999999999
 21
336.8660757518239
 31
0.0
  0
LINE
  5
12F
330
1E
100
AcDbEntity
  8
0
100
AcDbLine
 10
109.0849999999999
 20
336.8660757518239
 30
0.0
 11
110.0
 21
336.8660757518239
 31
0.0
  0
LINE
  5
130
330
1E
100
AcDbEntity
  8
0
100
AcDbLine
 10
110.0999999999999
 20
336.8660757518239
 30
0.0
 11
115.7
 21
336.8660757518239
 31
0.0
  0
LINE
  5
131
330
1E
100
AcDbEntity
  8
0
100
AcDbLine
 10
106.127
 20
336.8660757518239
 30
0.0
 11
108.451
 21
336.8660757518239
 31
0.0
  0
LINE
  5
132
330
1E
100
AcDbEntity
  8
0
100
AcDbLine
 10
108.451
 20
336.8660757518239
 30
0.0
 11
109.366
 21
336.8660757518239
 31
0.0
  0
LINE
  5
133
330
1E
100
AcDbEntity
  8
0
100
AcDbLine
 10
102.2
 20
336.8660757518239
 30
0.0
 11
109.4
 21
336.8660757518239
 31
0.0
  0
LINE
  5
134
330
1E
100
AcDbEntity
  8
0
100
AcDbLine
 10
109.4
 20
336.8660757518239
 30
0.0
 11
115.0
 21
336.8660757518239
 31
0.0
  0
LINE
  5
135
330
1E
100
AcDbEntity
  8
0
100
AcDbLine
 10
112.2999999999999
 20
97.3473651454816
 30
0.0
 11
123.7999999999999
 21
89.37184801744448
 31
0.0
  0
LINE
  5
136
330
1E
100
AcDbEntity
  8
0
100
AcDbLine
 10
112.2999999999999
 20
7.47453335402035
 30
0.0
 11
123.7999999999999
 21
15.4500504820574
 31
0.0
  0
LINE
  5
137
330
1E
100
AcDbEntity
  8
0
100
AcDbLine
 10
123.7999999999999
 20
15.4500504820574
 30
0.0
 11
132.6
 21
25.87260127437859
 31
0.0
  0
LINE
  5
138
330
1E
100
AcDbEntity
  8
0
100
AcDbLine
 10
132.6
 20
25.87260127437859
 30
0.0
 11
138.0
 21
37.8358769664342
 31
0.0
  0
LINE
  5
139
330
1E
100
AcDbEntity
  8
0
100
AcDbLine
 10
123.7999999999999
 20
15.281004015877
 30
0.0
 11
132.6
 21
25.7035548081982
 31
0.0
  0
LINE
  5
13A
330
1E
100
AcDbEntity
  8
0
100
AcDbLine
 10
132.6
 20
25.7035548081982
 30
0.0
 11
138.0
 21
37.66683050025379
 31
0.0
  0
LINE
  5
13B
330
1E
100
AcDbEntity
  8
0
100
AcDbLine
 10
123.7999999999999
 20
14.81612623388099
 30
0.0
 11
132.6
 21
25.23867702620219
 31
0.0
  0
LINE
  5
13C
330
1E
100
AcDbEntity
  8
0
100
AcDbLine
 10
132.6
 20
25.23867702620219
 30
0.0
 11
138.0
 21
37.2019527182577
 31
0.0
  0
LINE
  5
13D
330
1E
100
AcDbEntity
  8
0
100
AcDbLine
 10
115.7
 20
336.8660757518239
 30
0.0
 11
119.1999999999999
 21
336.8660757518239
 31
0.0
  0
LINE
  5
13E
330
1E
100
AcDbEntity
  8
0
100
AcDbLine
 10
119.1999999999999
 20
336.8660757518239
 30
0.0
 11
120.5
 21
336.8660757518239
 31
0.0
  0
LINE
  5
13F
330
1E
100
AcDbEntity
  8
0
100
AcDbLine
 10
115.0
 20
336.8660757518239
 30
0.0
 11
118.3
 21
336.8660757518239
 31
0.0
  0
LINE
  5
140
330
1E
100
AcDbEntity
  8
0
100
AcDbLine
 10
118.3
 20
336.8660757518239
 30
0.0
 11
119.5999999999999
 21
336.8660757518239
 31
0.0
  0
LINE
  5
141
330
1E
100
AcDbEntity
  8
0
100
AcDbLine
 10
123.7999999999999
 20
89.37184801744448
 30
0.0
 11
132.6
 21
78.9492972251233
 31
0.0
  0
LINE
  5
142
330
1E
100
AcDbEntity
  8
0
100
AcDbLine
 10
132.6
 20
78.9492972251233
 30
0.0
 11
138.0
 21
66.9860215330677
 31
0.0
  0
LINE
  5
143
330
1E
100
AcDbEntity
  8
0
100
AcDbLine
 10
138.0
 20
66.9860215330677
 30
0.0
 11
140.0
 21
54.20706795291749
 31
0.0
  0
LINE
  5
144
330
1E
100
AcDbEntity
  8
0
100
AcDbLine
 10
138.0
 20
37.8358769664342
 30
0.0
 11
140.0
 21
50.61483054658439
 31
0.0
  0
LINE
  5
145
330
1E
100
AcDbEntity
  8
0
100
AcDbLine
 10
140.0
 20
54.20706795291749
 30
0.0
 11
140.0
 21
50.61483054658439
 31
0.0
  0
LINE
  5
146
330
1E
100
AcDbEntity
  8
0
100
AcDbLine
 10
139.986771493838
 20
50.5303073134943
 30
0.0
 11
140.0
 21
50.4457840804041
 31
0.0
  0
LINE
  5
147
330
1E
100
AcDbEntity
  8
0
100
AcDbLine
 10
140.0
 20
50.4457840804041
 30
0.0
 11
140.0
 21
49.980906298408
 31
0.0
  0
LINE
  5
148
330
1E
100
AcDbEntity
  8
0
100
AcDbLine
 10
165.8
 20
336.8660757518239
 30
0.0
 11
167.5119999999999
 21
336.8660757518239
 31
0.0
  0
LINE
  5
149
330
1E
100
AcDbEntity
  8
0
100
AcDbLine
 10
167.5119999999999
 20
336.8660757518239
 30
0.0
 11
168.5599999999999
 21
336.8660757518239
 31
0.0
  0
LINE
  5
14A
330
1E
100
AcDbEntity
  8
0
100
AcDbLine
 10
168.5599999999999
 20
336.8660757518239
 30
0.0
 11
169.0
 21
336.8660757518239
 31
0.0
  0
LINE
  5
14B
330
1E
100
AcDbEntity
  8
0
100
AcDbLine
 10
163.491
 20
336.8660757518239
 30
0.0
 11
165.8
 21
336.8660757518239
 31
0.0
  0
LINE
  5
14C
330
1E
100
AcDbEntity
  8
0
100
AcDbLine
 10
160.837
 20
336.8660757518239
 30
0.0
 11
163.491
 21
336.8660757518239
 31
0.0
  0
LINE
  5
14D
330
1E
100
AcDbEntity
  8
0
100
AcDbLine
 10
163.8409999999999
 20
337.166075751824
 30
0.0
 11
166.3
 21
337.166075751824
 31
0.0
  0
LINE
  5
14E
330
1E
100
AcDbEntity
  8
0
100
AcDbLine
 10
161.023
 20
337.166075751824
 30
0.0
 11
163.8409999999999
 21
337.166075751824
 31
0.0
  0
LINE
  5
14F
330
1E
100
AcDbEntity
  8
0
100
AcDbLine
 10
158.0
 20
337.166075751824
 30
0.0
 11
161.023
 21
337.166075751824
 31
0.0
  0
LINE
  5
150
330
1E
100
AcDbEntity
  8
0
100
AcDbLine
 10
166.3
 20
337.166075751824
 30
0.0
 11
168.1409999999999
 21
337.166075751824
 31
0.0
  0
LINE
  5
151
330
1E
100
AcDbEntity
  8
0
100
AcDbLine
 10
168.1409999999999
 20
337.166075751824
 30
0.0
 11
169.259
 21
337.166075751824
 31
0.0
  0
LINE
  5
152
330
1E
100
AcDbEntity
  8
0
100
AcDbLine
 10
169.259
 20
337.166075751824
 30
0.0
 11
169.6999999999999
 21
337.166075751824
 31
0.0
  0
LINE
  5
153
330
1E
100
AcDbEntity
  8
0
100
AcDbLine
 10
169.6999999999999
 20
337.166075751824
 30
0.0
 11
170.0
 21
337.866075751824
 31
0.0
  0
LINE
  5
154
330
1E
100
AcDbEntity
  8
0
100
AcDbLine
 10
164.0
 20
348.866075751824
 30
0.0
 11
166.5
 21
348.866075751824
 31
0.0
  0
LINE
  5
155
330
1E
100
AcDbEntity
  8
0
100
AcDbLine
 10
161.0999999999999
 20
348.866075751824
 30
0.0
 11
164.0
 21
348.866075751824
 31
0.0
  0
LINE
  5
156
330
1E
100
AcDbEntity
  8
0
100
AcDbLine
 10
158.0
 20
348.866075751824
 30
0.0
 11
161.0999999999999
 21
348.866075751824
 31
0.0
  0
LINE
  5
157
330
1E
100
AcDbEntity
  8
0
100
AcDbLine
 10
166.5
 20
348.866075751824
 30
0.0
 11
168.4
 21
348.866075751824
 31
0.0
  0
LINE
  5
158
330
1E
100
AcDbEntity
  8
0
100
AcDbLine
 10
168.4
 20
348.866075751824
 30
0.0
 11
169.5999999999999
 21
348.866075751824
 31
0.0
  0
LINE
  5
159
330
1E
100
AcDbEntity
  8
0
100
AcDbLine
 10
169.5999999999999
 20
348.866075751824
 30
0.0
 11
170.0
 21
348.866075751824
 31
0.0
  0
LINE
  5
15A
330
1E
100
AcDbEntity
  8
0
100
AcDbLine
 10
170.0
 20
337.866075751824
 30
0.0
 11
170.0
 21
348.866075751824
 31
0.0
  0
LINE
  5
15B
330
1E
100
AcDbEntity
  8
0
100
AcDbLine
 10
170.0
 20
348.866075751824
 30
0.0
 11
170.0
 21
337.866075751824
 31
0.0
  0
LINE
  5
15C
330
1E
100
AcDbEntity
  8
0
100
AcDbLine
 10
158.0
 20
336.8660757518239
 30
0.0
 11
160.837
 21
336.8660757518239
 31
0.0
  0
LINE
  5
15D
330
1E
100
AcDbEntity
  8
0
100
AcDbLine
 10
140.0
 20
50.61483054658439
 30
0.0
 11
140.0
 21
54.20706795291749
 31
0.0
  0
LINE
  5
15E
330
1E
100
AcDbEntity
  8
0
100
AcDbLine
 10
140.0
 20
49.980906298408
 30
0.0
 11
140.0
 21
50.4457840804041
 31
0.0
  0
LINE
  5
15F
330
1E
100
AcDbEntity
  8
0
100
AcDbLine
 10
138.0
 20
37.66683050025379
 30
0.0
 11
140.0
 21
50.4457840804041
 31
0.0
  0
LINE
  5
160
330
1E
100
AcDbEntity
  8
0
100
AcDbLine
 10
138.0
 20
37.2019527182577
 30
0.0
 11
140.0
 21
49.980906298408
 31
0.0
  0
LINE
  5
161
330
1E
100
AcDbEntity
  8
0
100
AcDbLine
 10
112.2999999999999
 20
7.305486887839969
 30
0.0
 11
123.7999999999999
 21
15.281004015877
 31
0.0
  0
LINE
  5
162
330
1E
100
AcDbEntity
  8
0
100
AcDbLine
 10
112.2999999999999
 20
6.840609105843941
 30
0.0
 11
123.7999999999999
 21
14.81612623388099
 31
0.0
  0
LINE
  5
163
330
1E
100
AcDbEntity
  8
0
100
AcDbLine
 10
99.1
 20
1.946541777275739
 30
0.0
 11
112.2999999999999
 21
6.840609105843941
 31
0.0
  0
LINE
  5
164
330
1E
100
AcDbEntity
  8
0
100
AcDbLine
 10
85.0
 20
0.133924248176407
 30
0.0
 11
99.1
 21
1.946541777275739
 31
0.0
  0
LINE
  5
165
330
1E
100
AcDbEntity
  8
0
100
AcDbLine
 10
70.9
 20
102.2414324740499
 30
0.0
 11
72.02896904724259
 21
102.386566451698
 31
0.0
  0
LINE
  5
16A
330
1E
100
AcDbEntity
  8
0
100
AcDbLine
 10
169.0
 20
336.8660757518239
 30
0.0
 11
169.6999999999999
 21
337.166075751824
 31
0.0
  0
ENDSEC
  0
SECTION
  2
OBJECTS
  0
DICTIONARY
  5
C
330
0
100
AcDbDictionary
281
     1
  3
ACAD_GROUP
350
D
  3
ACAD_LAYOUT
350
19
  3
ACAD_MLINESTYLE
350
16
  3
ACAD_PLOTSETTINGS
350
18
  3
ACAD_PLOTSTYLENAME
350
E
  3
AcDbVariableDictionary
350
16B
  0
DICTIONARY
  5
D
102
{ACAD_REACTORS
330
C
102
}
330
C
100
AcDbDictionary
281
     1
  0
DICTIONARY
  5
19
102
{ACAD_REACTORS
330
C
102
}
330
C
100
AcDbDictionary
281
     1
  3
Layout1
350
1D
  3
Model
350
21
  0
DICTIONARY
  5
16
102
{ACAD_REACTORS
330
C
102
}
330
C
100
AcDbDictionary
281
     1
  3
Standard
350
17
  0
DICTIONARY
  5
18
102
{ACAD_REACTORS
330
C
102
}
330
C
100
AcDbDictionary
281
     1
  0
ACDBDICTIONARYWDFLT
  5
E
102
{ACAD_REACTORS
330
C
102
}
330
C
100
AcDbDictionary
281
     1
  3
Normal
350
F
100
AcDbDictionaryWithDefault
340
F
  0
DICTIONARY
  5
16B
102
{ACAD_REACTORS
330
C
102
}
330
C
100
AcDbDictionary
281
     1
  3
DIMASSOC
350
16C
  0
LAYOUT
  5
1D
102
{ACAD_REACTORS
330
19
102
}
330
19
100
AcDbPlotSettings
  1

  2
hp deskjet 980c series
  4

  6

 40
0.0
 41
0.0
 42
0.0
 43
0.0
 44
0.0
 45
0.0
 46
0.0
 47
0.0
 48
0.0
 49
0.0
140
0.0
141
0.0
142
1.0
143
1.0
 70
   688
 72
     0
 73
     0
 74
     5
  7

 75
    16
147
1.0
148
0.0
149
0.0
100
AcDbLayout
  1
Layout1
 70
     1
 71
     1
 10
0.0
 20
0.0
 11
12.0
 21
9.0
 12
0.0
 22
0.0
 32
0.0
 14
1.000000000000000E+20
 24
1.000000000000000E+20
 34
1.000000000000000E+20
 15
-1.000000000000000E+20
 25
-1.000000000000000E+20
 35
-1.000000000000000E+20
146
0.0
 13
0.0
 23
0.0
 33
0.0
 16
1.0
 26
0.0
 36
0.0
 17
0.0
 27
1.0
 37
0.0
 76
     0
330
1A
  0
LAYOUT
  5
21
102
{ACAD_REACTORS
330
19
102
}
330
19
100
AcDbPlotSettings
  1

  2
hp deskjet 980c series
  4

  6

 40
0.0
 41
0.0
 42
0.0
 43
0.0
 44
0.0
 45
0.0
 46
0.0
 47
0.0
 48
0.0
 49
0.0
140
0.0
141
0.0
142
1.0
143
1.0
 70
  1712
 72
     0
 73
     0
 74
     0
  7

 75
     0
147
1.0
148
0.0
149
0.0
100
AcDbLayout
  1
Model
 70
     1
 71
     0
 10
0.0
 20
0.0
 11
12.0
 21
9.0
 12
0.0
 22
0.0
 32
0.0
 14
0.0
 24
0.0
 34
0.0
 15
0.0
 25
0.0
 35
0.0
146
0.0
 13
0.0
 23
0.0
 33
0.0
 16
1.0
 26
0.0
 36
0.0
 17
0.0
 27
1.0
 37
0.0
 76
     0
330
1E
  0
MLINESTYLE
  5
17
102
{ACAD_REACTORS
330
16
102
}
330
16
100
AcDbMlineStyle
  2
STANDARD
 70
     0
  3

 62
   256
 51
90.0
 52
90.0
 71
     2
 49
0.5
 62
   256
  6
BYLAYER
 49
-0.5
 62
   256
  6
BYLAYER
  0
ACDBPLACEHOLDER
  5
F
102
{ACAD_REACTORS
330
E
102
}
330
E
  0
DICTIONARYVAR
  5
16C
102
{ACAD_REACTORS
330
16B
102
}
330
16B
100
DictionaryVariables
280
     0
  1
1
  0
ENDSEC
  0
EOF
