  0
SECTION
  2
HEADER
  9
$ACADVER
  1
AC1015
  9
$ACADMAINTVER
 70
    13
  9
$DWGCODEPAGE
  3
ANSI_1252
  9
$INSBASE
 10
0.0
 20
0.0
 30
0.0
  9
$EXTMIN
 10
0.133924248176407
 20
0.115574047022587
 30
0.0
  9
$EXTMAX
 10
348.866075751824
 20
193.8844259529769
 30
0.0
  9
$LIMMIN
 10
0.0
 20
0.0
  9
$LIMMAX
 10
12.0
 20
9.0
  9
$ORTHOMODE
 70
     0
  9
$REGENMODE
 70
     1
  9
$FILLMODE
 70
     1
  9
$QTEXTMODE
 70
     0
  9
$MIRRTEXT
 70
     1
  9
$LTSCALE
 40
1.0
  9
$ATTMODE
 70
     1
  9
$TEXTSIZE
 40
0.2
  9
$TRACEWID
 40
0.05
  9
$TEXTSTYLE
  7
Standard
  9
$CLAYER
  8
0
  9
$CELTYPE
  6
Continuous
  9
$CECOLOR
 62
   256
  9
$CELTSCALE
 40
1.0
  9
$DISPSILH
 70
     0
  9
$DIMSCALE
 40
1.0
  9
$DIMASZ
 40
0.18
  9
$DIMEXO
 40
0.0625
  9
$DIMDLI
 40
0.38
  9
$DIMRND
 40
0.0
  9
$DIMDLE
 40
0.0
  9
$DIMEXE
 40
0.18
  9
$DIMTP
 40
0.0
  9
$DIMTM
 40
0.0
  9
$DIMTXT
 40
0.18
  9
$DIMCEN
 40
0.09
  9
$DIMTSZ
 40
0.0
  9
$DIMTOL
 70
     0
  9
$DIMLIM
 70
     0
  9
$DIMTIH
 70
     1
  9
$DIMTOH
 70
     1
  9
$DIMSE1
 70
     0
  9
$DIMSE2
 70
     0
  9
$DIMTAD
 70
     0
  9
$DIMZIN
 70
     0
  9
$DIMBLK
  1

  9
$DIMASO
 70
     1
  9
$DIMSHO
 70
     1
  9
$DIMPOST
  1

  9
$DIMAPOST
  1

  9
$DIMALT
 70
     0
  9
$DIMALTD
 70
     2
  9
$DIMALTF
 40
25.4
  9
$DIMLFAC
 40
1.0
  9
$DIMTOFL
 70
     0
  9
$DIMTVP
 40
0.0
  9
$DIMTIX
 70
     0
  9
$DIMSOXD
 70
     0
  9
$DIMSAH
 70
     0
  9
$DIMBLK1
  1

  9
$DIMBLK2
  1

  9
$DIMSTYLE
  2
Standard
  9
$DIMCLRD
 70
     0
  9
$DIMCLRE
 70
     0
  9
$DIMCLRT
 70
     0
  9
$DIMTFAC
 40
1.0
  9
$DIMGAP
 40
0.09
  9
$DIMJUST
 70
     0
  9
$DIMSD1
 70
     0
  9
$DIMSD2
 70
     0
  9
$DIMTOLJ
 70
     1
  9
$DIMTZIN
 70
     0
  9
$DIMALTZ
 70
     0
  9
$DIMALTTZ
 70
     0
  9
$DIMUPT
 70
     0
  9
$DIMDEC
 70
     4
  9
$DIMTDEC
 70
     4
  9
$DIMALTU
 70
     2
  9
$DIMALTTD
 70
     2
  9
$DIMTXSTY
  7
Standard
  9
$DIMAUNIT
 70
     0
  9
$DIMADEC
 70
     0
  9
$DIMALTRND
 40
0.0
  9
$DIMAZIN
 70
     0
  9
$DIMDSEP
 70
    46
  9
$DIMATFIT
 70
     3
  9
$DIMFRAC
 70
     0
  9
$DIMLDRBLK
  1

  9
$DIMLUNIT
 70
     2
  9
$DIMLWD
 70
    -2
  9
$DIMLWE
 70
    -2
  9
$DIMTMOVE
 70
     0
  9
$LUNITS
 70
     2
  9
$LUPREC
 70
     4
  9
$SKETCHINC
 40
0.1
  9
$FILLETRAD
 40
0.0
  9
$AUNITS
 70
     0
  9
$AUPREC
 70
     0
  9
$MENU
  1
.
  9
$ELEVATION
 40
0.0
  9
$PELEVATION
 40
0.0
  9
$THICKNESS
 40
0.0
  9
$LIMCHECK
 70
     0
  9
$CHAMFERA
 40
0.0
  9
$CHAMFERB
 40
0.0
  9
$CHAMFERC
 40
0.0
  9
$CHAMFERD
 40
0.0
  9
$SKPOLY
 70
     0
  9
$TDCREATE
 40
2454637.792512986
  9
$TDUCREATE
 40
2454637.709179653
  9
$TDUPDATE
 40
2454637.798372546
  9
$TDUUPDATE
 40
2454637.715039213
  9
$TDINDWG
 40
0.0058597338
  9
$TDUSRTIMER
 40
0.0058597338
  9
$USRTIMER
 70
     1
  9
$ANGBASE
 50
0.0
  9
$ANGDIR
 70
     0
  9
$PDMODE
 70
     0
  9
$PDSIZE
 40
0.0
  9
$PLINEWID
 40
0.0
  9
$SPLFRAME
 70
     0
  9
$SPLINETYPE
 70
     6
  9
$SPLINESEGS
 70
     8
  9
$HANDSEED
  5
481
  9
$SURFTAB1
 70
     6
  9
$SURFTAB2
 70
     6
  9
$SURFTYPE
 70
     6
  9
$SURFU
 70
     6
  9
$SURFV
 70
     6
  9
$UCSBASE
  2

  9
$UCSNAME
  2

  9
$UCSORG
 10
0.0
 20
0.0
 30
0.0
  9
$UCSXDIR
 10
1.0
 20
0.0
 30
0.0
  9
$UCSYDIR
 10
0.0
 20
1.0
 30
0.0
  9
$UCSORTHOREF
  2

  9
$UCSORTHOVIEW
 70
     1
  9
$UCSORGTOP
 10
0.0
 20
0.0
 30
0.0
  9
$UCSORGBOTTOM
 10
0.0
 20
0.0
 30
0.0
  9
$UCSORGLEFT
 10
0.0
 20
0.0
 30
0.0
  9
$UCSORGRIGHT
 10
0.0
 20
0.0
 30
0.0
  9
$UCSORGFRONT
 10
0.0
 20
0.0
 30
0.0
  9
$UCSORGBACK
 10
0.0
 20
0.0
 30
0.0
  9
$PUCSBASE
  2

  9
$PUCSNAME
  2

  9
$PUCSORG
 10
0.0
 20
0.0
 30
0.0
  9
$PUCSXDIR
 10
1.0
 20
0.0
 30
0.0
  9
$PUCSYDIR
 10
0.0
 20
1.0
 30
0.0
  9
$PUCSORTHOREF
  2

  9
$PUCSORTHOVIEW
 70
     0
  9
$PUCSORGTOP
 10
0.0
 20
0.0
 30
0.0
  9
$PUCSORGBOTTOM
 10
0.0
 20
0.0
 30
0.0
  9
$PUCSORGLEFT
 10
0.0
 20
0.0
 30
0.0
  9
$PUCSORGRIGHT
 10
0.0
 20
0.0
 30
0.0
  9
$PUCSORGFRONT
 10
0.0
 20
0.0
 30
0.0
  9
$PUCSORGBACK
 10
0.0
 20
0.0
 30
0.0
  9
$USERI1
 70
     0
  9
$USERI2
 70
     0
  9
$USERI3
 70
     0
  9
$USERI4
 70
     0
  9
$USERI5
 70
     0
  9
$USERR1
 40
0.0
  9
$USERR2
 40
0.0
  9
$USERR3
 40
0.0
  9
$USERR4
 40
0.0
  9
$USERR5
 40
0.0
  9
$WORLDVIEW
 70
     1
  9
$SHADEDGE
 70
     3
  9
$SHADEDIF
 70
    70
  9
$TILEMODE
 70
     1
  9
$MAXACTVP
 70
    64
  9
$PINSBASE
 10
0.0
 20
0.0
 30
0.0
  9
$PLIMCHECK
 70
     0
  9
$PEXTMIN
 10
1.000000000000000E+20
 20
1.000000000000000E+20
 30
1.000000000000000E+20
  9
$PEXTMAX
 10
-1.000000000000000E+20
 20
-1.000000000000000E+20
 30
-1.000000000000000E+20
  9
$PLIMMIN
 10
0.0
 20
0.0
  9
$PLIMMAX
 10
12.0
 20
9.0
  9
$UNITMODE
 70
     0
  9
$VISRETAIN
 70
     1
  9
$PLINEGEN
 70
     0
  9
$PSLTSCALE
 70
     1
  9
$TREEDEPTH
 70
  3020
  9
$CMLSTYLE
  2
Standard
  9
$CMLJUST
 70
     0
  9
$CMLSCALE
 40
1.0
  9
$PROXYGRAPHICS
 70
     1
  9
$MEASUREMENT
 70
     0
  9
$CELWEIGHT
370
    -1
  9
$ENDCAPS
280
     0
  9
$JOINSTYLE
280
     0
  9
$LWDISPLAY
290
     0
  9
$INSUNITS
 70
     0
  9
$HYPERLINKBASE
  1

  9
$STYLESHEET
  1

  9
$XEDIT
290
     1
  9
$CEPSNTYPE
380
     0
  9
$PSTYLEMODE
290
     1
  9
$FINGERPRINTGUID
  2
{044D28BA-8679-4A3E-BD0C-08BD49651AC7}
  9
$VERSIONGUID
  2
{11AECF52-C19B-4E08-82B8-E4D9F96AB1B2}
  9
$EXTNAMES
290
     1
  9
$PSVPSCALE
 40
0.0
  9
$OLESTARTUP
290
     0
  0
ENDSEC
  0
SECTION
  2
CLASSES
  0
CLASS
  1
ACDBDICTIONARYWDFLT
  2
AcDbDictionaryWithDefault
  3
AutoCAD 2000
 90
        0
280
     0
281
     0
  0
CLASS
  1
ACDBPLACEHOLDER
  2
AcDbPlaceHolder
  3
AutoCAD 2000
 90
        0
280
     0
281
     0
  0
CLASS
  1
LAYOUT
  2
AcDbLayout
  3
AutoCAD 2000
 90
        0
280
     0
281
     0
  0
CLASS
  1
DICTIONARYVAR
  2
AcDbDictionaryVar
  3
AutoCAD 2000
 90
        0
280
     0
281
     0
  0
ENDSEC
  0
SECTION
  2
TABLES
  0
TABLE
  2
VPORT
  5
8
330
0
100
AcDbSymbolTable
 70
     2
  0
VPORT
  5
480
330
8
100
AcDbSymbolTableRecord
100
AcDbViewportTableRecord
  2
*Active
 70
     0
 10
0.0
 20
0.0
 11
1.0
 21
1.0
 12
174.5000000000002
 22
96.99999999999979
 13
0.0
 23
0.0
 14
1.0
 24
1.0
 15
0.0
 25
0.0
 16
0.0
 26
0.0
 36
1.0
 17
0.0
 27
0.0
 37
0.0
 40
195.2555694397596
 41
2.043533930857874
 42
50.0
 43
0.0
 44
0.0
 50
0.0
 51
0.0
 71
     0
 72
   100
 73
     1
 74
     3
 75
     0
 76
     0
 77
     0
 78
     0
281
     0
 65
     1
110
0.0
120
0.0
130
0.0
111
1.0
121
0.0
131
0.0
112
0.0
122
1.0
132
0.0
 79
     1
146
0.0
  0
ENDTAB
  0
TABLE
  2
LTYPE
  5
5
330
0
100
AcDbSymbolTable
 70
     1
  0
LTYPE
  5
13
330
5
100
AcDbSymbolTableRecord
100
AcDbLinetypeTableRecord
  2
ByBlock
 70
     0
  3

 72
    65
 73
     0
 40
0.0
  0
LTYPE
  5
14
330
5
100
AcDbSymbolTableRecord
100
AcDbLinetypeTableRecord
  2
ByLayer
 70
     0
  3

 72
    65
 73
     0
 40
0.0
  0
LTYPE
  5
15
330
5
100
AcDbSymbolTableRecord
100
AcDbLinetypeTableRecord
  2
Continuous
 70
     0
  3
Solid line
 72
    65
 73
     0
 40
0.0
  0
ENDTAB
  0
TABLE
  2
LAYER
  5
2
330
0
100
AcDbSymbolTable
 70
     1
  0
LAYER
  5
10
330
2
100
AcDbSymbolTableRecord
100
AcDbLayerTableRecord
  2
0
 70
     0
 62
     7
  6
Continuous
370
    -3
390
F
  0
ENDTAB
  0
TABLE
  2
STYLE
  5
3
330
0
100
AcDbSymbolTable
 70
     1
  0
STYLE
  5
11
330
3
100
AcDbSymbolTableRecord
100
AcDbTextStyleTableRecord
  2
Standard
 70
     0
 40
0.0
 41
1.0
 50
0.0
 71
     0
 42
0.2
  3
txt
  4

  0
ENDTAB
  0
TABLE
  2
VIEW
  5
6
330
0
100
AcDbSymbolTable
 70
     0
  0
ENDTAB
  0
TABLE
  2
UCS
  5
7
330
0
100
AcDbSymbolTable
 70
     0
  0
ENDTAB
  0
TABLE
  2
APPID
  5
9
330
0
100
AcDbSymbolTable
 70
     1
  0
APPID
  5
12
330
9
100
AcDbSymbolTableRecord
100
AcDbRegAppTableRecord
  2
ACAD
 70
     0
  0
ENDTAB
  0
TABLE
  2
DIMSTYLE
  5
A
330
0
100
AcDbSymbolTable
 70
     1
100
AcDbDimStyleTable
 71
     0
  0
DIMSTYLE
105
477
330
A
100
AcDbSymbolTableRecord
100
AcDbDimStyleTableRecord
  2
Standard
 70
     0
340
11
  0
ENDTAB
  0
TABLE
  2
BLOCK_RECORD
  5
1
330
0
100
AcDbSymbolTable
 70
     0
  0
BLOCK_RECORD
  5
1E
330
1
100
AcDbSymbolTableRecord
100
AcDbBlockTableRecord
  2
*Model_Space
340
21
  0
BLOCK_RECORD
  5
1A
330
1
100
AcDbSymbolTableRecord
100
AcDbBlockTableRecord
  2
*Paper_Space
340
1D
  0
ENDTAB
  0
ENDSEC
  0
SECTION
  2
BLOCKS
  0
BLOCK
  5
1F
330
1E
100
AcDbEntity
  8
0
100
AcDbBlockBegin
  2
*Model_Space
 70
     0
 10
0.0
 20
0.0
 30
0.0
  3
*Model_Space
  1

  0
ENDBLK
  5
20
330
1E
100
AcDbEntity
  8
0
100
AcDbBlockEnd
  0
BLOCK
  5
1B
330
1A
100
AcDbEntity
 67
     1
  8
0
100
AcDbBlockBegin
  2
*Paper_Space
 70
     0
 10
0.0
 20
0.0
 30
0.0
  3
*Paper_Space
  1

  0
ENDBLK
  5
1C
330
1A
100
AcDbEntity
 67
     1
  8
0
100
AcDbBlockEnd
  0
ENDSEC
  0
SECTION
  2
ENTITIES
  0
LINE
  5
22
330
1E
100
AcDbEntity
  8
0
100
AcDbLine
 10
91.49033960179108
 20
2.3483483065311
 30
0.0
 11
91.8732362028199
 21
3.169477675916319
 31
0.0
  0
LINE
  5
23
330
1E
100
AcDbEntity
  8
0
100
AcDbLine
 10
91.0825006577437
 20
2.538525580984019
 30
0.0
 11
91.49033960179108
 21
2.3483483065311
 31
0.0
  0
LINE
  5
26
330
1E
100
AcDbEntity
  8
0
100
AcDbLine
 10
90.13087645496659
 20
2.982272554707509
 30
0.0
 11
91.0825006577437
 21
2.538525580984019
 31
0.0
  0
LINE
  5
28
330
1E
100
AcDbEntity
  8
0
100
AcDbLine
 10
92.54737190242678
 20
2.958825755265099
 30
0.0
 11
94.1787276786162
 21
2.19811665745341
 31
0.0
  0
LINE
  5
29
330
1E
100
AcDbEntity
  8
0
100
AcDbLine
 10
94.1787276786162
 20
2.19811665745341
 30
0.0
 11
94.39003576134171
 21
2.65127103972824
 31
0.0
  0
LINE
  5
2A
330
1E
100
AcDbEntity
  8
0
100
AcDbLine
 10
91.86893325000758
 20
3.160249908106839
 30
0.0
 11
94.1787276786162
 21
2.19811665745341
 31
0.0
  0
LINE
  5
2B
330
1E
100
AcDbEntity
  8
0
100
AcDbLine
 10
91.86893325000758
 20
3.160249908106839
 30
0.0
 11
94.1787276786162
 21
2.19811665745341
 31
0.0
  0
LINE
  5
2C
330
1E
100
AcDbEntity
  8
0
100
AcDbLine
 10
97.6583630700769
 20
2.561623937289979
 30
0.0
 11
99.47098059917621
 21
1.716391606388089
 31
0.0
  0
LINE
  5
2D
330
1E
100
AcDbEntity
  8
0
100
AcDbLine
 10
73.81545856583459
 20
10.0385425547139
 30
0.0
 11
74.64445919276809
 21
9.651975548175949
 31
0.0
  0
LINE
  5
2F
330
1E
100
AcDbEntity
  8
0
100
AcDbLine
 10
75.46454261916679
 20
9.490242021205901
 30
0.0
 11
76.3674074104112
 21
9.06923179718367
 31
0.0
  0
LINE
  5
30
330
1E
100
AcDbEntity
  8
0
100
AcDbLine
 10
75.10839864934109
 20
9.435638333081618
 30
0.0
 11
75.92208265815379
 21
9.05621353973976
 31
0.0
  0
LINE
  5
32
330
1E
100
AcDbEntity
  8
0
100
AcDbLine
 10
74.960760951596
 20
9.50448250643357
 30
0.0
 11
75.2199937074836
 21
10.0604123026083
 31
0.0
  0
LINE
  5
33
330
1E
100
AcDbEntity
  8
0
100
AcDbLine
 10
74.960760951596
 20
9.50448250643357
 30
0.0
 11
75.10839864934109
 21
9.435638333081618
 31
0.0
  0
LINE
  5
35
330
1E
100
AcDbEntity
  8
0
100
AcDbLine
 10
75.60097746287391
 20
9.205946447159019
 30
0.0
 11
76.6257407829502
 21
8.728094348883638
 31
0.0
  0
LINE
  5
36
330
1E
100
AcDbEntity
  8
0
100
AcDbLine
 10
75.20878228581091
 20
9.609504303096159
 30
0.0
 11
75.71549951607059
 21
9.373219604992529
 31
0.0
  0
LINE
  5
38
330
1E
100
AcDbEntity
  8
0
100
AcDbLine
 10
74.7670827686117
 20
9.594795580990439
 30
0.0
 11
75.0222103847467
 21
10.14192182339319
 31
0.0
  0
LINE
  5
3A
330
1E
100
AcDbEntity
  8
0
100
AcDbLine
 10
74.64445919276809
 20
9.651975548175949
 30
0.0
 11
74.7670827686117
 21
9.594795580990439
 31
0.0
  0
LINE
  5
3C
330
1E
100
AcDbEntity
  8
0
100
AcDbLine
 10
71.8797444249175
 20
10.49982474020759
 30
0.0
 11
72.26174516441071
 21
11.319032916728
 31
0.0
  0
LINE
  5
3D
330
1E
100
AcDbEntity
  8
0
100
AcDbLine
 10
72.16724544662449
 20
10.807112313203
 30
0.0
 11
72.36726775674991
 21
11.23606413187909
 31
0.0
  0
LINE
  5
3E
330
1E
100
AcDbEntity
  8
0
100
AcDbLine
 10
72.16724544662449
 20
10.807112313203
 30
0.0
 11
72.28986902246809
 21
10.74993234601749
 31
0.0
  0
LINE
  5
3F
330
1E
100
AcDbEntity
  8
0
100
AcDbLine
 10
72.16724544662449
 20
10.807112313203
 30
0.0
 11
72.7874325342059
 21
10.5179160711849
 31
0.0
  0
LINE
  5
41
330
1E
100
AcDbEntity
  8
0
100
AcDbLine
 10
71.35118515343221
 20
10.74629448789859
 30
0.0
 11
71.8797444249175
 21
10.49982474020759
 31
0.0
  0
LINE
  5
43
330
1E
100
AcDbEntity
  8
0
100
AcDbLine
 10
71.5201056140938
 20
11.3295520964815
 30
0.0
 11
71.9391373683637
 21
12.22817402002809
 31
0.0
  0
LINE
  5
44
330
1E
100
AcDbEntity
  8
0
100
AcDbLine
 10
70.31826505447489
 20
11.227950131663
 30
0.0
 11
70.5718347537454
 21
11.7717353903928
 31
0.0
  0
LINE
  5
45
330
1E
100
AcDbEntity
  8
0
100
AcDbLine
 10
70.35451740505689
 20
11.21104548504499
 30
0.0
 11
71.35118515343221
 21
10.74629448789859
 31
0.0
  0
LINE
  5
47
330
1E
100
AcDbEntity
  8
0
100
AcDbLine
 10
72.7874325342059
 20
10.5179160711849
 30
0.0
 11
73.81545856583459
 21
10.0385425547139
 31
0.0
  0
LINE
  5
49
330
1E
100
AcDbEntity
  8
0
100
AcDbLine
 10
72.28986902246809
 20
10.74993234601749
 30
0.0
 11
73.1188696494017
 21
10.3633653394795
 31
0.0
  0
LINE
  5
4A
330
1E
100
AcDbEntity
  8
0
100
AcDbLine
 10
73.1188696494017
 20
10.3633653394795
 30
0.0
 11
74.1468956810304
 21
9.883991823008519
 31
0.0
  0
LINE
  5
4B
330
1E
100
AcDbEntity
  8
0
100
AcDbLine
 10
72.246302477004
 20
11.28591576672499
 30
0.0
 11
72.36726775674991
 21
11.23606413187909
 31
0.0
  0
LINE
  5
4C
330
1E
100
AcDbEntity
  8
0
100
AcDbLine
 10
72.246302477004
 20
11.28591576672499
 30
0.0
 11
72.36726775674991
 21
11.23606413187909
 31
0.0
  0
LINE
  5
4D
330
1E
100
AcDbEntity
  8
0
100
AcDbLine
 10
75.0222103847467
 20
10.14192182339319
 30
0.0
 11
75.2199937074836
 21
10.0604123026083
 31
0.0
  0
LINE
  5
4E
330
1E
100
AcDbEntity
  8
0
100
AcDbLine
 10
79.79497652706159
 20
7.470939721064749
 30
0.0
 11
80.5181202902958
 21
7.13373428265145
 31
0.0
  0
LINE
  5
50
330
1E
100
AcDbEntity
  8
0
100
AcDbLine
 10
79.7823788352344
 20
7.476814085764519
 30
0.0
 11
80.5233768811302
 21
7.13128310889183
 31
0.0
  0
LINE
  5
51
330
1E
100
AcDbEntity
  8
0
100
AcDbLine
 10
79.7823788352344
 20
7.476814085764519
 30
0.0
 11
80.12047176759509
 21
8.201861097404249
 31
0.0
  0
LINE
  5
52
330
1E
100
AcDbEntity
  8
0
100
AcDbLine
 10
79.14686738300691
 20
8.104169171890209
 30
0.0
 11
79.53132356092891
 21
7.92489539450592
 31
0.0
  0
LINE
  5
55
330
1E
100
AcDbEntity
  8
0
100
AcDbLine
 10
79.53132356092891
 20
7.92489539450592
 30
0.0
 11
79.6716455747366
 21
8.225818741433458
 31
0.0
  0
LINE
  5
56
330
1E
100
AcDbEntity
  8
0
100
AcDbLine
 10
79.53132356092891
 20
7.92489539450592
 30
0.0
 11
79.92173886054991
 21
8.762148762424928
 31
0.0
  0
LINE
  5
57
330
1E
100
AcDbEntity
  8
0
100
AcDbLine
 10
78.59070881537029
 20
7.81182024056946
 30
0.0
 11
78.8020168980958
 21
8.26497462284429
 31
0.0
  0
LINE
  5
58
330
1E
100
AcDbEntity
  8
0
100
AcDbLine
 10
78.18286987132291
 20
8.001997515022379
 30
0.0
 11
78.59070881537029
 21
7.81182024056946
 31
0.0
  0
LINE
  5
5B
330
1E
100
AcDbEntity
  8
0
100
AcDbLine
 10
76.7186926875507
 20
8.905425771454881
 30
0.0
 11
77.62164810967149
 21
8.48437328581611
 31
0.0
  0
LINE
  5
5C
330
1E
100
AcDbEntity
  8
0
100
AcDbLine
 10
76.7186926875507
 20
8.905425771454881
 30
0.0
 11
76.845477537186
 21
9.177318400819778
 31
0.0
  0
LINE
  5
5D
330
1E
100
AcDbEntity
  8
0
100
AcDbLine
 10
76.83976779196929
 20
9.17998088266213
 30
0.0
 11
77.2242239698912
 21
9.00070710527784
 31
0.0
  0
LINE
  5
5E
330
1E
100
AcDbEntity
  8
0
100
AcDbLine
 10
76.83976779196929
 20
9.17998088266213
 30
0.0
 11
77.20675123497379
 21
9.96698416845621
 31
0.0
  0
LINE
  5
5F
330
1E
100
AcDbEntity
  8
0
100
AcDbLine
 10
76.3674074104112
 20
9.06923179718367
 30
0.0
 11
76.7186926875507
 21
8.905425771454881
 31
0.0
  0
LINE
  5
60
330
1E
100
AcDbEntity
  8
0
100
AcDbLine
 10
75.71549951607059
 20
9.373219604992529
 30
0.0
 11
76.7186926875507
 21
8.905425771454881
 31
0.0
  0
LINE
  5
62
330
1E
100
AcDbEntity
  8
0
100
AcDbLine
 10
75.92208265815379
 20
9.05621353973976
 30
0.0
 11
76.9468459782301
 21
8.57836144146438
 31
0.0
  0
LINE
  5
64
330
1E
100
AcDbEntity
  8
0
100
AcDbLine
 10
77.2242239698912
 20
9.00070710527784
 30
0.0
 11
78.18554567644909
 21
8.552438138584019
 31
0.0
  0
LINE
  5
66
330
1E
100
AcDbEntity
  8
0
100
AcDbLine
 10
76.9468459782301
 20
8.57836144146438
 30
0.0
 11
77.587062489508
 21
8.27982538218983
 31
0.0
  0
LINE
  5
68
330
1E
100
AcDbEntity
  8
0
100
AcDbLine
 10
77.877317812151
 20
8.365153265542399
 30
0.0
 11
78.0041026617862
 21
8.637045894907299
 31
0.0
  0
LINE
  5
69
330
1E
100
AcDbEntity
  8
0
100
AcDbLine
 10
77.877317812151
 20
8.365153265542399
 30
0.0
 11
78.0041026617862
 21
8.637045894907299
 31
0.0
  0
LINE
  5
6A
330
1E
100
AcDbEntity
  8
0
100
AcDbLine
 10
78.18554567644909
 20
8.552438138584019
 30
0.0
 11
79.14686738300691
 21
8.104169171890209
 31
0.0
  0
LINE
  5
6C
330
1E
100
AcDbEntity
  8
0
100
AcDbLine
 10
77.62164810967149
 20
8.48437328581611
 30
0.0
 11
77.877317812151
 21
8.365153265542399
 31
0.0
  0
LINE
  5
6E
330
1E
100
AcDbEntity
  8
0
100
AcDbLine
 10
78.8020168980958
 20
8.26497462284429
 30
0.0
 11
79.14686738300691
 21
8.104169171890209
 31
0.0
  0
LINE
  5
6F
330
1E
100
AcDbEntity
  8
0
100
AcDbLine
 10
77.587062489508
 20
8.27982538218983
 30
0.0
 11
78.18286987132291
 21
8.001997515022379
 31
0.0
  0
LINE
  5
72
330
1E
100
AcDbEntity
  8
0
100
AcDbLine
 10
79.6716455747366
 20
8.225818741433458
 30
0.0
 11
80.0574942750126
 21
8.06680461314518
 31
0.0
  0
LINE
  5
73
330
1E
100
AcDbEntity
  8
0
100
AcDbLine
 10
75.61231509951359
 20
11.4074131100898
 30
0.0
 11
75.80599328249791
 21
11.3171000355329
 31
0.0
  0
LINE
  5
74
330
1E
100
AcDbEntity
  8
0
100
AcDbLine
 10
67.5574672959037
 20
12.5153234948597
 30
0.0
 11
67.72651376208409
 21
12.8778470006795
 31
0.0
  0
LINE
  5
75
330
1E
100
AcDbEntity
  8
0
100
AcDbLine
 10
71.01338838383409
 20
11.5658367945851
 30
0.0
 11
71.5201056140938
 21
11.3295520964815
 31
0.0
  0
LINE
  5
77
330
1E
100
AcDbEntity
  8
0
100
AcDbLine
 10
70.348011863544
 20
11.65542974211269
 30
0.0
 11
70.43253509663421
 21
11.83669149502259
 31
0.0
  0
LINE
  5
78
330
1E
100
AcDbEntity
  8
0
100
AcDbLine
 10
71.0388479135927
 20
11.8849779112474
 30
0.0
 11
71.4450630500228
 21
12.75611434315949
 31
0.0
  0
LINE
  5
79
330
1E
100
AcDbEntity
  8
0
100
AcDbLine
 10
70.0101045814776
 20
12.0336728897393
 30
0.0
 11
71.01338838383409
 21
11.5658367945851
 31
0.0
  0
LINE
  5
7B
330
1E
100
AcDbEntity
  8
0
100
AcDbLine
 10
69.963555685622
 20
11.834703519497
 30
0.0
 11
70.348011863544
 21
11.65542974211269
 31
0.0
  0
LINE
  5
7D
330
1E
100
AcDbEntity
  8
0
100
AcDbLine
 10
69.5773576394556
 20
11.57343884691919
 30
0.0
 11
70.31826505447489
 21
11.227950131663
 31
0.0
  0
LINE
  5
7F
330
1E
100
AcDbEntity
  8
0
100
AcDbLine
 10
70.41866082601129
 20
12.1741741532655
 30
0.0
 11
71.0388479135927
 21
11.8849779112474
 31
0.0
  0
LINE
  5
81
330
1E
100
AcDbEntity
  8
0
100
AcDbLine
 10
68.8514794568773
 20
12.5739453956518
 30
0.0
 11
69.10723979023321
 21
12.45468311376149
 31
0.0
  0
LINE
  5
82
330
1E
100
AcDbEntity
  8
0
100
AcDbLine
 10
68.8514794568773
 20
12.5739453956518
 30
0.0
 11
68.9782643065126
 21
12.8458380250167
 31
0.0
  0
LINE
  5
83
330
1E
100
AcDbEntity
  8
0
100
AcDbLine
 10
69.35819668713701
 20
12.33766069754819
 30
0.0
 11
70.0101045814776
 21
12.0336728897393
 31
0.0
  0
LINE
  5
84
330
1E
100
AcDbEntity
  8
0
100
AcDbLine
 10
69.10723979023321
 20
12.45468311376149
 30
0.0
 11
70.0101045814776
 21
12.0336728897393
 31
0.0
  0
LINE
  5
85
330
1E
100
AcDbEntity
  8
0
100
AcDbLine
 10
69.10723979023321
 20
12.45468311376149
 30
0.0
 11
69.35819668713701
 21
12.33766069754819
 31
0.0
  0
LINE
  5
87
330
1E
100
AcDbEntity
  8
0
100
AcDbLine
 10
69.0022339790642
 20
12.2829724861908
 30
0.0
 11
69.963555685622
 21
11.834703519497
 31
0.0
  0
LINE
  5
89
330
1E
100
AcDbEntity
  8
0
100
AcDbLine
 10
67.81893737447631
 20
12.3933987311271
 30
0.0
 11
68.54208113771051
 21
12.0561932927138
 31
0.0
  0
LINE
  5
8B
330
1E
100
AcDbEntity
  8
0
100
AcDbLine
 10
68.54208113771051
 20
12.0561932927138
 30
0.0
 11
69.5773576394556
 21
11.57343884691919
 31
0.0
  0
LINE
  5
8D
330
1E
100
AcDbEntity
  8
0
100
AcDbLine
 10
67.80633968264909
 20
12.3992730958268
 30
0.0
 11
68.5473377285448
 21
12.0537421189542
 31
0.0
  0
LINE
  5
8F
330
1E
100
AcDbEntity
  8
0
100
AcDbLine
 10
69.39063479438271
 20
12.6535476697365
 30
0.0
 11
70.41866082601129
 21
12.1741741532655
 31
0.0
  0
LINE
  5
91
330
1E
100
AcDbEntity
  8
0
100
AcDbLine
 10
69.39063479438271
 20
12.6535476697365
 30
0.0
 11
70.0872237108155
 21
12.3287248849709
 31
0.0
  0
LINE
  5
92
330
1E
100
AcDbEntity
  8
0
100
AcDbLine
 10
67.3017069625478
 20
12.6345857767499
 30
0.0
 11
67.5574672959037
 21
12.5153234948597
 31
0.0
  0
LINE
  5
93
330
1E
100
AcDbEntity
  8
0
100
AcDbLine
 10
67.3017069625478
 20
12.6345857767499
 30
0.0
 11
67.6609405773906
 21
13.40496940205559
 31
0.0
  0
LINE
  5
94
330
1E
100
AcDbEntity
  8
0
100
AcDbLine
 10
71.88353207069441
 20
12.5944743275466
 30
0.0
 11
81.127881469101
 21
8.28378943994698
 31
0.0
  0
LINE
  5
95
330
1E
100
AcDbEntity
  8
0
100
AcDbLine
 10
74.7231355706139
 20
11.82204183001369
 30
0.0
 11
85.14568636293509
 21
6.961955927327849
 31
0.0
  0
LINE
  5
96
330
1E
100
AcDbEntity
  8
0
100
AcDbLine
 10
74.7231355706139
 20
11.82204183001369
 30
0.0
 11
81.33918955182648
 21
8.736943822221808
 31
0.0
  0
LINE
  5
97
330
1E
100
AcDbEntity
  8
0
100
AcDbLine
 10
75.61231509951359
 20
11.4074131100898
 30
0.0
 11
75.80599328249791
 21
11.3171000355329
 31
0.0
  0
LINE
  5
98
330
1E
100
AcDbEntity
  8
0
100
AcDbLine
 10
84.7131516687668
 20
5.177570837628669
 30
0.0
 11
84.83993651840208
 21
5.44946346699357
 31
0.0
  0
LINE
  5
99
330
1E
100
AcDbEntity
  8
0
100
AcDbLine
 10
85.01521663346599
 20
5.36772950059536
 30
0.0
 11
85.84421726039959
 21
4.98116249405738
 31
0.0
  0
LINE
  5
9B
330
1E
100
AcDbEntity
  8
0
100
AcDbLine
 10
84.4330116296445
 20
5.308201494369559
 30
0.0
 11
84.7131516687668
 21
5.177570837628669
 31
0.0
  0
LINE
  5
9C
330
1E
100
AcDbEntity
  8
0
100
AcDbLine
 10
84.18459239728141
 20
5.42404058531966
 30
0.0
 11
84.7131516687668
 21
5.177570837628669
 31
0.0
  0
LINE
  5
9D
330
1E
100
AcDbEntity
  8
0
100
AcDbLine
 10
84.18459239728141
 20
5.42404058531966
 30
0.0
 11
84.4330116296445
 21
5.308201494369559
 31
0.0
  0
LINE
  5
9F
330
1E
100
AcDbEntity
  8
0
100
AcDbLine
 10
85.3465631177854
 20
5.21322103050649
 30
0.0
 11
85.84421726039959
 21
4.98116249405738
 31
0.0
  0
LINE
  5
A0
330
1E
100
AcDbEntity
  8
0
100
AcDbLine
 10
85.96684083624321
 20
4.92398252687186
 30
0.0
 11
86.2381163919454
 21
5.50573834654978
 31
0.0
  0
LINE
  5
A1
330
1E
100
AcDbEntity
  8
0
100
AcDbLine
 10
85.96684083624321
 20
4.92398252687186
 30
0.0
 11
86.348932581406
 21
5.743385866859299
 31
0.0
  0
LINE
  5
A2
330
1E
100
AcDbEntity
  8
0
100
AcDbLine
 10
85.84421726039959
 20
4.98116249405738
 30
0.0
 11
85.96684083624321
 21
4.92398252687186
 31
0.0
  0
LINE
  5
A5
330
1E
100
AcDbEntity
  8
0
100
AcDbLine
 10
81.55856275199878
 20
6.648570924713759
 30
0.0
 11
82.28170651523299
 21
6.311365486300459
 31
0.0
  0
LINE
  5
A6
330
1E
100
AcDbEntity
  8
0
100
AcDbLine
 10
81.55339679204081
 20
6.650979836856839
 30
0.0
 11
82.29430420706021
 21
6.305491121600678
 31
0.0
  0
LINE
  5
A9
330
1E
100
AcDbEntity
  8
0
100
AcDbLine
 10
82.29756691861259
 20
6.303969703405059
 30
0.0
 11
83.18783401802971
 21
5.8888338440826
 31
0.0
  0
LINE
  5
AA
330
1E
100
AcDbEntity
  8
0
100
AcDbLine
 10
82.29756691861259
 20
6.303969703405059
 30
0.0
 11
82.65030074491379
 21
7.06041440302711
 31
0.0
  0
LINE
  5
AB
330
1E
100
AcDbEntity
  8
0
100
AcDbLine
 10
83.3669128833795
 20
6.136341520700989
 30
0.0
 11
83.98709997096089
 21
5.847145278682901
 31
0.0
  0
LINE
  5
AD
330
1E
100
AcDbEntity
  8
0
100
AcDbLine
 10
83.48953645922309
 20
6.07916155351548
 30
0.0
 11
84.31853708615669
 21
5.692594546977499
 31
0.0
  0
LINE
  5
AE
330
1E
100
AcDbEntity
  8
0
100
AcDbLine
 10
83.98709997096089
 20
5.847145278682901
 30
0.0
 11
85.01521663346599
 21
5.36772950059536
 31
0.0
  0
LINE
  5
B0
330
1E
100
AcDbEntity
  8
0
100
AcDbLine
 10
83.18783401802971
 20
5.8888338440826
 30
0.0
 11
84.18459239728141
 21
5.42404058531966
 31
0.0
  0
LINE
  5
B1
330
1E
100
AcDbEntity
  8
0
100
AcDbLine
 10
83.18783401802971
 20
5.8888338440826
 30
0.0
 11
83.55861722951891
 21
6.6839858088967
 31
0.0
  0
LINE
  5
B3
330
1E
100
AcDbEntity
  8
0
100
AcDbLine
 10
86.2381163919454
 20
5.50573834654978
 30
0.0
 11
87.72774901484371
 21
4.88523937053836
 31
0.0
  0
LINE
  5
B4
330
1E
100
AcDbEntity
  8
0
100
AcDbLine
 10
86.2381163919454
 20
5.50573834654978
 30
0.0
 11
87.72774901484371
 21
4.88523937053836
 31
0.0
  0
LINE
  5
B5
330
1E
100
AcDbEntity
  8
0
100
AcDbLine
 10
80.5181202902958
 20
7.13373428265145
 30
0.0
 11
81.55339679204081
 21
6.650979836856839
 31
0.0
  0
LINE
  5
B7
330
1E
100
AcDbEntity
  8
0
100
AcDbLine
 10
80.5233768811302
 20
7.13128310889183
 30
0.0
 11
81.55856275199878
 21
6.648570924713759
 31
0.0
  0
LINE
  5
B8
330
1E
100
AcDbEntity
  8
0
100
AcDbLine
 10
81.127881469101
 20
8.28378943994698
 30
0.0
 11
88.1970898325884
 21
4.98738334942963
 31
0.0
  0
LINE
  5
B9
330
1E
100
AcDbEntity
  8
0
100
AcDbLine
 10
85.7796106111115
 20
8.321419074152348
 30
0.0
 11
93.7551277391485
 21
4.602396818184059
 31
0.0
  0
LINE
  5
BA
330
1E
100
AcDbEntity
  8
0
100
AcDbLine
 10
85.06067124283651
 20
8.43598863705808
 30
0.0
 11
92.8549266179637
 21
4.801489614179969
 31
0.0
  0
LINE
  5
BB
330
1E
100
AcDbEntity
  8
0
100
AcDbLine
 10
85.6105641449311
 20
7.958895568332489
 30
0.0
 11
93.5860812729682
 21
4.2398733123642
 31
0.0
  0
LINE
  5
BC
330
1E
100
AcDbEntity
  8
0
100
AcDbLine
 10
81.33918955182648
 20
8.736943822221808
 30
0.0
 11
88.40839791531392
 21
5.44053773170446
 31
0.0
  0
LINE
  5
BD
330
1E
100
AcDbEntity
  8
0
100
AcDbLine
 10
85.14568636293509
 20
6.961955927327849
 30
0.0
 11
93.12120349097209
 21
3.242933671359559
 31
0.0
  0
LINE
  5
BE
330
1E
100
AcDbEntity
  8
0
100
AcDbLine
 10
80.16524780910529
 20
9.284358541330419
 30
0.0
 11
80.5430879330461
 21
9.108169861953911
 31
0.0
  0
LINE
  5
BF
330
1E
100
AcDbEntity
  8
0
100
AcDbLine
 10
42.43613681401189
 20
23.89850852276699
 30
0.0
 11
42.73196812982759
 21
24.5329246579518
 31
0.0
  0
LINE
  5
C0
330
1E
100
AcDbEntity
  8
0
100
AcDbLine
 10
42.3135132381683
 20
23.9556884899526
 30
0.0
 11
42.43613681401189
 21
23.89850852276699
 31
0.0
  0
LINE
  5
C2
330
1E
100
AcDbEntity
  8
0
100
AcDbLine
 10
41.8159497264306
 20
24.1877047647851
 30
0.0
 11
42.43613681401189
 21
23.89850852276699
 31
0.0
  0
LINE
  5
C3
330
1E
100
AcDbEntity
  8
0
100
AcDbLine
 10
41.48451261123479
 20
24.3422554964905
 30
0.0
 11
41.8159497264306
 21
24.1877047647851
 31
0.0
  0
LINE
  5
C4
330
1E
100
AcDbEntity
  8
0
100
AcDbLine
 10
41.48451261123479
 20
24.3422554964905
 30
0.0
 11
42.3135132381683
 21
23.9556884899526
 31
0.0
  0
LINE
  5
C6
330
1E
100
AcDbEntity
  8
0
100
AcDbLine
 10
43.657183372914
 20
24.32216765578949
 30
0.0
 11
44.5474504723312
 21
23.90703179646699
 31
0.0
  0
LINE
  5
C8
330
1E
100
AcDbEntity
  8
0
100
AcDbLine
 10
43.17714699497439
 20
24.3253355974823
 30
0.0
 11
43.46961962442249
 21
24.952548963012
 31
0.0
  0
LINE
  5
C9
330
1E
100
AcDbEntity
  8
0
100
AcDbLine
 10
43.0295092972292
 20
24.3941797708343
 30
0.0
 11
43.17714699497439
 21
24.3253355974823
 31
0.0
  0
LINE
  5
CA
330
1E
100
AcDbEntity
  8
0
100
AcDbLine
 10
47.4752964292593
 20
21.8797370121547
 30
0.0
 11
47.71754446388699
 21
22.39924273608689
 31
0.0
  0
LINE
  5
CB
330
1E
100
AcDbEntity
  8
0
100
AcDbLine
 10
46.9467371577739
 20
22.1262067598457
 30
0.0
 11
47.4752964292593
 21
21.8797370121547
 31
0.0
  0
LINE
  5
CD
330
1E
100
AcDbEntity
  8
0
100
AcDbLine
 10
47.480379504866
 20
21.54635373071669
 30
0.0
 11
47.88821844891329
 21
21.3561764562638
 31
0.0
  0
LINE
  5
CE
330
1E
100
AcDbEntity
  8
0
100
AcDbLine
 10
47.63750581652179
 20
21.3627472978626
 30
0.0
 11
48.79758103514539
 21
20.82179860608539
 31
0.0
  0
LINE
  5
CF
330
1E
100
AcDbEntity
  8
0
100
AcDbLine
 10
46.5499352990622
 20
21.8698866964037
 30
0.0
 11
47.63750581652179
 21
21.3627472978626
 31
0.0
  0
LINE
  5
D0
330
1E
100
AcDbEntity
  8
0
100
AcDbLine
 10
46.3049799215963
 20
22.4254612666015
 30
0.0
 11
47.19515639013699
 21
22.0103676688956
 31
0.0
  0
LINE
  5
D1
330
1E
100
AcDbEntity
  8
0
100
AcDbLine
 10
45.9500694093987
 20
22.5909577569921
 30
0.0
 11
46.9467371577739
 21
22.1262067598457
 31
0.0
  0
LINE
  5
D3
330
1E
100
AcDbEntity
  8
0
100
AcDbLine
 10
45.5892480086396
 20
22.31785983178169
 30
0.0
 11
46.5499352990622
 21
21.8698866964037
 31
0.0
  0
LINE
  5
D4
330
1E
100
AcDbEntity
  8
0
100
AcDbLine
 10
44.86420099699979
 20
22.65595276414239
 30
0.0
 11
45.5892480086396
 21
22.31785983178169
 31
0.0
  0
LINE
  5
D5
330
1E
100
AcDbEntity
  8
0
100
AcDbLine
 10
44.77966227085921
 20
23.1367242730555
 30
0.0
 11
45.0598023099815
 21
23.0060936163146
 31
0.0
  0
LINE
  5
D6
330
1E
100
AcDbEntity
  8
0
100
AcDbLine
 10
44.77966227085921
 20
23.1367242730555
 30
0.0
 11
45.0332319701298
 21
23.6805095317853
 31
0.0
  0
LINE
  5
D7
330
1E
100
AcDbEntity
  8
0
100
AcDbLine
 10
45.0598023099815
 20
23.0060936163146
 30
0.0
 11
45.9500694093987
 21
22.5909577569921
 31
0.0
  0
LINE
  5
D9
330
1E
100
AcDbEntity
  8
0
100
AcDbLine
 10
44.90236098452879
 20
23.74153530607639
 30
0.0
 11
45.792628083946
 21
23.32639944675389
 31
0.0
  0
LINE
  5
DA
330
1E
100
AcDbEntity
  8
0
100
AcDbLine
 10
44.5474504723312
 20
23.90703179646699
 30
0.0
 11
45.5442088515829
 21
23.442238537704
 31
0.0
  0
LINE
  5
DC
330
1E
100
AcDbEntity
  8
0
100
AcDbLine
 10
46.07276812306829
 20
23.1957687900131
 30
0.0
 11
46.469101587944
 21
24.0457137809198
 31
0.0
  0
LINE
  5
DD
330
1E
100
AcDbEntity
  8
0
100
AcDbLine
 10
45.792628083946
 20
23.32639944675389
 30
0.0
 11
46.07276812306829
 21
23.1957687900131
 31
0.0
  0
LINE
  5
DE
330
1E
100
AcDbEntity
  8
0
100
AcDbLine
 10
45.5442088515829
 20
23.442238537704
 30
0.0
 11
46.07276812306829
 21
23.1957687900131
 31
0.0
  0
LINE
  5
E0
330
1E
100
AcDbEntity
  8
0
100
AcDbLine
 10
44.429172790016
 20
22.8588085235589
 30
0.0
 11
44.86420099699979
 21
22.65595276414239
 31
0.0
  0
LINE
  5
E1
330
1E
100
AcDbEntity
  8
0
100
AcDbLine
 10
44.2660372123971
 20
22.9348794333401
 30
0.0
 11
44.429172790016
 21
22.8588085235589
 31
0.0
  0
LINE
  5
E2
330
1E
100
AcDbEntity
  8
0
100
AcDbLine
 10
44.2660372123971
 20
22.9348794333401
 30
0.0
 11
44.60413014475779
 21
23.6599264449798
 31
0.0
  0
LINE
  5
E3
330
1E
100
AcDbEntity
  8
0
100
AcDbLine
 10
41.8986879701087
 20
24.48013653979089
 30
0.0
 11
42.0677344362891
 21
24.8426600456108
 31
0.0
  0
LINE
  5
E4
330
1E
100
AcDbEntity
  8
0
100
AcDbLine
 10
43.3770433337917
 20
24.4527983125303
 30
0.0
 11
43.657183372914
 21
24.32216765578949
 31
0.0
  0
LINE
  5
E5
330
1E
100
AcDbEntity
  8
0
100
AcDbLine
 10
43.3770433337917
 20
24.4527983125303
 30
0.0
 11
43.9056026052771
 21
24.2063285648393
 31
0.0
  0
LINE
  5
E6
330
1E
100
AcDbEntity
  8
0
100
AcDbLine
 10
43.3770433337917
 20
24.4527983125303
 30
0.0
 11
43.71513626615249
 21
25.1778453241701
 31
0.0
  0
LINE
  5
E7
330
1E
100
AcDbEntity
  8
0
100
AcDbLine
 10
39.8362994920248
 20
25.1108252549796
 30
0.0
 11
40.45648657960611
 21
24.8216290129615
 31
0.0
  0
LINE
  5
E8
330
1E
100
AcDbEntity
  8
0
100
AcDbLine
 10
39.8362994920248
 20
25.1108252549796
 30
0.0
 11
39.96308434166
 21
25.3827178843445
 31
0.0
  0
LINE
  5
E9
330
1E
100
AcDbEntity
  8
0
100
AcDbLine
 10
40.45648657960611
 20
24.8216290129615
 30
0.0
 11
41.48451261123479
 21
24.3422554964905
 31
0.0
  0
LINE
  5
EB
330
1E
100
AcDbEntity
  8
0
100
AcDbLine
 10
40.1276700133022
 20
25.3059707886986
 30
0.0
 11
41.1629465150473
 21
24.823216342904
 31
0.0
  0
LINE
  5
EC
330
1E
100
AcDbEntity
  8
0
100
AcDbLine
 10
40.55084545706239
 20
25.549992721726
 30
0.0
 11
40.6984831548075
 21
25.4811485483741
 31
0.0
  0
LINE
  5
ED
330
1E
100
AcDbEntity
  8
0
100
AcDbLine
 10
40.55084545706239
 20
25.549992721726
 30
0.0
 11
40.9713711818378
 21
26.45181849470819
 31
0.0
  0
LINE
  5
EE
330
1E
100
AcDbEntity
  8
0
100
AcDbLine
 10
40.6984831548075
 20
25.4811485483741
 30
0.0
 11
41.51216716362021
 21
25.1017237550322
 31
0.0
  0
LINE
  5
F0
330
1E
100
AcDbEntity
  8
0
100
AcDbLine
 10
39.3993602901101
 20
25.64558513925499
 30
0.0
 11
40.12250405334429
 21
25.30837970084169
 31
0.0
  0
LINE
  5
F1
330
1E
100
AcDbEntity
  8
0
100
AcDbLine
 10
39.3993602901101
 20
25.64558513925499
 30
0.0
 11
39.76241089298639
 21
26.4241543712453
 31
0.0
  0
LINE
  5
F2
330
1E
100
AcDbEntity
  8
0
100
AcDbLine
 10
40.12250405334429
 20
25.30837970084169
 30
0.0
 11
41.15778055508939
 21
24.8256252550471
 31
0.0
  0
LINE
  5
F4
330
1E
100
AcDbEntity
  8
0
100
AcDbLine
 10
42.2158252884165
 20
24.7736045641761
 30
0.0
 11
43.0295092972292
 21
24.3941797708343
 31
0.0
  0
LINE
  5
F5
330
1E
100
AcDbEntity
  8
0
100
AcDbLine
 10
42.5369304836965
 20
24.62387165675689
 30
0.0
 11
43.17714699497439
 21
24.3253355974823
 31
0.0
  0
LINE
  5
F7
330
1E
100
AcDbEntity
  8
0
100
AcDbLine
 10
41.51216716362021
 20
25.1017237550322
 30
0.0
 11
42.5369304836965
 21
24.62387165675689
 31
0.0
  0
LINE
  5
F8
330
1E
100
AcDbEntity
  8
0
100
AcDbLine
 10
41.51216716362021
 20
25.1017237550322
 30
0.0
 11
42.2158252884165
 21
24.7736045641761
 31
0.0
  0
LINE
  5
FA
330
1E
100
AcDbEntity
  8
0
100
AcDbLine
 10
41.1629465150473
 20
24.823216342904
 30
0.0
 11
41.8860902782815
 21
24.4860109044907
 31
0.0
  0
LINE
  5
FB
330
1E
100
AcDbEntity
  8
0
100
AcDbLine
 10
41.15778055508939
 20
24.8256252550471
 30
0.0
 11
41.8986879701087
 21
24.48013653979089
 31
0.0
  0
LINE
  5
FD
330
1E
100
AcDbEntity
  8
0
100
AcDbLine
 10
40.78792369480189
 20
24.6670782812561
 30
0.0
 11
41.8159497264306
 21
24.1877047647851
 31
0.0
  0
LINE
  5
FE
330
1E
100
AcDbEntity
  8
0
100
AcDbLine
 10
42.73196812982759
 20
24.5329246579518
 30
0.0
 11
43.0295092972292
 21
24.3941797708343
 31
0.0
  0
LINE
  5
FF
330
1E
100
AcDbEntity
  8
0
100
AcDbLine
 10
39.38676259828289
 20
25.6514595039548
 30
0.0
 11
39.55580906446329
 21
26.0139830097746
 31
0.0
  0
LINE
  5
100
330
1E
100
AcDbEntity
  8
0
100
AcDbLine
 10
39.38676259828289
 20
25.6514595039548
 30
0.0
 11
39.7502183297592
 21
26.430897542278
 31
0.0
  0
LINE
  5
101
330
1E
100
AcDbEntity
  8
0
100
AcDbLine
 10
43.0295092972292
 20
24.3941797708343
 30
0.0
 11
44.9487087370396
 21
23.4992477788754
 31
0.0
  0
LINE
  5
102
330
1E
100
AcDbEntity
  8
0
100
AcDbLine
 10
43.0295092972292
 20
24.3941797708343
 30
0.0
 11
43.17714699497439
 21
24.3253355974823
 31
0.0
  0
LINE
  5
103
330
1E
100
AcDbEntity
  8
0
100
AcDbLine
 10
47.88821844891329
 20
21.3561764562638
 30
0.0
 11
48.83984265169051
 21
20.9124294825403
 31
0.0
  0
LINE
  5
105
330
1E
100
AcDbEntity
  8
0
100
AcDbLine
 10
47.98751890340709
 20
22.6339242481763
 30
0.0
 11
48.3953578474545
 21
22.44374697372339
 31
0.0
  0
LINE
  5
106
330
1E
100
AcDbEntity
  8
0
100
AcDbLine
 10
47.98751890340709
 20
22.6339242481763
 30
0.0
 11
48.4101350688581
 21
23.540233012726
 31
0.0
  0
LINE
  5
107
330
1E
100
AcDbEntity
  8
0
100
AcDbLine
 10
48.3953578474545
 20
22.44374697372339
 30
0.0
 11
49.3469820502316
 21
21.99999999999989
 31
0.0
  0
LINE
  5
109
330
1E
100
AcDbEntity
  8
0
100
AcDbLine
 10
47.7762108206816
 20
22.18076986590149
 30
0.0
 11
48.184049764729
 21
21.9905925914486
 31
0.0
  0
LINE
  5
10A
330
1E
100
AcDbEntity
  8
0
100
AcDbLine
 10
47.7762108206816
 20
22.18076986590149
 30
0.0
 11
48.1988269861326
 21
23.08707863045119
 31
0.0
  0
LINE
  5
10B
330
1E
100
AcDbEntity
  8
0
100
AcDbLine
 10
48.184049764729
 20
21.9905925914486
 30
0.0
 11
49.1356739675062
 21
21.5468456177251
 31
0.0
  0
LINE
  5
10C
330
1E
100
AcDbEntity
  8
0
100
AcDbLine
 10
47.64434289543969
 20
22.24226051797459
 30
0.0
 11
47.7762108206816
 21
22.18076986590149
 31
0.0
  0
LINE
  5
10D
330
1E
100
AcDbEntity
  8
0
100
AcDbLine
 10
1.5896340278123
 20
47.3589374750899
 30
0.0
 11
3.402251556911629
 21
46.513705144188
 31
0.0
  0
LINE
  5
10E
330
1E
100
AcDbEntity
  8
0
100
AcDbLine
 10
0.598802030172444
 20
47.6002918876309
 30
0.0
 11
2.411419559271779
 21
46.755059556729
 31
0.0
  0
LINE
  5
10F
330
1E
100
AcDbEntity
  8
0
100
AcDbLine
 10
0.598802030172444
 20
47.6002918876309
 30
0.0
 11
1.5896340278123
 21
47.3589374750899
 31
0.0
  0
LINE
  5
110
330
1E
100
AcDbEntity
  8
0
100
AcDbLine
 10
5.360468752748929
 20
43.6145008716458
 30
0.0
 11
7.582218146888619
 21
42.46355329504449
 31
0.0
  0
LINE
  5
111
330
1E
100
AcDbEntity
  8
0
100
AcDbLine
 10
5.360468752748929
 20
43.6145008716458
 30
0.0
 11
5.5717768354744
 21
44.0676552539206
 31
0.0
  0
LINE
  5
112
330
1E
100
AcDbEntity
  8
0
100
AcDbLine
 10
5.360468752748929
 20
43.6145008716458
 30
0.0
 11
6.99182452893833
 21
42.8537917738341
 31
0.0
  0
LINE
  5
113
330
1E
100
AcDbEntity
  8
0
100
AcDbLine
 10
3.402251556911629
 20
46.513705144188
 30
0.0
 11
8.205688009024861
 21
44.273839467298
 31
0.0
  0
LINE
  5
114
330
1E
100
AcDbEntity
  8
0
100
AcDbLine
 10
2.580466025452149
 20
47.11758306254889
 30
0.0
 11
7.47453335402035
 21
44.8354557691138
 31
0.0
  0
LINE
  5
115
330
1E
100
AcDbEntity
  8
0
100
AcDbLine
 10
2.580466025452149
 20
47.11758306254889
 30
0.0
 11
7.47453335402035
 21
44.8354557691138
 31
0.0
  0
LINE
  5
116
330
1E
100
AcDbEntity
  8
0
100
AcDbLine
 10
2.411419559271779
 20
46.755059556729
 30
0.0
 11
7.305486887839969
 21
44.4729322632939
 31
0.0
  0
LINE
  5
117
330
1E
100
AcDbEntity
  8
0
100
AcDbLine
 10
2.411419559271779
 20
46.755059556729
 30
0.0
 11
7.305486887839969
 21
44.4729322632939
 31
0.0
  0
LINE
  5
118
330
1E
100
AcDbEntity
  8
0
100
AcDbLine
 10
1.946541777275739
 20
45.7581199157244
 30
0.0
 11
6.840609105843941
 21
43.47599262228929
 31
0.0
  0
LINE
  5
119
330
1E
100
AcDbEntity
  8
0
100
AcDbLine
 10
1.946541777275739
 20
45.7581199157244
 30
0.0
 11
6.840609105843941
 21
43.47599262228929
 31
0.0
  0
LINE
  5
11A
330
1E
100
AcDbEntity
  8
0
100
AcDbLine
 10
0.7678484963528211
 20
47.96281539345069
 30
0.0
 11
4.360085902685829
 21
55.66643989212289
 31
0.0
  0
LINE
  5
11B
330
1E
100
AcDbEntity
  8
0
100
AcDbLine
 10
4.360085902685829
 20
55.66643989212289
 30
0.0
 11
6.987397545863159
 21
57.7514419375955
 31
0.0
  0
LINE
  5
11C
330
1E
100
AcDbEntity
  8
0
100
AcDbLine
 10
0.7678484963528211
 20
47.96281539345069
 30
0.0
 11
1.5896340278123
 21
47.3589374750899
 31
0.0
  0
LINE
  5
11D
330
1E
100
AcDbEntity
  8
0
100
AcDbLine
 10
0.7678484963528211
 20
47.96281539345069
 30
0.0
 11
4.360085902685829
 21
55.66643989212289
 31
0.0
  0
LINE
  5
11E
330
1E
100
AcDbEntity
  8
0
100
AcDbLine
 10
0.7678484963528211
 20
47.96281539345069
 30
0.0
 11
2.580466025452149
 21
47.11758306254889
 31
0.0
  0
LINE
  5
11F
330
1E
100
AcDbEntity
  8
0
100
AcDbLine
 10
0.598802030172444
 20
47.6002918876309
 30
0.0
 11
1.5896340278123
 21
47.3589374750899
 31
0.0
  0
LINE
  5
120
330
1E
100
AcDbEntity
  8
0
100
AcDbLine
 10
0.598802030172444
 20
47.6002918876309
 30
0.0
 11
2.411419559271779
 21
46.755059556729
 31
0.0
  0
LINE
  5
121
330
1E
100
AcDbEntity
  8
0
100
AcDbLine
 10
0.133924248176407
 20
46.6033522466262
 30
0.0
 11
0.598802030172444
 21
47.6002918876309
 31
0.0
  0
LINE
  5
122
330
1E
100
AcDbEntity
  8
0
100
AcDbLine
 10
0.133924248176407
 20
46.6033522466262
 30
0.0
 11
1.946541777275739
 21
45.7581199157244
 31
0.0
  0
LINE
  5
123
330
1E
100
AcDbEntity
  8
0
100
AcDbLine
 10
6.840609105843941
 20
43.47599262228929
 30
0.0
 11
7.203132611663799
 21
43.30694615610889
 31
0.0
  0
LINE
  5
124
330
1E
100
AcDbEntity
  8
0
100
AcDbLine
 10
6.840609105843941
 20
43.47599262228929
 30
0.0
 11
7.203132611663799
 21
43.30694615610889
 31
0.0
  0
LINE
  5
125
330
1E
100
AcDbEntity
  8
0
100
AcDbLine
 10
6.840609105843941
 20
43.47599262228929
 30
0.0
 11
14.81612623388099
 21
39.756970366321
 31
0.0
  0
LINE
  5
126
330
1E
100
AcDbEntity
  8
0
100
AcDbLine
 10
10.3046505674553
 20
40.2056282217618
 30
0.0
 11
11.11824394539149
 21
39.8262456900365
 31
0.0
  0
LINE
  5
128
330
1E
100
AcDbEntity
  8
0
100
AcDbLine
 10
11.26588164313669
 20
39.75740151668449
 30
0.0
 11
11.5655482006538
 21
40.4000424039076
 31
0.0
  0
LINE
  5
129
330
1E
100
AcDbEntity
  8
0
100
AcDbLine
 10
11.26588164313669
 20
39.75740151668449
 30
0.0
 11
11.59327687412669
 21
40.4595070951625
 31
0.0
  0
LINE
  5
12A
330
1E
100
AcDbEntity
  8
0
100
AcDbLine
 10
11.11824394539149
 20
39.8262456900365
 30
0.0
 11
11.26588164313669
 21
39.75740151668449
 31
0.0
  0
LINE
  5
12C
330
1E
100
AcDbEntity
  8
0
100
AcDbLine
 10
10.6256651318588
 20
40.05593757595909
 30
0.0
 11
11.26588164313669
 21
39.75740151668449
 31
0.0
  0
LINE
  5
12D
330
1E
100
AcDbEntity
  8
0
100
AcDbLine
 10
9.279887247378979
 20
40.6834803200372
 30
0.0
 11
10.3046505674553
 21
40.2056282217618
 31
0.0
  0
LINE
  5
12F
330
1E
100
AcDbEntity
  8
0
100
AcDbLine
 10
9.60090181178247
 20
40.5337896742344
 30
0.0
 11
9.92255079232115
 21
40.38380319711589
 31
0.0
  0
LINE
  5
130
330
1E
100
AcDbEntity
  8
0
100
AcDbLine
 10
7.20362449867215
 20
41.6516516934687
 30
0.0
 11
7.611463442719499
 21
41.4614744190158
 31
0.0
  0
LINE
  5
131
330
1E
100
AcDbEntity
  8
0
100
AcDbLine
 10
7.20362449867215
 20
41.6516516934687
 30
0.0
 11
7.58652109970101
 21
42.47278106285399
 31
0.0
  0
LINE
  5
132
330
1E
100
AcDbEntity
  8
0
100
AcDbLine
 10
8.78730843384624
 20
40.91317220595979
 30
0.0
 11
9.60090181178247
 21
40.5337896742344
 31
0.0
  0
LINE
  5
133
330
1E
100
AcDbEntity
  8
0
100
AcDbLine
 10
8.639580105224649
 20
40.98205864092829
 30
0.0
 11
8.78730843384624
 21
40.91317220595979
 31
0.0
  0
LINE
  5
134
330
1E
100
AcDbEntity
  8
0
100
AcDbLine
 10
8.639580105224649
 20
40.98205864092829
 30
0.0
 11
9.279887247378979
 21
40.6834803200372
 31
0.0
  0
LINE
  5
137
330
1E
100
AcDbEntity
  8
0
100
AcDbLine
 10
7.611463442719499
 20
41.4614744190158
 30
0.0
 11
8.639580105224649
 21
40.98205864092829
 31
0.0
  0
LINE
  5
139
330
1E
100
AcDbEntity
  8
0
100
AcDbLine
 10
11.3421065987767
 20
40.8252341796695
 30
0.0
 11
18.4113149622641
 21
37.5288280891522
 31
0.0
  0
LINE
  5
13A
330
1E
100
AcDbEntity
  8
0
100
AcDbLine
 10
6.99182452893833
 20
42.8537917738341
 30
0.0
 11
11.3421065987767
 21
40.8252341796695
 31
0.0
  0
LINE
  5
13B
330
1E
100
AcDbEntity
  8
0
100
AcDbLine
 10
11.5655482006538
 20
40.4000424039076
 30
0.0
 11
12.9983988199224
 21
39.65777329280589
 31
0.0
  0
LINE
  5
13C
330
1E
100
AcDbEntity
  8
0
100
AcDbLine
 10
11.5655482006538
 20
40.4000424039076
 30
0.0
 11
12.9983988199224
 21
39.65777329280589
 31
0.0
  0
LINE
  5
13D
330
1E
100
AcDbEntity
  8
0
100
AcDbLine
 10
36.7967211574781
 20
26.528195350669
 30
0.0
 11
36.9235060071134
 21
26.80008798003389
 31
0.0
  0
LINE
  5
13E
330
1E
100
AcDbEntity
  8
0
100
AcDbLine
 10
37.05945232179579
 20
26.7366955552162
 30
0.0
 11
37.356603745096
 21
27.3739426871333
 31
0.0
  0
LINE
  5
13F
330
1E
100
AcDbEntity
  8
0
100
AcDbLine
 10
36.9235060071134
 20
26.80008798003389
 30
0.0
 11
37.05945232179579
 21
26.7366955552162
 31
0.0
  0
LINE
  5
140
330
1E
100
AcDbEntity
  8
0
100
AcDbLine
 10
36.1765340698967
 20
26.8173915926871
 30
0.0
 11
36.7967211574781
 21
26.528195350669
 31
0.0
  0
LINE
  5
142
330
1E
100
AcDbEntity
  8
0
100
AcDbLine
 10
36.80378261931629
 20
26.85591557548999
 30
0.0
 11
37.05945232179579
 21
26.7366955552162
 31
0.0
  0
LINE
  5
144
330
1E
100
AcDbEntity
  8
0
100
AcDbLine
 10
36.80378261931629
 20
26.85591557548999
 30
0.0
 11
37.05945232179579
 21
26.7366955552162
 31
0.0
  0
LINE
  5
145
330
1E
100
AcDbEntity
  8
0
100
AcDbLine
 10
36.9235060071134
 20
26.80008798003389
 30
0.0
 11
37.05945232179579
 21
26.7366955552162
 31
0.0
  0
LINE
  5
146
330
1E
100
AcDbEntity
  8
0
100
AcDbLine
 10
38.4394654379999
 20
27.0862278128186
 30
0.0
 11
39.4642287580762
 21
26.6083757145432
 31
0.0
  0
LINE
  5
148
330
1E
100
AcDbEntity
  8
0
100
AcDbLine
 10
37.3536600283605
 20
27.0408557685873
 30
0.0
 11
39.5288010632797
 21
26.0265769715051
 31
0.0
  0
LINE
  5
149
330
1E
100
AcDbEntity
  8
0
100
AcDbLine
 10
35.14841740739159
 20
27.2968073707746
 30
0.0
 11
36.1765340698967
 21
26.8173915926871
 31
0.0
  0
LINE
  5
14B
330
1E
100
AcDbEntity
  8
0
100
AcDbLine
 10
36.38780677797989
 20
27.4912378161084
 30
0.0
 11
36.4723300110701
 21
27.6724995690183
 31
0.0
  0
LINE
  5
14C
330
1E
100
AcDbEntity
  8
0
100
AcDbLine
 10
36.2651832021363
 20
27.5484177832939
 30
0.0
 11
36.38780677797989
 21
27.4912378161084
 31
0.0
  0
LINE
  5
14E
330
1E
100
AcDbEntity
  8
0
100
AcDbLine
 10
35.5495419200561
 20
27.4407740868575
 30
0.0
 11
36.5528257224125
 21
26.9729379917033
 31
0.0
  0
LINE
  5
14F
330
1E
100
AcDbEntity
  8
0
100
AcDbLine
 10
35.9008271971955
 20
27.2769680611287
 30
0.0
 11
36.80378261931629
 21
26.85591557548999
 31
0.0
  0
LINE
  5
151
330
1E
100
AcDbEntity
  8
0
100
AcDbLine
 10
37.4782343623186
 20
27.5344545178958
 30
0.0
 11
37.6258720600637
 21
27.4656103445439
 31
0.0
  0
LINE
  5
152
330
1E
100
AcDbEntity
  8
0
100
AcDbLine
 10
37.4782343623186
 20
27.5344545178958
 30
0.0
 11
38.11845087359639
 21
27.2359184586213
 31
0.0
  0
LINE
  5
153
330
1E
100
AcDbEntity
  8
0
100
AcDbLine
 10
37.4782343623186
 20
27.5344545178958
 30
0.0
 11
37.9008505277695
 21
28.4407632824455
 31
0.0
  0
LINE
  5
154
330
1E
100
AcDbEntity
  8
0
100
AcDbLine
 10
37.6258720600637
 20
27.4656103445439
 30
0.0
 11
38.4394654379999
 21
27.0862278128186
 31
0.0
  0
LINE
  5
156
330
1E
100
AcDbEntity
  8
0
100
AcDbLine
 10
37.296617832428
 20
27.2881301665407
 30
0.0
 11
37.68656208103449
 21
28.1243733561988
 31
0.0
  0
LINE
  5
157
330
1E
100
AcDbEntity
  8
0
100
AcDbLine
 10
37.296617832428
 20
27.2881301665407
 30
0.0
 11
37.68656208103449
 21
28.1243733561988
 31
0.0
  0
LINE
  5
158
330
1E
100
AcDbEntity
  8
0
100
AcDbLine
 10
36.5557104174087
 20
27.6336188817968
 30
0.0
 11
37.296617832428
 21
27.2881301665407
 31
0.0
  0
LINE
  5
15A
330
1E
100
AcDbEntity
  8
0
100
AcDbLine
 10
34.19679320461439
 20
27.7405543444981
 30
0.0
 11
34.319416780458
 21
27.6833743773126
 31
0.0
  0
LINE
  5
15C
330
1E
100
AcDbEntity
  8
0
100
AcDbLine
 10
34.4081565435741
 20
28.4143583063029
 30
0.0
 11
35.4361825752028
 21
27.9349847898319
 31
0.0
  0
LINE
  5
15E
330
1E
100
AcDbEntity
  8
0
100
AcDbLine
 10
34.3909167954558
 20
27.98104659277
 30
0.0
 11
34.89763402571549
 21
27.7447618946664
 31
0.0
  0
LINE
  5
15F
330
1E
100
AcDbEntity
  8
0
100
AcDbLine
 10
34.3909167954558
 20
27.98104659277
 30
0.0
 11
34.64667712881169
 21
27.8617843108797
 31
0.0
  0
LINE
  5
160
330
1E
100
AcDbEntity
  8
0
100
AcDbLine
 10
34.3909167954558
 20
27.98104659277
 30
0.0
 11
34.5599632616361
 21
28.34357009858989
 31
0.0
  0
LINE
  5
161
330
1E
100
AcDbEntity
  8
0
100
AcDbLine
 10
35.4361825752028
 20
27.9349847898319
 30
0.0
 11
36.2651832021363
 21
27.5484177832939
 31
0.0
  0
LINE
  5
163
330
1E
100
AcDbEntity
  8
0
100
AcDbLine
 10
34.89763402571549
 20
27.7447618946664
 30
0.0
 11
35.9008271971955
 21
27.2769680611287
 31
0.0
  0
LINE
  5
165
330
1E
100
AcDbEntity
  8
0
100
AcDbLine
 10
34.78469246060219
 20
28.45945313070449
 30
0.0
 11
35.12278539296289
 21
29.1845001423443
 31
0.0
  0
LINE
  5
166
330
1E
100
AcDbEntity
  8
0
100
AcDbLine
 10
34.7972901524294
 20
28.4535787660048
 30
0.0
 11
35.5204339156636
 21
28.1163733275915
 31
0.0
  0
LINE
  5
168
330
1E
100
AcDbEntity
  8
0
100
AcDbLine
 10
35.5204339156636
 20
28.1163733275915
 30
0.0
 11
36.5557104174087
 21
27.6336188817968
 31
0.0
  0
LINE
  5
16A
330
1E
100
AcDbEntity
  8
0
100
AcDbLine
 10
34.319416780458
 20
27.6833743773126
 30
0.0
 11
35.14841740739159
 21
27.2968073707746
 31
0.0
  0
LINE
  5
16C
330
1E
100
AcDbEntity
  8
0
100
AcDbLine
 10
33.4325936543462
 20
28.0969042952063
 30
0.0
 11
34.319416780458
 21
27.6833743773126
 31
0.0
  0
LINE
  5
16E
330
1E
100
AcDbEntity
  8
0
100
AcDbLine
 10
31.5344128313481
 20
29.3130482230383
 30
0.0
 11
32.19991535715689
 21
29.0027211727477
 31
0.0
  0
LINE
  5
16F
330
1E
100
AcDbEntity
  8
0
100
AcDbLine
 10
31.5344128313481
 20
29.3130482230383
 30
0.0
 11
32.5376966337046
 21
28.8452121278841
 31
0.0
  0
LINE
  5
171
330
1E
100
AcDbEntity
  8
0
100
AcDbLine
 10
33.04432323308789
 20
28.608969691397
 30
0.0
 11
33.4033642944755
 21
29.3789403819918
 31
0.0
  0
LINE
  5
172
330
1E
100
AcDbEntity
  8
0
100
AcDbLine
 10
33.9105930318363
 20
28.6463745811355
 30
0.0
 11
34.4081565435741
 21
28.4143583063029
 31
0.0
  0
LINE
  5
173
330
1E
100
AcDbEntity
  8
0
100
AcDbLine
 10
32.5376966337046
 20
28.8452121278841
 30
0.0
 11
33.04432323308789
 21
28.608969691397
 31
0.0
  0
LINE
  5
175
330
1E
100
AcDbEntity
  8
0
100
AcDbLine
 10
32.7886535306084
 20
28.72818971167069
 30
0.0
 11
33.04432323308789
 21
28.608969691397
 31
0.0
  0
LINE
  5
176
330
1E
100
AcDbEntity
  8
0
100
AcDbLine
 10
33.7879694559927
 20
28.70355454832099
 30
0.0
 11
34.4081565435741
 21
28.4143583063029
 31
0.0
  0
LINE
  5
177
330
1E
100
AcDbEntity
  8
0
100
AcDbLine
 10
33.7879694559927
 20
28.70355454832099
 30
0.0
 11
33.9105930318363
 21
28.6463745811355
 31
0.0
  0
LINE
  5
178
330
1E
100
AcDbEntity
  8
0
100
AcDbLine
 10
33.7879694559927
 20
28.70355454832099
 30
0.0
 11
34.1537573174344
 21
29.4879938856963
 31
0.0
  0
LINE
  5
179
330
1E
100
AcDbEntity
  8
0
100
AcDbLine
 10
32.0731305075217
 20
28.7308285433828
 30
0.0
 11
32.480969451569
 21
28.54065126892979
 31
0.0
  0
LINE
  5
17A
330
1E
100
AcDbEntity
  8
0
100
AcDbLine
 10
32.0731305075217
 20
28.7308285433828
 30
0.0
 11
32.19991535715689
 21
29.0027211727477
 31
0.0
  0
LINE
  5
17B
330
1E
100
AcDbEntity
  8
0
100
AcDbLine
 10
32.480969451569
 20
28.54065126892979
 30
0.0
 11
33.4325936543462
 21
28.0969042952063
 31
0.0
  0
LINE
  5
17D
330
1E
100
AcDbEntity
  8
0
100
AcDbLine
 10
38.35010778235679
 20
28.2312724492315
 30
0.0
 11
49.7695982156826
 21
22.9063087645496
 31
0.0
  0
LINE
  5
17E
330
1E
100
AcDbEntity
  8
0
100
AcDbLine
 10
37.2284987879762
 20
27.0992190610361
 30
0.0
 11
37.3536600283605
 21
27.0408557685873
 31
0.0
  0
LINE
  5
17F
330
1E
100
AcDbEntity
  8
0
100
AcDbLine
 10
40.1044452693541
 20
26.3098396552686
 30
0.0
 11
40.4867787352252
 21
27.12976137011799
 31
0.0
  0
LINE
  5
180
330
1E
100
AcDbEntity
  8
0
100
AcDbLine
 10
39.95680757160899
 20
26.3786838286206
 30
0.0
 11
40.1044452693541
 21
26.3098396552686
 31
0.0
  0
LINE
  5
181
330
1E
100
AcDbEntity
  8
0
100
AcDbLine
 10
39.1432141936727
 20
26.7580663603459
 30
0.0
 11
39.95680757160899
 21
26.3786838286206
 31
0.0
  0
LINE
  5
182
330
1E
100
AcDbEntity
  8
0
100
AcDbLine
 10
39.4642287580762
 20
26.6083757145432
 30
0.0
 11
40.1044452693541
 21
26.3098396552686
 31
0.0
  0
LINE
  5
184
330
1E
100
AcDbEntity
  8
0
100
AcDbLine
 10
38.5614158650822
 20
28.6844268315063
 30
0.0
 11
49.980906298408
 21
23.35946314682439
 31
0.0
  0
LINE
  5
185
330
1E
100
AcDbEntity
  8
0
100
AcDbLine
 10
16.88183164919389
 20
36.80764381655629
 30
0.0
 11
17.91701752006249
 21
36.3249316323782
 31
0.0
  0
LINE
  5
187
330
1E
100
AcDbEntity
  8
0
100
AcDbLine
 10
15.894408250217
 20
37.2680841288151
 30
0.0
 11
16.1460901941325
 21
37.1507236196694
 31
0.0
  0
LINE
  5
188
330
1E
100
AcDbEntity
  8
0
100
AcDbLine
 10
16.1460901941325
 20
37.1507236196694
 30
0.0
 11
16.88699760915179
 21
36.8052349044132
 31
0.0
  0
LINE
  5
18A
330
1E
100
AcDbEntity
  8
0
100
AcDbLine
 10
17.92227411089689
 20
36.3224804586186
 30
0.0
 11
18.6454178741311
 21
35.9852750202053
 31
0.0
  0
LINE
  5
18C
330
1E
100
AcDbEntity
  8
0
100
AcDbLine
 10
16.88699760915179
 20
36.8052349044132
 30
0.0
 11
17.92227411089689
 21
36.3224804586186
 31
0.0
  0
LINE
  5
18E
330
1E
100
AcDbEntity
  8
0
100
AcDbLine
 10
12.72712326422009
 20
39.07601747312799
 30
0.0
 11
12.84974684006369
 21
39.01883750594249
 31
0.0
  0
LINE
  5
18F
330
1E
100
AcDbEntity
  8
0
100
AcDbLine
 10
12.72712326422009
 20
39.07601747312799
 30
0.0
 11
13.10921500938299
 21
39.89542081311539
 31
0.0
  0
LINE
  5
190
330
1E
100
AcDbEntity
  8
0
100
AcDbLine
 10
12.84974684006369
 20
39.01883750594249
 30
0.0
 11
13.6787474669972
 21
38.6322704994045
 31
0.0
  0
LINE
  5
192
330
1E
100
AcDbEntity
  8
0
100
AcDbLine
 10
14.25580200391119
 20
38.0321741559504
 30
0.0
 11
15.252560383163
 21
37.56738089718739
 31
0.0
  0
LINE
  5
194
330
1E
100
AcDbEntity
  8
0
100
AcDbLine
 10
14.7068641295024
 20
38.15285472131689
 30
0.0
 11
15.3270512170837
 21
37.86365847929889
 31
0.0
  0
LINE
  5
196
330
1E
100
AcDbEntity
  8
0
100
AcDbLine
 10
15.252560383163
 20
37.56738089718739
 30
0.0
 11
16.14282748258009
 21
37.152245037865
 31
0.0
  0
LINE
  5
198
330
1E
100
AcDbEntity
  8
0
100
AcDbLine
 10
14.89764987096529
 20
37.732877387578
 30
0.0
 11
15.894408250217
 21
37.2680841288151
 31
0.0
  0
LINE
  5
199
330
1E
100
AcDbEntity
  8
0
100
AcDbLine
 10
15.3270512170837
 20
37.86365847929889
 30
0.0
 11
15.6866223845033
 21
38.634765992813
 31
0.0
  0
LINE
  5
19A
330
1E
100
AcDbEntity
  8
0
100
AcDbLine
 10
14.7068641295024
 20
38.15285472131689
 30
0.0
 11
15.20442764124019
 21
37.92083844648439
 31
0.0
  0
LINE
  5
19B
330
1E
100
AcDbEntity
  8
0
100
AcDbLine
 10
13.7272427324259
 20
38.2786439036414
 30
0.0
 11
13.8540275820611
 21
38.55053653300629
 31
0.0
  0
LINE
  5
19C
330
1E
100
AcDbEntity
  8
0
100
AcDbLine
 10
13.7272427324259
 20
38.2786439036414
 30
0.0
 11
14.25580200391119
 21
38.0321741559504
 31
0.0
  0
LINE
  5
19D
330
1E
100
AcDbEntity
  8
0
100
AcDbLine
 10
13.6787474669972
 20
38.6322704994045
 30
0.0
 11
13.8540275820611
 21
38.55053653300629
 31
0.0
  0
LINE
  5
19E
330
1E
100
AcDbEntity
  8
0
100
AcDbLine
 10
13.6787474669972
 20
38.6322704994045
 30
0.0
 11
14.7068641295024
 21
38.15285472131689
 31
0.0
  0
LINE
  5
1A0
330
1E
100
AcDbEntity
  8
0
100
AcDbLine
 10
18.4113149622641
 20
37.5288280891522
 30
0.0
 11
27.6556643606707
 21
33.2181432015526
 31
0.0
  0
LINE
  5
1A1
330
1E
100
AcDbEntity
  8
0
100
AcDbLine
 10
21.3245019567822
 20
34.5153297939858
 30
0.0
 11
22.3492652768585
 21
34.03747769571039
 31
0.0
  0
LINE
  5
1A3
330
1E
100
AcDbEntity
  8
0
100
AcDbLine
 10
21.721701713642
 20
34.55078896981519
 30
0.0
 11
22.72489488512199
 21
34.08299513627749
 31
0.0
  0
LINE
  5
1A5
330
1E
100
AcDbEntity
  8
0
100
AcDbLine
 10
23.31058698341629
 20
33.58920872901659
 30
0.0
 11
23.5990606821136
 21
34.20784630808899
 31
0.0
  0
LINE
  5
1A6
330
1E
100
AcDbEntity
  8
0
100
AcDbLine
 10
23.1629492856712
 20
33.6580529023686
 30
0.0
 11
23.31058698341629
 21
33.58920872901659
 31
0.0
  0
LINE
  5
1A8
330
1E
100
AcDbEntity
  8
0
100
AcDbLine
 10
22.72489488512199
 20
34.08299513627749
 30
0.0
 11
23.2316121153818
 21
33.8467104381739
 31
0.0
  0
LINE
  5
1AB
330
1E
100
AcDbEntity
  8
0
100
AcDbLine
 10
22.9758517820258
 20
33.9659727200641
 30
0.0
 11
23.2316121153818
 21
33.8467104381739
 31
0.0
  0
LINE
  5
1AC
330
1E
100
AcDbEntity
  8
0
100
AcDbLine
 10
23.1629492856712
 20
33.6580529023686
 30
0.0
 11
23.31058698341629
 21
33.58920872901659
 31
0.0
  0
LINE
  5
1AD
330
1E
100
AcDbEntity
  8
0
100
AcDbLine
 10
22.3492652768585
 20
34.03747769571039
 30
0.0
 11
23.1629492856712
 21
33.6580529023686
 31
0.0
  0
LINE
  5
1AF
330
1E
100
AcDbEntity
  8
0
100
AcDbLine
 10
23.5042651664006
 20
33.4988956544597
 30
0.0
 11
23.6268887422442
 21
33.4417156872742
 31
0.0
  0
LINE
  5
1B0
330
1E
100
AcDbEntity
  8
0
100
AcDbLine
 10
23.5042651664006
 20
33.4988956544597
 30
0.0
 11
23.8441620024991
 21
34.22781117351029
 31
0.0
  0
LINE
  5
1B1
330
1E
100
AcDbEntity
  8
0
100
AcDbLine
 10
20.6842854455043
 20
34.8138658532603
 30
0.0
 11
21.3245019567822
 21
34.5153297939858
 31
0.0
  0
LINE
  5
1B3
330
1E
100
AcDbEntity
  8
0
100
AcDbLine
 10
21.06970318842499
 20
34.8548190392406
 30
0.0
 11
22.07298699078149
 21
34.3869829440864
 31
0.0
  0
LINE
  5
1B4
330
1E
100
AcDbEntity
  8
0
100
AcDbLine
 10
20.5630765890417
 20
35.0910614757276
 30
0.0
 11
20.81874629152119
 21
34.97184145545389
 31
0.0
  0
LINE
  5
1B5
330
1E
100
AcDbEntity
  8
0
100
AcDbLine
 10
20.5630765890417
 20
35.0910614757276
 30
0.0
 11
21.06970318842499
 21
34.8548190392406
 31
0.0
  0
LINE
  5
1B6
330
1E
100
AcDbEntity
  8
0
100
AcDbLine
 10
20.5630765890417
 20
35.0910614757276
 30
0.0
 11
20.689861438677
 21
35.3629541050925
 31
0.0
  0
LINE
  5
1B7
330
1E
100
AcDbEntity
  8
0
100
AcDbLine
 10
20.81874629152119
 20
34.97184145545389
 30
0.0
 11
21.721701713642
 21
34.55078896981519
 31
0.0
  0
LINE
  5
1B9
330
1E
100
AcDbEntity
  8
0
100
AcDbLine
 10
21.854196308494
 20
34.8200191173377
 30
0.0
 11
22.2211797514985
 21
35.60702240313179
 31
0.0
  0
LINE
  5
1BA
330
1E
100
AcDbEntity
  8
0
100
AcDbLine
 10
21.46974013057199
 20
34.99929289472199
 30
0.0
 11
21.854196308494
 21
34.8200191173377
 31
0.0
  0
LINE
  5
1BC
330
1E
100
AcDbEntity
  8
0
100
AcDbLine
 10
21.0401022664665
 20
34.6479467467043
 30
0.0
 11
21.99172646924369
 21
34.2041997729808
 31
0.0
  0
LINE
  5
1BD
330
1E
100
AcDbEntity
  8
0
100
AcDbLine
 10
20.08847806368939
 20
35.0916937204278
 30
0.0
 11
21.0401022664665
 21
34.6479467467043
 31
0.0
  0
LINE
  5
1BF
330
1E
100
AcDbEntity
  8
0
100
AcDbLine
 10
18.6580155659583
 20
35.9794006555055
 30
0.0
 11
18.9961084983191
 21
36.70444766714529
 31
0.0
  0
LINE
  5
1C1
330
1E
100
AcDbEntity
  8
0
100
AcDbLine
 10
19.5470967174563
 20
35.8958308281096
 30
0.0
 11
20.50841842401419
 21
35.44756186141579
 31
0.0
  0
LINE
  5
1C3
330
1E
100
AcDbEntity
  8
0
100
AcDbLine
 10
20.50841842401419
 20
35.44756186141579
 30
0.0
 11
21.46974013057199
 21
34.99929289472199
 31
0.0
  0
LINE
  5
1C5
330
1E
100
AcDbEntity
  8
0
100
AcDbLine
 10
19.1626405395344
 20
36.0751046054939
 30
0.0
 11
19.3029625533421
 21
36.37602795242149
 31
0.0
  0
LINE
  5
1C6
330
1E
100
AcDbEntity
  8
0
100
AcDbLine
 10
19.1626405395344
 20
36.0751046054939
 30
0.0
 11
19.5470967174563
 21
35.8958308281096
 31
0.0
  0
LINE
  5
1C8
330
1E
100
AcDbEntity
  8
0
100
AcDbLine
 10
19.680639119642
 20
35.2818709948807
 30
0.0
 11
20.08847806368939
 21
35.0916937204278
 31
0.0
  0
LINE
  5
1C9
330
1E
100
AcDbEntity
  8
0
100
AcDbLine
 10
19.680639119642
 20
35.2818709948807
 30
0.0
 11
19.8919472023675
 21
35.7350253771556
 31
0.0
  0
LINE
  5
1CA
330
1E
100
AcDbEntity
  8
0
100
AcDbLine
 10
24.4558893691777
 20
33.05514868073619
 30
0.0
 11
25.4839154008064
 21
32.57577516426519
 31
0.0
  0
LINE
  5
1CC
330
1E
100
AcDbEntity
  8
0
100
AcDbLine
 10
23.6268887422442
 20
33.4417156872742
 30
0.0
 11
24.4558893691777
 21
33.05514868073619
 31
0.0
  0
LINE
  5
1CE
330
1E
100
AcDbEntity
  8
0
100
AcDbLine
 10
24.1244522539819
 20
33.20969941244169
 30
0.0
 11
25.1524782856106
 21
32.7303258959706
 31
0.0
  0
LINE
  5
1CF
330
1E
100
AcDbEntity
  8
0
100
AcDbLine
 10
23.56981973930389
 20
34.1451385251914
 30
0.0
 11
23.75939278253559
 21
34.04602189686249
 31
0.0
  0
LINE
  5
1D0
330
1E
100
AcDbEntity
  8
0
100
AcDbLine
 10
23.56981973930389
 20
34.1451385251914
 30
0.0
 11
23.75939278253559
 21
34.04602189686249
 31
0.0
  0
LINE
  5
1D1
330
1E
100
AcDbEntity
  8
0
100
AcDbLine
 10
18.9331310057366
 20
36.56939118288621
 30
0.0
 11
19.3029625533421
 21
36.37602795242149
 31
0.0
  0
LINE
  5
1D2
330
1E
100
AcDbEntity
  8
0
100
AcDbLine
 10
18.6226230449896
 20
37.981982471427
 30
0.0
 11
27.8669724433962
 21
33.6712975838274
 31
0.0
  0
LINE
  5
1D3
330
1E
100
AcDbEntity
  8
0
100
AcDbLine
 10
14.6152494790307
 20
41.50570526314229
 30
0.0
 11
15.4500504820574
 21
41.1164335131455
 31
0.0
  0
LINE
  5
1D4
330
1E
100
AcDbEntity
  8
0
100
AcDbLine
 10
15.4500504820574
 20
41.1164335131455
 30
0.0
 11
25.87260127437859
 21
36.2563476104596
 31
0.0
  0
LINE
  5
1D5
330
1E
100
AcDbEntity
  8
0
100
AcDbLine
 10
15.999943384152
 20
40.6393404444199
 30
0.0
 11
26.15060154710819
 21
35.90603939136929
 31
0.0
  0
LINE
  5
1D6
330
1E
100
AcDbEntity
  8
0
100
AcDbLine
 10
15.281004015877
 20
40.7539100073256
 30
0.0
 11
25.7035548081982
 21
35.89382410463979
 31
0.0
  0
LINE
  5
1D7
330
1E
100
AcDbEntity
  8
0
100
AcDbLine
 10
14.81612623388099
 20
39.756970366321
 30
0.0
 11
25.23867702620219
 21
34.8968844636351
 31
0.0
  0
LINE
  5
1D8
330
1E
100
AcDbEntity
  8
0
100
AcDbLine
 10
26.053510577734
 20
31.8688194836029
 30
0.0
 11
26.4230969425498
 21
32.6614047869434
 31
0.0
  0
LINE
  5
1D9
330
1E
100
AcDbEntity
  8
0
100
AcDbLine
 10
26.053510577734
 20
31.8688194836029
 30
0.0
 11
26.58206984921939
 21
31.6223497359119
 31
0.0
  0
LINE
  5
1DA
330
1E
100
AcDbEntity
  8
0
100
AcDbLine
 10
26.053510577734
 20
31.8688194836029
 30
0.0
 11
26.4355113172272
 21
32.6880276601233
 31
0.0
  0
LINE
  5
1DB
330
1E
100
AcDbEntity
  8
0
100
AcDbLine
 10
26.1041024883878
 20
32.2865789222472
 30
0.0
 11
26.3041247985131
 21
32.7155307409232
 31
0.0
  0
LINE
  5
1DC
330
1E
100
AcDbEntity
  8
0
100
AcDbLine
 10
26.1041024883878
 20
32.2865789222472
 30
0.0
 11
26.3966259440299
 21
32.91390128555989
 31
0.0
  0
LINE
  5
1DD
330
1E
100
AcDbEntity
  8
0
100
AcDbLine
 10
25.9815695434206
 20
32.3437166278161
 30
0.0
 11
26.1041024883878
 21
32.2865789222472
 31
0.0
  0
LINE
  5
1DE
330
1E
100
AcDbEntity
  8
0
100
AcDbLine
 10
25.4839154008064
 20
32.57577516426519
 30
0.0
 11
26.1041024883878
 21
32.2865789222472
 31
0.0
  0
LINE
  5
1E0
330
1E
100
AcDbEntity
  8
0
100
AcDbLine
 10
30.1269153200025
 20
29.9693711279836
 30
0.0
 11
30.2959617861829
 21
30.3318946338035
 31
0.0
  0
LINE
  5
1E1
330
1E
100
AcDbEntity
  8
0
100
AcDbLine
 10
30.1143176281753
 20
29.97524549268339
 30
0.0
 11
30.2833640943556
 21
30.3377689985032
 31
0.0
  0
LINE
  5
1E2
330
1E
100
AcDbEntity
  8
0
100
AcDbLine
 10
30.6315480401038
 20
29.7340584470605
 30
0.0
 11
31.5344128313481
 21
29.3130482230383
 31
0.0
  0
LINE
  5
1E4
330
1E
100
AcDbEntity
  8
0
100
AcDbLine
 10
30.61489184042789
 20
30.1831760051813
 30
0.0
 11
30.9088009343297
 21
30.8134698972757
 31
0.0
  0
LINE
  5
1E5
330
1E
100
AcDbEntity
  8
0
100
AcDbLine
 10
30.3757877067478
 20
29.8533207289508
 30
0.0
 11
30.6315480401038
 21
29.7340584470605
 31
0.0
  0
LINE
  5
1E6
330
1E
100
AcDbEntity
  8
0
100
AcDbLine
 10
30.3757877067478
 20
29.8533207289508
 30
0.0
 11
30.5448341729282
 21
30.2158442347706
 31
0.0
  0
LINE
  5
1E7
330
1E
100
AcDbEntity
  8
0
100
AcDbLine
 10
30.23043566250589
 20
30.3624497825656
 30
0.0
 11
30.61489184042789
 21
30.1831760051813
 31
0.0
  0
LINE
  5
1E9
330
1E
100
AcDbEntity
  8
0
100
AcDbLine
 10
30.2959617861829
 20
30.3318946338035
 30
0.0
 11
30.5448341729282
 21
30.2158442347706
 31
0.0
  0
LINE
  5
1EA
330
1E
100
AcDbEntity
  8
0
100
AcDbLine
 10
29.3911738649411
 20
30.31245093109669
 30
0.0
 11
30.1143176281753
 21
29.97524549268339
 31
0.0
  0
LINE
  5
1EC
330
1E
100
AcDbEntity
  8
0
100
AcDbLine
 10
29.3859172741067
 20
30.3149021048563
 30
0.0
 11
30.1269153200025
 21
29.9693711279836
 31
0.0
  0
LINE
  5
1ED
330
1E
100
AcDbEntity
  8
0
100
AcDbLine
 10
28.355897363196
 20
30.7952053768913
 30
0.0
 11
29.3911738649411
 21
30.31245093109669
 31
0.0
  0
LINE
  5
1EE
330
1E
100
AcDbEntity
  8
0
100
AcDbLine
 10
28.355897363196
 20
30.7952053768913
 30
0.0
 11
29.3859172741067
 21
30.3149021048563
 31
0.0
  0
LINE
  5
1F0
330
1E
100
AcDbEntity
  8
0
100
AcDbLine
 10
26.58206984921939
 20
31.6223497359119
 30
0.0
 11
27.5787375975947
 21
31.1575987387655
 31
0.0
  0
LINE
  5
1F1
330
1E
100
AcDbEntity
  8
0
100
AcDbLine
 10
26.58206984921939
 20
31.6223497359119
 30
0.0
 11
27.223827085397
 21
31.32309522915599
 31
0.0
  0
LINE
  5
1F3
330
1E
100
AcDbEntity
  8
0
100
AcDbLine
 10
27.1760491204548
 20
32.0074003628983
 30
0.0
 11
27.4270060173586
 21
31.8903779466849
 31
0.0
  0
LINE
  5
1F4
330
1E
100
AcDbEntity
  8
0
100
AcDbLine
 10
26.92028878709889
 20
32.12666264478849
 30
0.0
 11
27.4270060173586
 21
31.8903779466849
 31
0.0
  0
LINE
  5
1F5
330
1E
100
AcDbEntity
  8
0
100
AcDbLine
 10
26.92028878709889
 20
32.12666264478849
 30
0.0
 11
27.3393205413688
 21
33.0252845683352
 31
0.0
  0
LINE
  5
1F6
330
1E
100
AcDbEntity
  8
0
100
AcDbLine
 10
27.4270060173586
 20
31.8903779466849
 30
0.0
 11
28.4302898197151
 21
31.4225418515307
 31
0.0
  0
LINE
  5
1F8
330
1E
100
AcDbEntity
  8
0
100
AcDbLine
 10
27.9233360714683
 20
31.43826149333749
 30
0.0
 11
28.3077922493903
 21
31.25898771595319
 31
0.0
  0
LINE
  5
1F9
330
1E
100
AcDbEntity
  8
0
100
AcDbLine
 10
27.9233360714683
 20
31.43826149333749
 30
0.0
 11
28.0078593045585
 21
31.61952324624739
 31
0.0
  0
LINE
  5
1FA
330
1E
100
AcDbEntity
  8
0
100
AcDbLine
 10
27.7777397627141
 20
32.05784212156689
 30
0.0
 11
28.6067403896477
 21
31.6712751150289
 31
0.0
  0
LINE
  5
1FB
330
1E
100
AcDbEntity
  8
0
100
AcDbLine
 10
27.6551161868705
 20
32.1150220887524
 30
0.0
 11
28.2753032744519
 21
31.8258258467343
 31
0.0
  0
LINE
  5
1FC
330
1E
100
AcDbEntity
  8
0
100
AcDbLine
 10
27.6551161868705
 20
32.1150220887524
 30
0.0
 11
27.7777397627141
 21
32.05784212156689
 31
0.0
  0
LINE
  5
1FD
330
1E
100
AcDbEntity
  8
0
100
AcDbLine
 10
27.6551161868705
 20
32.1150220887524
 30
0.0
 11
28.0613313233006
 21
32.9861585206645
 31
0.0
  0
LINE
  5
1FE
330
1E
100
AcDbEntity
  8
0
100
AcDbLine
 10
28.3077922493903
 20
31.25898771595319
 30
0.0
 11
29.2691139559481
 21
30.8107187492594
 31
0.0
  0
LINE
  5
200
330
1E
100
AcDbEntity
  8
0
100
AcDbLine
 10
28.4302898197151
 20
31.4225418515307
 30
0.0
 11
29.3331546109595
 21
31.0015316275085
 31
0.0
  0
LINE
  5
202
330
1E
100
AcDbEntity
  8
0
100
AcDbLine
 10
28.2753032744519
 20
31.8258258467343
 30
0.0
 11
29.3033293060806
 21
31.3464523302633
 31
0.0
  0
LINE
  5
204
330
1E
100
AcDbEntity
  8
0
100
AcDbLine
 10
27.5787375975947
 20
31.1575987387655
 30
0.0
 11
28.4690046970118
 21
30.742462879443
 31
0.0
  0
LINE
  5
206
330
1E
100
AcDbEntity
  8
0
100
AcDbLine
 10
27.223827085397
 20
31.32309522915599
 30
0.0
 11
28.22058546464869
 21
30.8583019703931
 31
0.0
  0
LINE
  5
207
330
1E
100
AcDbEntity
  8
0
100
AcDbLine
 10
27.6149899481766
 20
31.1406940921474
 30
0.0
 11
28.355897363196
 21
30.7952053768913
 31
0.0
  0
LINE
  5
209
330
1E
100
AcDbEntity
  8
0
100
AcDbLine
 10
29.2691139559481
 20
30.8107187492594
 30
0.0
 11
30.23043566250589
 21
30.3624497825656
 31
0.0
  0
LINE
  5
20B
330
1E
100
AcDbEntity
  8
0
100
AcDbLine
 10
28.6067403896477
 20
31.6712751150289
 30
0.0
 11
29.3033293060806
 21
31.3464523302633
 31
0.0
  0
LINE
  5
20C
330
1E
100
AcDbEntity
  8
0
100
AcDbLine
 10
29.5889149443154
 20
30.8822693456182
 30
0.0
 11
29.7156997939507
 21
31.1541619749831
 31
0.0
  0
LINE
  5
20D
330
1E
100
AcDbEntity
  8
0
100
AcDbLine
 10
30.2549535088577
 20
30.9027053565398
 30
0.0
 11
30.63028346355489
 21
31.707607902511
 31
0.0
  0
LINE
  5
20E
330
1E
100
AcDbEntity
  8
0
100
AcDbLine
 10
29.3331546109595
 20
31.0015316275085
 30
0.0
 11
29.5889149443154
 21
30.8822693456182
 31
0.0
  0
LINE
  5
210
330
1E
100
AcDbEntity
  8
0
100
AcDbLine
 10
30.1323299330142
 20
30.9598853237253
 30
0.0
 11
30.2549535088577
 21
30.9027053565398
 31
0.0
  0
LINE
  5
212
330
1E
100
AcDbEntity
  8
0
100
AcDbLine
 10
29.3033293060806
 20
31.3464523302633
 30
0.0
 11
30.1323299330142
 21
30.9598853237253
 31
0.0
  0
LINE
  5
214
330
1E
100
AcDbEntity
  8
0
100
AcDbLine
 10
28.7491447361341
 20
30.6118322227021
 30
0.0
 11
29.3859172741067
 21
30.3149021048563
 31
0.0
  0
LINE
  5
215
330
1E
100
AcDbEntity
  8
0
100
AcDbLine
 10
26.3041247985131
 20
32.7155307409232
 30
0.0
 11
26.4200686298205
 21
32.6549105101203
 31
0.0
  0
LINE
  5
216
330
1E
100
AcDbEntity
  8
0
100
AcDbLine
 10
27.6556643606707
 20
33.2181432015526
 30
0.0
 11
38.35010778235679
 21
28.2312724492315
 31
0.0
  0
LINE
  5
217
330
1E
100
AcDbEntity
  8
0
100
AcDbLine
 10
26.3041247985131
 20
32.7155307409232
 30
0.0
 11
26.4200686298205
 21
32.6549105101203
 31
0.0
  0
LINE
  5
218
330
1E
100
AcDbEntity
  8
0
100
AcDbLine
 10
37.8358769664342
 20
30.6778142265072
 30
0.0
 11
50.61483054658439
 21
24.71892629364889
 31
0.0
  0
LINE
  5
219
330
1E
100
AcDbEntity
  8
0
100
AcDbLine
 10
37.9326154862539
 20
30.4120292405071
 30
0.0
 11
50.5303073134943
 21
24.537664540739
 31
0.0
  0
LINE
  5
21A
330
1E
100
AcDbEntity
  8
0
100
AcDbLine
 10
37.66683050025379
 20
30.3152907206873
 30
0.0
 11
50.4457840804041
 21
24.356402787829
 31
0.0
  0
LINE
  5
21B
330
1E
100
AcDbEntity
  8
0
100
AcDbLine
 10
25.87260127437859
 20
36.2563476104596
 30
0.0
 11
37.8358769664342
 21
30.6778142265072
 31
0.0
  0
LINE
  5
21C
330
1E
100
AcDbEntity
  8
0
100
AcDbLine
 10
26.15060154710819
 20
35.90603939136929
 30
0.0
 11
37.9326154862539
 21
30.4120292405071
 31
0.0
  0
LINE
  5
21D
330
1E
100
AcDbEntity
  8
0
100
AcDbLine
 10
25.7035548081982
 20
35.89382410463979
 30
0.0
 11
37.66683050025379
 21
30.3152907206873
 31
0.0
  0
LINE
  5
21E
330
1E
100
AcDbEntity
  8
0
100
AcDbLine
 10
27.8669724433962
 20
33.6712975838274
 30
0.0
 11
38.5614158650822
 21
28.6844268315063
 31
0.0
  0
LINE
  5
21F
330
1E
100
AcDbEntity
  8
0
100
AcDbLine
 10
25.23867702620219
 20
34.8968844636351
 30
0.0
 11
37.2019527182577
 21
29.3183510796827
 31
0.0
  0
LINE
  5
220
330
1E
100
AcDbEntity
  8
0
100
AcDbLine
 10
37.2019527182577
 20
29.3183510796827
 30
0.0
 11
49.980906298408
 21
23.35946314682439
 31
0.0
  0
LINE
  5
221
330
1E
100
AcDbEntity
  8
0
100
AcDbLine
 10
11.8998058913131
 20
41.11686466350899
 30
0.0
 11
13.3610475123965
 21
40.4354806199525
 31
0.0
  0
LINE
  5
222
330
1E
100
AcDbEntity
  8
0
100
AcDbLine
 10
39.85193238612529
 20
56.7704476801227
 30
0.0
 11
46.014831985063
 21
53.8966577550563
 31
0.0
  0
LINE
  5
223
330
1E
100
AcDbEntity
  8
0
100
AcDbLine
 10
46.014831985063
 20
53.8966577550563
 30
0.0
 11
53.2653021014604
 21
50.51572843144871
 31
0.0
  0
LINE
  5
224
330
1E
100
AcDbEntity
  8
0
100
AcDbLine
 10
35.1391268104671
 20
58.96805174046761
 30
0.0
 11
39.85193238612529
 21
56.7704476801227
 31
0.0
  0
LINE
  5
225
330
1E
100
AcDbEntity
  8
0
100
AcDbLine
 10
7.47453335402035
 20
44.8354557691138
 30
0.0
 11
15.4500504820574
 21
41.1164335131455
 31
0.0
  0
LINE
  5
226
330
1E
100
AcDbEntity
  8
0
100
AcDbLine
 10
8.205688009024861
 20
44.273839467298
 30
0.0
 11
15.999943384152
 21
40.6393404444199
 31
0.0
  0
LINE
  5
227
330
1E
100
AcDbEntity
  8
0
100
AcDbLine
 10
7.305486887839969
 20
44.4729322632939
 30
0.0
 11
15.281004015877
 21
40.7539100073256
 31
0.0
  0
LINE
  5
228
330
1E
100
AcDbEntity
  8
0
100
AcDbLine
 10
32.1483078874532
 20
60.3626850864557
 30
0.0
 11
35.1391268104671
 21
58.96805174046761
 31
0.0
  0
LINE
  5
229
330
1E
100
AcDbEntity
  8
0
100
AcDbLine
 10
31.0607373699936
 20
60.86982448499679
 30
0.0
 11
32.1483078874532
 21
60.3626850864557
 31
0.0
  0
LINE
  5
22A
330
1E
100
AcDbEntity
  8
0
100
AcDbLine
 10
27.2241942290694
 20
62.10713476452579
 30
0.0
 11
31.0607373699936
 21
60.86982448499679
 31
0.0
  0
LINE
  5
22B
330
1E
100
AcDbEntity
  8
0
100
AcDbLine
 10
22.05872615814469
 20
62.860752444956
 30
0.0
 11
27.2241942290694
 21
62.10713476452579
 31
0.0
  0
LINE
  5
22C
330
1E
100
AcDbEntity
  8
0
100
AcDbLine
 10
16.25933383904349
 20
62.2549069785617
 30
0.0
 11
22.05872615814469
 21
62.860752444956
 31
0.0
  0
LINE
  5
22D
330
1E
100
AcDbEntity
  8
0
100
AcDbLine
 10
10.9436341190411
 20
60.3201365821668
 30
0.0
 11
16.25933383904349
 21
62.2549069785617
 31
0.0
  0
LINE
  5
22E
330
1E
100
AcDbEntity
  8
0
100
AcDbLine
 10
6.987397545863159
 20
57.7514419375955
 30
0.0
 11
10.9436341190411
 21
60.3201365821668
 31
0.0
  0
LINE
  5
22F
330
1E
100
AcDbEntity
  8
0
100
AcDbLine
 10
7.203132611663799
 20
43.30694615610889
 30
0.0
 11
7.83754874684857
 21
43.01111484029321
 31
0.0
  0
LINE
  5
230
330
1E
100
AcDbEntity
  8
0
100
AcDbLine
 10
7.203132611663799
 20
43.30694615610889
 30
0.0
 11
7.83754874684857
 21
43.01111484029321
 31
0.0
  0
LINE
  5
231
330
1E
100
AcDbEntity
  8
0
100
AcDbLine
 10
6.840609105843941
 20
43.47599262228929
 30
0.0
 11
7.203132611663799
 21
43.30694615610889
 31
0.0
  0
LINE
  5
232
330
1E
100
AcDbEntity
  8
0
100
AcDbLine
 10
44.02237932587629
 20
26.1379531265816
 30
0.0
 11
44.1377524316034
 21
26.08415408871969
 31
0.0
  0
LINE
  5
233
330
1E
100
AcDbEntity
  8
0
100
AcDbLine
 10
49.7914668544676
 20
20.4686825088168
 30
0.0
 11
50.199305798515
 21
20.27850523436389
 31
0.0
  0
LINE
  5
235
330
1E
100
AcDbEntity
  8
0
100
AcDbLine
 10
48.83984265169051
 20
20.9124294825403
 30
0.0
 11
49.7914668544676
 21
20.4686825088168
 31
0.0
  0
LINE
  5
237
330
1E
100
AcDbEntity
  8
0
100
AcDbLine
 10
49.3469820502316
 20
21.99999999999989
 30
0.0
 11
50.29860625300879
 21
21.55625302627639
 31
0.0
  0
LINE
  5
239
330
1E
100
AcDbEntity
  8
0
100
AcDbLine
 10
49.1356739675062
 20
21.5468456177251
 30
0.0
 11
50.0872981702833
 21
21.1030986440016
 31
0.0
  0
LINE
  5
23B
330
1E
100
AcDbEntity
  8
0
100
AcDbLine
 10
48.79758103514539
 20
20.82179860608539
 30
0.0
 11
49.957656253769
 21
20.2808499143081
 31
0.0
  0
LINE
  5
23C
330
1E
100
AcDbEntity
  8
0
100
AcDbLine
 10
49.957656253769
 20
20.2808499143081
 30
0.0
 11
51.0452267712286
 21
19.773710515767
 31
0.0
  0
LINE
  5
23D
330
1E
100
AcDbEntity
  8
0
100
AcDbLine
 10
49.7695982156826
 20
22.9063087645496
 30
0.0
 11
61.18908864900829
 21
17.5813450798677
 31
0.0
  0
LINE
  5
23E
330
1E
100
AcDbEntity
  8
0
100
AcDbLine
 10
67.6564560945844
 20
12.9105152302689
 30
0.0
 11
68.04091227250641
 21
12.7312414528846
 31
0.0
  0
LINE
  5
23F
330
1E
100
AcDbEntity
  8
0
100
AcDbLine
 10
67.6564560945844
 20
12.9105152302689
 30
0.0
 11
67.9503651884862
 21
13.5408091223633
 31
0.0
  0
LINE
  5
240
330
1E
100
AcDbEntity
  8
0
100
AcDbLine
 10
69.05919767918689
 20
12.8080984014419
 30
0.0
 11
70.0872237108155
 21
12.3287248849709
 31
0.0
  0
LINE
  5
241
330
1E
100
AcDbEntity
  8
0
100
AcDbLine
 10
68.5616341674491
 20
13.0401146762745
 30
0.0
 11
69.39063479438271
 21
12.6535476697365
 31
0.0
  0
LINE
  5
243
330
1E
100
AcDbEntity
  8
0
100
AcDbLine
 10
68.04091227250641
 20
12.7312414528846
 30
0.0
 11
69.0022339790642
 21
12.2829724861908
 31
0.0
  0
LINE
  5
245
330
1E
100
AcDbEntity
  8
0
100
AcDbLine
 10
68.4390105916055
 20
13.09729464346
 30
0.0
 11
69.05919767918689
 21
12.8080984014419
 31
0.0
  0
LINE
  5
246
330
1E
100
AcDbEntity
  8
0
100
AcDbLine
 10
68.4390105916055
 20
13.09729464346
 30
0.0
 11
68.5616341674491
 21
13.0401146762745
 31
0.0
  0
LINE
  5
247
330
1E
100
AcDbEntity
  8
0
100
AcDbLine
 10
68.4390105916055
 20
13.09729464346
 30
0.0
 11
68.8143405463027
 21
13.9021971894312
 31
0.0
  0
LINE
  5
248
330
1E
100
AcDbEntity
  8
0
100
AcDbLine
 10
66.3988421713034
 20
13.0555960007722
 30
0.0
 11
67.3017069625478
 21
12.6345857767499
 31
0.0
  0
LINE
  5
24A
330
1E
100
AcDbEntity
  8
0
100
AcDbLine
 10
65.60655479585929
 20
13.09403042169789
 30
0.0
 11
65.73333964549461
 21
13.3659230510628
 31
0.0
  0
LINE
  5
24B
330
1E
100
AcDbEntity
  8
0
100
AcDbLine
 10
58.54649240436859
 20
16.71718471985569
 30
0.0
 11
58.9099481358449
 21
17.49662275817889
 31
0.0
  0
LINE
  5
24C
330
1E
100
AcDbEntity
  8
0
100
AcDbLine
 10
57.8433858113562
 20
16.71403371010099
 30
0.0
 11
57.9701706609915
 21
16.98592633946589
 31
0.0
  0
LINE
  5
24D
330
1E
100
AcDbEntity
  8
0
100
AcDbLine
 10
57.80558498934929
 20
17.0626734351118
 30
0.0
 11
58.54649240436859
 21
16.71718471985569
 31
0.0
  0
LINE
  5
24E
330
1E
100
AcDbEntity
  8
0
100
AcDbLine
 10
57.8107509493072
 20
17.0602645229687
 30
0.0
 11
58.53389471254139
 21
16.72305908455539
 31
0.0
  0
LINE
  5
250
330
1E
100
AcDbEntity
  8
0
100
AcDbLine
 10
57.22319872377489
 20
17.0032299521191
 30
0.0
 11
57.8433858113562
 21
16.71403371010099
 31
0.0
  0
LINE
  5
252
330
1E
100
AcDbEntity
  8
0
100
AcDbLine
 10
56.8917616085791
 20
17.1577806838245
 30
0.0
 11
57.7207622355127
 21
16.7712136772865
 31
0.0
  0
LINE
  5
253
330
1E
100
AcDbEntity
  8
0
100
AcDbLine
 10
57.9701706609915
 20
16.98592633946589
 30
0.0
 11
58.53389471254139
 21
16.72305908455539
 31
0.0
  0
LINE
  5
254
330
1E
100
AcDbEntity
  8
0
100
AcDbLine
 10
58.53389471254139
 20
16.72305908455539
 30
0.0
 11
58.89694531541771
 21
17.5016283165458
 31
0.0
  0
LINE
  5
255
330
1E
100
AcDbEntity
  8
0
100
AcDbLine
 10
65.1446014720431
 20
13.6404545121397
 30
0.0
 11
66.047556894164
 21
13.2194020265009
 31
0.0
  0
LINE
  5
256
330
1E
100
AcDbEntity
  8
0
100
AcDbLine
 10
60.8829641459029
 20
15.2966636144117
 30
0.0
 11
61.5031512334842
 21
15.00746737239359
 31
0.0
  0
LINE
  5
257
330
1E
100
AcDbEntity
  8
0
100
AcDbLine
 10
60.8829641459029
 20
15.2966636144117
 30
0.0
 11
61.0097489955382
 21
15.5685562437766
 31
0.0
  0
LINE
  5
258
330
1E
100
AcDbEntity
  8
0
100
AcDbLine
 10
62.3837130825955
 20
14.9278701369529
 30
0.0
 11
63.035620976936
 21
14.6238823291441
 31
0.0
  0
LINE
  5
259
330
1E
100
AcDbEntity
  8
0
100
AcDbLine
 10
62.8351653598095
 20
15.1587064456183
 30
0.0
 11
63.86319139143821
 21
14.6793329291473
 31
0.0
  0
LINE
  5
25B
330
1E
100
AcDbEntity
  8
0
100
AcDbLine
 10
62.032427805456
 20
15.09167616268169
 30
0.0
 11
63.035620976936
 21
14.6238823291441
 31
0.0
  0
LINE
  5
25D
330
1E
100
AcDbEntity
  8
0
100
AcDbLine
 10
61.5031512334842
 20
15.00746737239359
 30
0.0
 11
62.5312678959894
 21
14.52805159430599
 31
0.0
  0
LINE
  5
25F
330
1E
100
AcDbEntity
  8
0
100
AcDbLine
 10
61.8835411570324
 20
15.6024534193418
 30
0.0
 11
62.00616473287599
 21
15.5452734521563
 31
0.0
  0
LINE
  5
260
330
1E
100
AcDbEntity
  8
0
100
AcDbLine
 10
61.8835411570324
 20
15.6024534193418
 30
0.0
 11
62.00616473287599
 21
15.5452734521562
 31
0.0
  0
LINE
  5
261
330
1E
100
AcDbEntity
  8
0
100
AcDbLine
 10
61.8835411570324
 20
15.6024534193418
 30
0.0
 11
61.9680643901226
 21
15.78371517225169
 31
0.0
  0
LINE
  5
262
330
1E
100
AcDbEntity
  8
0
100
AcDbLine
 10
62.00616473287599
 20
15.5452734521562
 30
0.0
 11
62.8351653598095
 21
15.1587064456183
 31
0.0
  0
LINE
  5
264
330
1E
100
AcDbEntity
  8
0
100
AcDbLine
 10
61.1294723833352
 20
15.5127286483205
 30
0.0
 11
62.032427805456
 21
15.09167616268169
 31
0.0
  0
LINE
  5
266
330
1E
100
AcDbEntity
  8
0
100
AcDbLine
 10
62.9147038946947
 20
15.34229258743819
 30
0.0
 11
63.65570194059049
 21
14.9967616105655
 31
0.0
  0
LINE
  5
267
330
1E
100
AcDbEntity
  8
0
100
AcDbLine
 10
63.035620976936
 20
14.6238823291441
 30
0.0
 11
63.5423382071958
 21
14.3875976310404
 31
0.0
  0
LINE
  5
269
330
1E
100
AcDbEntity
  8
0
100
AcDbLine
 10
62.9199604855291
 20
15.3398414136786
 30
0.0
 11
63.64310424876329
 21
15.0026359752653
 31
0.0
  0
LINE
  5
26B
330
1E
100
AcDbEntity
  8
0
100
AcDbLine
 10
61.8794273929496
 20
15.8250470332328
 30
0.0
 11
62.9147038946947
 21
15.34229258743819
 31
0.0
  0
LINE
  5
26C
330
1E
100
AcDbEntity
  8
0
100
AcDbLine
 10
61.884683983784
 20
15.8225958594732
 30
0.0
 11
62.9199604855291
 21
15.3398414136786
 31
0.0
  0
LINE
  5
26E
330
1E
100
AcDbEntity
  8
0
100
AcDbLine
 10
62.5312678959894
 20
14.52805159430599
 30
0.0
 11
63.360268522923
 21
14.141484587768
 31
0.0
  0
LINE
  5
270
330
1E
100
AcDbEntity
  8
0
100
AcDbLine
 10
60.87380268085571
 20
15.63194866859419
 30
0.0
 11
61.0097489955382
 21
15.5685562437766
 31
0.0
  0
LINE
  5
271
330
1E
100
AcDbEntity
  8
0
100
AcDbLine
 10
60.87380268085571
 20
15.63194866859419
 30
0.0
 11
61.0428491470361
 21
15.9944721744141
 31
0.0
  0
LINE
  5
272
330
1E
100
AcDbEntity
  8
0
100
AcDbLine
 10
60.87380268085571
 20
15.63194866859419
 30
0.0
 11
61.38042928023899
 21
15.3957062321071
 31
0.0
  0
LINE
  5
273
330
1E
100
AcDbEntity
  8
0
100
AcDbLine
 10
60.87380268085571
 20
15.63194866859419
 30
0.0
 11
61.1294723833352
 21
15.5127286483205
 31
0.0
  0
LINE
  5
274
330
1E
100
AcDbEntity
  8
0
100
AcDbLine
 10
60.87380268085571
 20
15.63194866859419
 30
0.0
 11
61.1709541041559
 21
16.2691958005112
 31
0.0
  0
LINE
  5
275
330
1E
100
AcDbEntity
  8
0
100
AcDbLine
 10
62.88762850221029
 20
14.3618789180507
 30
0.0
 11
63.2954674462577
 21
14.1717016435978
 31
0.0
  0
LINE
  5
276
330
1E
100
AcDbEntity
  8
0
100
AcDbLine
 10
63.4828920987665
 20
14.08430462058249
 30
0.0
 11
63.7787234145822
 21
14.7187207557673
 31
0.0
  0
LINE
  5
277
330
1E
100
AcDbEntity
  8
0
100
AcDbLine
 10
63.5423382071958
 20
14.3875976310404
 30
0.0
 11
63.7113846733761
 21
14.7501211368603
 31
0.0
  0
LINE
  5
278
330
1E
100
AcDbEntity
  8
0
100
AcDbLine
 10
63.360268522923
 20
14.141484587768
 30
0.0
 11
63.4828920987665
 21
14.08430462058249
 31
0.0
  0
LINE
  5
27A
330
1E
100
AcDbEntity
  8
0
100
AcDbLine
 10
64.8889317695637
 20
13.75967453241339
 30
0.0
 11
65.39555836894689
 21
13.52343209592639
 31
0.0
  0
LINE
  5
27B
330
1E
100
AcDbEntity
  8
0
100
AcDbLine
 10
64.8889317695637
 20
13.75967453241339
 30
0.0
 11
65.24797283095129
 21
14.5296452230082
 31
0.0
  0
LINE
  5
27C
330
1E
100
AcDbEntity
  8
0
100
AcDbLine
 10
64.4833784790196
 20
14.39013668712919
 30
0.0
 11
64.84916634046121
 21
15.17457602450449
 31
0.0
  0
LINE
  5
27D
330
1E
100
AcDbEntity
  8
0
100
AcDbLine
 10
64.360754903176
 20
14.44731665431469
 30
0.0
 11
64.4833784790196
 21
14.39013668712919
 31
0.0
  0
LINE
  5
27E
330
1E
100
AcDbEntity
  8
0
100
AcDbLine
 10
63.86319139143821
 20
14.6793329291473
 30
0.0
 11
64.4833784790196
 21
14.39013668712919
 31
0.0
  0
LINE
  5
280
330
1E
100
AcDbEntity
  8
0
100
AcDbLine
 10
63.65570194059049
 20
14.9967616105655
 30
0.0
 11
63.9937948729513
 21
15.7218086222052
 31
0.0
  0
LINE
  5
282
330
1E
100
AcDbEntity
  8
0
100
AcDbLine
 10
63.2954674462577
 20
14.1717016435978
 30
0.0
 11
64.2470916490348
 21
13.7279546698743
 31
0.0
  0
LINE
  5
283
330
1E
100
AcDbEntity
  8
0
100
AcDbLine
 10
64.2470916490348
 20
13.7279546698743
 30
0.0
 11
65.19871585181199
 21
13.2842076961508
 31
0.0
  0
LINE
  5
285
330
1E
100
AcDbEntity
  8
0
100
AcDbLine
 10
65.39555836894689
 20
13.52343209592639
 30
0.0
 11
66.3988421713034
 21
13.0555960007722
 31
0.0
  0
LINE
  5
287
330
1E
100
AcDbEntity
  8
0
100
AcDbLine
 10
65.73333964549461
 20
13.3659230510628
 30
0.0
 11
66.047556894164
 21
13.2194020265009
 31
0.0
  0
LINE
  5
288
330
1E
100
AcDbEntity
  8
0
100
AcDbLine
 10
65.19871585181199
 20
13.2842076961508
 30
0.0
 11
65.60655479585929
 21
13.09403042169789
 31
0.0
  0
LINE
  5
28A
330
1E
100
AcDbEntity
  8
0
100
AcDbLine
 10
61.1437765687647
 20
16.1680845747293
 30
0.0
 11
61.884683983784
 21
15.8225958594732
 31
0.0
  0
LINE
  5
28B
330
1E
100
AcDbEntity
  8
0
100
AcDbLine
 10
61.1437765687647
 20
16.1680845747293
 30
0.0
 11
61.5337208173711
 21
17.0043277643874
 31
0.0
  0
LINE
  5
28C
330
1E
100
AcDbEntity
  8
0
100
AcDbLine
 10
61.2157297381447
 20
16.465545482104
 30
0.0
 11
61.63834590359559
 21
17.3718542466537
 31
0.0
  0
LINE
  5
28D
330
1E
100
AcDbEntity
  8
0
100
AcDbLine
 10
60.5755132268668
 20
16.7640815413786
 30
0.0
 11
61.2157297381447
 21
16.465545482104
 31
0.0
  0
LINE
  5
28E
330
1E
100
AcDbEntity
  8
0
100
AcDbLine
 10
61.06809204039951
 20
16.534389655456
 30
0.0
 11
61.2157297381447
 21
16.465545482104
 31
0.0
  0
LINE
  5
290
330
1E
100
AcDbEntity
  8
0
100
AcDbLine
 10
60.25449866246329
 20
16.9137721871813
 30
0.0
 11
61.06809204039951
 21
16.534389655456
 31
0.0
  0
LINE
  5
292
330
1E
100
AcDbEntity
  8
0
100
AcDbLine
 10
59.229735342387
 20
17.3916242854567
 30
0.0
 11
60.25449866246329
 21
16.9137721871813
 31
0.0
  0
LINE
  5
294
330
1E
100
AcDbEntity
  8
0
100
AcDbLine
 10
58.7425468717326
 20
17.0671142639451
 30
0.0
 11
60.91768790665179
 21
16.0528354668628
 31
0.0
  0
LINE
  5
295
330
1E
100
AcDbEntity
  8
0
100
AcDbLine
 10
60.91768790665179
 20
16.0528354668628
 30
0.0
 11
61.0428491470361
 21
15.9944721744141
 31
0.0
  0
LINE
  5
296
330
1E
100
AcDbEntity
  8
0
100
AcDbLine
 10
74.9100130798803
 20
13.1692896901086
 30
0.0
 11
85.06067124283651
 21
8.43598863705808
 31
0.0
  0
LINE
  5
297
330
1E
100
AcDbEntity
  8
0
100
AcDbLine
 10
75.35705981879029
 20
13.1815049768382
 30
0.0
 11
85.7796106111115
 21
8.321419074152348
 31
0.0
  0
LINE
  5
298
330
1E
100
AcDbEntity
  8
0
100
AcDbLine
 10
75.18801335260992
 20
12.8189814710183
 30
0.0
 11
85.6105641449311
 21
7.958895568332489
 31
0.0
  0
LINE
  5
299
330
1E
100
AcDbEntity
  8
0
100
AcDbLine
 10
50.45795857339229
 20
20.4889072116557
 30
0.0
 11
50.9865178448776
 21
20.24243746396469
 31
0.0
  0
LINE
  5
29A
330
1E
100
AcDbEntity
  8
0
100
AcDbLine
 10
50.45795857339229
 20
20.4889072116557
 30
0.0
 11
50.7380986125145
 21
20.3582765549148
 31
0.0
  0
LINE
  5
29B
330
1E
100
AcDbEntity
  8
0
100
AcDbLine
 10
50.45795857339229
 20
20.4889072116557
 30
0.0
 11
50.7002066080199
 21
21.0084129355878
 31
0.0
  0
LINE
  5
29C
330
1E
100
AcDbEntity
  8
0
100
AcDbLine
 10
50.199305798515
 20
20.27850523436389
 30
0.0
 11
50.5618659825597
 21
21.05602275342489
 31
0.0
  0
LINE
  5
29D
330
1E
100
AcDbEntity
  8
0
100
AcDbLine
 10
50.199305798515
 20
20.27850523436389
 30
0.0
 11
50.4951371143306
 21
20.91292136954869
 31
0.0
  0
LINE
  5
29E
330
1E
100
AcDbEntity
  8
0
100
AcDbLine
 10
50.29860625300879
 20
21.55625302627639
 30
0.0
 11
50.7064451970561
 21
21.36607575182349
 31
0.0
  0
LINE
  5
2A1
330
1E
100
AcDbEntity
  8
0
100
AcDbLine
 10
50.0872981702833
 20
21.1030986440016
 30
0.0
 11
50.4951371143306
 21
20.91292136954869
 31
0.0
  0
LINE
  5
2A3
330
1E
100
AcDbEntity
  8
0
100
AcDbLine
 10
56.03456703254281
 20
17.88850768401949
 30
0.0
 11
56.77547444756219
 21
17.5430189687634
 31
0.0
  0
LINE
  5
2A4
330
1E
100
AcDbEntity
  8
0
100
AcDbLine
 10
56.03456703254281
 20
17.88850768401949
 30
0.0
 11
56.2036134987232
 21
18.25103118983939
 31
0.0
  0
LINE
  5
2A7
330
1E
100
AcDbEntity
  8
0
100
AcDbLine
 10
56.05552264659579
 20
18.32008667127399
 30
0.0
 11
57.08028596667211
 21
17.84223457299869
 31
0.0
  0
LINE
  5
2A8
330
1E
100
AcDbEntity
  8
0
100
AcDbLine
 10
55.73441745131579
 20
18.4698195786933
 30
0.0
 11
56.75918077139209
 21
17.99196748041789
 31
0.0
  0
LINE
  5
2AA
330
1E
100
AcDbEntity
  8
0
100
AcDbLine
 10
55.2435484893691
 20
17.9263504423136
 30
0.0
 11
55.3661720652126
 21
17.8691704751281
 31
0.0
  0
LINE
  5
2AB
330
1E
100
AcDbEntity
  8
0
100
AcDbLine
 10
55.2435484893691
 20
17.9263504423136
 30
0.0
 11
55.53937980518471
 21
18.5607665774984
 31
0.0
  0
LINE
  5
2AC
330
1E
100
AcDbEntity
  8
0
100
AcDbLine
 10
56.75918077139209
 20
17.99196748041789
 30
0.0
 11
57.5728647802048
 21
17.6125426870761
 31
0.0
  0
LINE
  5
2AE
330
1E
100
AcDbEntity
  8
0
100
AcDbLine
 10
57.72050247794989
 20
17.54369851372409
 30
0.0
 11
58.1410282027253
 21
18.44552428670629
 31
0.0
  0
LINE
  5
2AF
330
1E
100
AcDbEntity
  8
0
100
AcDbLine
 10
58.73715652885429
 20
17.62131617137919
 30
0.0
 11
59.229735342387
 21
17.3916242854567
 31
0.0
  0
LINE
  5
2B0
330
1E
100
AcDbEntity
  8
0
100
AcDbLine
 10
58.5895188311091
 20
17.6901603447312
 30
0.0
 11
59.229735342387
 21
17.3916242854567
 31
0.0
  0
LINE
  5
2B1
330
1E
100
AcDbEntity
  8
0
100
AcDbLine
 10
58.5895188311091
 20
17.6901603447312
 30
0.0
 11
58.73715652885429
 21
17.62131617137919
 31
0.0
  0
LINE
  5
2B2
330
1E
100
AcDbEntity
  8
0
100
AcDbLine
 10
58.5895188311091
 20
17.6901603447312
 30
0.0
 11
58.9718522969802
 21
18.5100820595805
 31
0.0
  0
LINE
  5
2B3
330
1E
100
AcDbEntity
  8
0
100
AcDbLine
 10
57.08028596667211
 20
17.84223457299869
 30
0.0
 11
57.72050247794989
 21
17.54369851372409
 31
0.0
  0
LINE
  5
2B4
330
1E
100
AcDbEntity
  8
0
100
AcDbLine
 10
57.5728647802048
 20
17.6125426870761
 30
0.0
 11
57.72050247794989
 21
17.54369851372409
 31
0.0
  0
LINE
  5
2B6
330
1E
100
AcDbEntity
  8
0
100
AcDbLine
 10
56.7703084876042
 20
17.5454278809064
 30
0.0
 11
57.80558498934929
 21
17.0626734351118
 31
0.0
  0
LINE
  5
2B7
330
1E
100
AcDbEntity
  8
0
100
AcDbLine
 10
56.77547444756219
 20
17.5430189687634
 30
0.0
 11
57.8107509493072
 21
17.0602645229687
 31
0.0
  0
LINE
  5
2B9
330
1E
100
AcDbEntity
  8
0
100
AcDbLine
 10
55.3661720652126
 20
17.8691704751281
 30
0.0
 11
56.8917616085791
 21
17.1577806838245
 31
0.0
  0
LINE
  5
2BA
330
1E
100
AcDbEntity
  8
0
100
AcDbLine
 10
55.3661720652126
 20
17.8691704751281
 30
0.0
 11
57.22319872377489
 21
17.0032299521191
 31
0.0
  0
LINE
  5
2BC
330
1E
100
AcDbEntity
  8
0
100
AcDbLine
 10
55.0942009400379
 20
18.7683556379679
 30
0.0
 11
55.2418386377831
 21
18.69951146461589
 31
0.0
  0
LINE
  5
2BD
330
1E
100
AcDbEntity
  8
0
100
AcDbLine
 10
55.0942009400379
 20
18.7683556379679
 30
0.0
 11
55.73441745131579
 21
18.4698195786933
 31
0.0
  0
LINE
  5
2BF
330
1E
100
AcDbEntity
  8
0
100
AcDbLine
 10
53.3291248578937
 20
18.7087177788306
 30
0.0
 11
53.6672177902545
 21
19.4337647904704
 31
0.0
  0
LINE
  5
2C0
330
1E
100
AcDbEntity
  8
0
100
AcDbLine
 10
52.0059140616512
 20
19.325737380389
 30
0.0
 11
52.7309610732909
 21
18.9876444480283
 31
0.0
  0
LINE
  5
2C1
330
1E
100
AcDbEntity
  8
0
100
AcDbLine
 10
55.06335106740089
 20
19.0034164287397
 30
0.0
 11
55.40144399976171
 21
19.72846344037939
 31
0.0
  0
LINE
  5
2C2
330
1E
100
AcDbEntity
  8
0
100
AcDbLine
 10
54.7832110282786
 20
19.1340470854806
 30
0.0
 11
55.06335106740089
 21
19.0034164287397
 31
0.0
  0
LINE
  5
2C4
330
1E
100
AcDbEntity
  8
0
100
AcDbLine
 10
53.15359273179229
 20
19.231919950755
 30
0.0
 11
53.4071624310629
 21
19.7757052094848
 31
0.0
  0
LINE
  5
2C5
330
1E
100
AcDbEntity
  8
0
100
AcDbLine
 10
53.8929439288615
 20
19.5491829448031
 30
0.0
 11
54.7832110282786
 21
19.1340470854806
 31
0.0
  0
LINE
  5
2C7
330
1E
100
AcDbEntity
  8
0
100
AcDbLine
 10
52.87345269266999
 20
19.3625506074958
 30
0.0
 11
53.15359273179229
 21
19.231919950755
 31
0.0
  0
LINE
  5
2C9
330
1E
100
AcDbEntity
  8
0
100
AcDbLine
 10
52.7309610732909
 20
18.9876444480283
 30
0.0
 11
53.1659892802748
 21
18.7847886886118
 31
0.0
  0
LINE
  5
2CA
330
1E
100
AcDbEntity
  8
0
100
AcDbLine
 10
53.1659892802748
 20
18.7847886886118
 30
0.0
 11
53.3291248578937
 21
18.7087177788306
 31
0.0
  0
LINE
  5
2CB
330
1E
100
AcDbEntity
  8
0
100
AcDbLine
 10
61.18908864900829
 20
17.5813450798677
 30
0.0
 11
71.88353207069441
 21
12.5944743275466
 31
0.0
  0
LINE
  5
2CC
330
1E
100
AcDbEntity
  8
0
100
AcDbLine
 10
50.9865178448776
 20
20.24243746396469
 30
0.0
 11
51.9831855932529
 21
19.7776864668183
 31
0.0
  0
LINE
  5
2CF
330
1E
100
AcDbEntity
  8
0
100
AcDbLine
 10
50.7064451970561
 20
21.36607575182349
 30
0.0
 11
51.1290613625071
 21
22.2723845163732
 31
0.0
  0
LINE
  5
2D0
330
1E
100
AcDbEntity
  8
0
100
AcDbLine
 10
51.6282750810552
 20
19.94318295720889
 30
0.0
 11
52.62503346030699
 21
19.47838969844589
 31
0.0
  0
LINE
  5
2D1
330
1E
100
AcDbEntity
  8
0
100
AcDbLine
 10
52.8961855496098
 20
20.013976203566
 30
0.0
 11
53.8929439288615
 21
19.5491829448031
 31
0.0
  0
LINE
  5
2D3
330
1E
100
AcDbEntity
  8
0
100
AcDbLine
 10
52.36762627812439
 20
20.260445951257
 30
0.0
 11
52.8961855496098
 21
20.013976203566
 31
0.0
  0
LINE
  5
2D4
330
1E
100
AcDbEntity
  8
0
100
AcDbLine
 10
52.36762627812439
 20
20.260445951257
 30
0.0
 11
52.7639597430002
 21
21.11039094216369
 31
0.0
  0
LINE
  5
2D5
330
1E
100
AcDbEntity
  8
0
100
AcDbLine
 10
51.9831855932529
 20
19.7776864668183
 30
0.0
 11
52.87345269266999
 21
19.3625506074958
 31
0.0
  0
LINE
  5
2D7
330
1E
100
AcDbEntity
  8
0
100
AcDbLine
 10
51.0452267712286
 20
19.773710515767
 30
0.0
 11
52.0059140616512
 21
19.325737380389
 31
0.0
  0
LINE
  5
2D8
330
1E
100
AcDbEntity
  8
0
100
AcDbLine
 10
53.3226391979727
 20
19.5944434565748
 30
0.0
 11
55.0942009400379
 21
18.7683556379679
 31
0.0
  0
LINE
  5
2D9
330
1E
100
AcDbEntity
  8
0
100
AcDbLine
 10
50.4951371143306
 20
20.91292136954869
 30
0.0
 11
50.6270050395726
 21
20.8514307174756
 31
0.0
  0
LINE
  5
2DA
330
1E
100
AcDbEntity
  8
0
100
AcDbLine
 10
50.4951371143306
 20
20.91292136954869
 30
0.0
 11
50.7064451970561
 21
21.36607575182349
 31
0.0
  0
LINE
  5
2DB
330
1E
100
AcDbEntity
  8
0
100
AcDbLine
 10
60.9689266001325
 20
46.9234910251157
 30
0.0
 11
68.67255109880471
 21
43.3312536187827
 31
0.0
  0
LINE
  5
2DC
330
1E
100
AcDbEntity
  8
0
100
AcDbLine
 10
50.61483054658439
 20
24.71892629364889
 30
0.0
 11
63.39378412673471
 21
18.7600383607906
 31
0.0
  0
LINE
  5
2DD
330
1E
100
AcDbEntity
  8
0
100
AcDbLine
 10
50.5303073134943
 20
24.537664540739
 30
0.0
 11
63.12799914073461
 21
18.66329984097089
 31
0.0
  0
LINE
  5
2DE
330
1E
100
AcDbEntity
  8
0
100
AcDbLine
 10
50.4457840804041
 20
24.356402787829
 30
0.0
 11
63.22473766055439
 21
18.3975148549708
 31
0.0
  0
LINE
  5
2DF
330
1E
100
AcDbEntity
  8
0
100
AcDbLine
 10
80.9077194202252
 20
37.62593538519499
 30
0.0
 11
81.49287376290859
 21
38.88081050059049
 31
0.0
  0
LINE
  5
2E0
330
1E
100
AcDbEntity
  8
0
100
AcDbLine
 10
80.9077194202252
 20
37.62593538519499
 30
0.0
 11
81.49287376290859
 21
38.88081050059049
 31
0.0
  0
LINE
  5
2E1
330
1E
100
AcDbEntity
  8
0
100
AcDbLine
 10
81.96299198535621
 20
39.8889883702755
 30
0.0
 11
90.41785099136779
 21
58.0206015138561
 31
0.0
  0
LINE
  5
2E2
330
1E
100
AcDbEntity
  8
0
100
AcDbLine
 10
81.96299198535621
 20
39.8889883702755
 30
0.0
 11
82.03572008566657
 21
39.3066966706736
 31
0.0
  0
LINE
  5
2E3
330
1E
100
AcDbEntity
  8
0
100
AcDbLine
 10
82.03572008566657
 20
39.3066966706736
 30
0.0
 11
82.45987258747581
 21
39.1089123052426
 31
0.0
  0
LINE
  5
2E4
330
1E
100
AcDbEntity
  8
0
100
AcDbLine
 10
81.49287376290859
 20
38.88081050059049
 30
0.0
 11
82.03572008566657
 21
39.3066966706736
 31
0.0
  0
LINE
  5
2E6
330
1E
100
AcDbEntity
  8
0
100
AcDbLine
 10
85.4289401001405
 20
37.7244217472253
 30
0.0
 11
87.83247094372619
 21
36.6036436764494
 31
0.0
  0
LINE
  5
2E8
330
1E
100
AcDbEntity
  8
0
100
AcDbLine
 10
82.45987258747581
 20
39.1089123052426
 30
0.0
 11
83.59094592563378
 21
38.5814873307598
 31
0.0
  0
LINE
  5
2E9
330
1E
100
AcDbEntity
  8
0
100
AcDbLine
 10
83.59094592563378
 20
38.5814873307598
 30
0.0
 11
85.4289401001405
 21
37.7244217472253
 31
0.0
  0
LINE
  5
2EA
330
1E
100
AcDbEntity
  8
0
100
AcDbLine
 10
83.59094592563378
 20
38.5814873307598
 30
0.0
 11
85.4289401001405
 21
37.7244217472253
 31
0.0
  0
LINE
  5
2EB
330
1E
100
AcDbEntity
  8
0
100
AcDbLine
 10
83.59094592563378
 20
38.5814873307598
 30
0.0
 11
85.4289401001405
 21
37.7244217472253
 31
0.0
  0
LINE
  5
2EC
330
1E
100
AcDbEntity
  8
0
100
AcDbLine
 10
82.0859208141398
 20
37.07653437010879
 30
0.0
 11
86.798726389798
 21
34.8789303097639
 31
0.0
  0
LINE
  5
2ED
330
1E
100
AcDbEntity
  8
0
100
AcDbLine
 10
75.923021215202
 20
39.9503242951752
 30
0.0
 11
82.0859208141398
 21
37.07653437010879
 31
0.0
  0
LINE
  5
2EE
330
1E
100
AcDbEntity
  8
0
100
AcDbLine
 10
68.67255109880471
 20
43.3312536187827
 30
0.0
 11
75.923021215202
 21
39.9503242951752
 31
0.0
  0
LINE
  5
2EF
330
1E
100
AcDbEntity
  8
0
100
AcDbLine
 10
63.39378412673471
 20
18.7600383607906
 30
0.0
 11
75.35705981879029
 21
13.1815049768382
 31
0.0
  0
LINE
  5
2F0
330
1E
100
AcDbEntity
  8
0
100
AcDbLine
 10
63.12799914073461
 20
18.66329984097089
 30
0.0
 11
74.9100130798803
 21
13.1692896901086
 31
0.0
  0
LINE
  5
2F1
330
1E
100
AcDbEntity
  8
0
100
AcDbLine
 10
63.22473766055439
 20
18.3975148549708
 30
0.0
 11
75.18801335260992
 21
12.8189814710183
 31
0.0
  0
LINE
  5
2F2
330
1E
100
AcDbEntity
  8
0
100
AcDbLine
 10
61.40039673173379
 20
18.0344994621425
 30
0.0
 11
72.09484015341991
 21
13.0476287098214
 31
0.0
  0
LINE
  5
2F3
330
1E
100
AcDbEntity
  8
0
100
AcDbLine
 10
62.75985987855829
 20
17.4005752139661
 30
0.0
 11
74.7231355706139
 21
11.82204183001369
 31
0.0
  0
LINE
  5
2F4
330
1E
100
AcDbEntity
  8
0
100
AcDbLine
 10
49.980906298408
 20
23.35946314682439
 30
0.0
 11
62.75985987855829
 21
17.4005752139661
 31
0.0
  0
LINE
  5
2F5
330
1E
100
AcDbEntity
  8
0
100
AcDbLine
 10
49.980906298408
 20
23.35946314682439
 30
0.0
 11
61.40039673173379
 21
18.0344994621425
 31
0.0
  0
LINE
  5
2F6
330
1E
100
AcDbEntity
  8
0
100
AcDbLine
 10
53.2653021014604
 20
50.51572843144871
 30
0.0
 11
60.9689266001325
 21
46.9234910251157
 31
0.0
  0
LINE
  5
2F7
330
1E
100
AcDbEntity
  8
0
100
AcDbLine
 10
48.4895752263416
 20
24.05487804707389
 30
0.0
 11
48.62144315158349
 21
23.9933873950008
 31
0.0
  0
LINE
  5
2F8
330
1E
100
AcDbEntity
  8
0
100
AcDbLine
 10
72.8940232219998
 20
12.6749657751268
 30
0.0
 11
73.01247777752641
 21
12.6197298423023
 31
0.0
  0
LINE
  5
2F9
330
1E
100
AcDbEntity
  8
0
100
AcDbLine
 10
89.4140768530843
 20
3.316519679962659
 30
0.0
 11
90.05438399523859
 21
3.01794135907157
 31
0.0
  0
LINE
  5
2FB
330
1E
100
AcDbEntity
  8
0
100
AcDbLine
 10
89.0930622886808
 20
3.46621032576539
 30
0.0
 11
89.906655666617
 21
3.086827794040069
 31
0.0
  0
LINE
  5
2FC
330
1E
100
AcDbEntity
  8
0
100
AcDbLine
 10
88.77141330814209
 20
3.61619680288393
 30
0.0
 11
89.17925225218942
 21
3.426019528430999
 31
0.0
  0
LINE
  5
2FD
330
1E
100
AcDbEntity
  8
0
100
AcDbLine
 10
89.17925225218942
 20
3.426019528430999
 30
0.0
 11
90.13087645496659
 21
2.982272554707509
 31
0.0
  0
LINE
  5
2FE
330
1E
100
AcDbEntity
  8
0
100
AcDbLine
 10
93.12120349097209
 20
3.242933671359559
 30
0.0
 11
94.39003576134171
 21
2.65127103972824
 31
0.0
  0
LINE
  5
2FF
330
1E
100
AcDbEntity
  8
0
100
AcDbLine
 10
92.12426384996751
 20
3.7078114533556
 30
0.0
 11
92.75867998515229
 21
3.411980137539939
 31
0.0
  0
LINE
  5
300
330
1E
100
AcDbEntity
  8
0
100
AcDbLine
 10
87.5757201550717
 20
4.173754309963359
 30
0.0
 11
88.38931353300791
 21
3.794371778238049
 31
0.0
  0
LINE
  5
302
330
1E
100
AcDbEntity
  8
0
100
AcDbLine
 10
87.42808245732659
 20
4.242598483315309
 30
0.0
 11
87.5757201550717
 21
4.173754309963359
 31
0.0
  0
LINE
  5
303
330
1E
100
AcDbEntity
  8
0
100
AcDbLine
 10
87.42808245732659
 20
4.242598483315309
 30
0.0
 11
87.75547768831669
 21
4.944704061793269
 31
0.0
  0
LINE
  5
304
330
1E
100
AcDbEntity
  8
0
100
AcDbLine
 10
88.06829896860451
 20
3.94406242404076
 30
0.0
 11
88.38931353300791
 21
3.794371778238049
 31
0.0
  0
LINE
  5
305
330
1E
100
AcDbEntity
  8
0
100
AcDbLine
 10
88.38931353300791
 20
3.794371778238049
 30
0.0
 11
89.4140768530843
 21
3.316519679962659
 31
0.0
  0
LINE
  5
307
330
1E
100
AcDbEntity
  8
0
100
AcDbLine
 10
88.1970898325884
 20
4.98738334942963
 30
0.0
 11
92.54737190242678
 21
2.958825755265099
 31
0.0
  0
LINE
  5
308
330
1E
100
AcDbEntity
  8
0
100
AcDbLine
 10
92.8549266179637
 20
4.801489614179969
 30
0.0
 11
97.6583630700769
 21
2.561623937289979
 31
0.0
  0
LINE
  5
309
330
1E
100
AcDbEntity
  8
0
100
AcDbLine
 10
93.7551277391485
 20
4.602396818184059
 30
0.0
 11
98.6491950677167
 21
2.32026952474897
 31
0.0
  0
LINE
  5
30A
330
1E
100
AcDbEntity
  8
0
100
AcDbLine
 10
93.5860812729682
 20
4.2398733123642
 30
0.0
 11
98.48014860153641
 21
1.9577460189291
 31
0.0
  0
LINE
  5
30B
330
1E
100
AcDbEntity
  8
0
100
AcDbLine
 10
96.5040332029374
 20
32.5600522054148
 30
0.0
 11
99.23746043681921
 21
31.28544185041469
 31
0.0
  0
LINE
  5
30E
330
1E
100
AcDbEntity
  8
0
100
AcDbLine
 10
87.83247094372629
 20
36.6036436764494
 30
0.0
 11
96.5040332029374
 21
32.5600522054148
 31
0.0
  0
LINE
  5
310
330
1E
100
AcDbEntity
  8
0
100
AcDbLine
 10
92.46588540010359
 20
57.61397138630279
 30
0.0
 11
96.70741041819599
 21
55.63612773199239
 31
0.0
  0
LINE
  5
311
330
1E
100
AcDbEntity
  8
0
100
AcDbLine
 10
96.70741041819599
 20
55.63612773199239
 30
0.0
 11
110.5159307548749
 21
49.1971478351818
 31
0.0
  0
LINE
  5
319
330
1E
100
AcDbEntity
  8
0
100
AcDbLine
 10
91.65419527057292
 20
57.9924664240807
 30
0.0
 11
92.20813118746571
 21
57.734163423757
 31
0.0
  0
LINE
  5
31A
330
1E
100
AcDbEntity
  8
0
100
AcDbLine
 10
91.46948954435769
 20
58.0785955985996
 30
0.0
 11
91.65419527057292
 21
57.9924664240807
 31
0.0
  0
LINE
  5
31B
330
1E
100
AcDbEntity
  8
0
100
AcDbLine
 10
91.46948954435769
 20
58.0785955985996
 30
0.0
 11
93.365805983029
 21
58.9281802526658
 31
0.0
  0
LINE
  5
320
330
1E
100
AcDbEntity
  8
0
100
AcDbLine
 10
91.33481206194558
 20
58.1413963607856
 30
0.0
 11
92.46588540010359
 21
57.61397138630279
 31
0.0
  0
LINE
  5
321
330
1E
100
AcDbEntity
  8
0
100
AcDbLine
 10
93.365805983029
 20
58.9281802526658
 30
0.0
 11
96.36648704820069
 21
59.5758691159299
 31
0.0
  0
LINE
  5
325
330
1E
100
AcDbEntity
  8
0
100
AcDbLine
 10
96.24790213095259
 20
61.2096097813
 30
0.0
 11
96.49050288636779
 21
64.04194805211711
 31
0.0
  0
LINE
  5
326
330
1E
100
AcDbEntity
  8
0
100
AcDbLine
 10
96.24790213095259
 20
61.2096097813
 30
0.0
 11
96.36764331542948
 21
59.5599392587802
 31
0.0
  0
LINE
  5
32D
330
1E
100
AcDbEntity
  8
0
100
AcDbLine
 10
97.06729658854179
 20
63.7729863558345
 30
0.0
 11
98.6427331139585
 21
63.0383526754311
 31
0.0
  0
LINE
  5
32E
330
1E
100
AcDbEntity
  8
0
100
AcDbLine
 10
95.7342976576421
 20
64.3945702119798
 30
0.0
 11
96.09781810310302
 21
64.2250588680174
 31
0.0
  0
LINE
  5
32F
330
1E
100
AcDbEntity
  8
0
100
AcDbLine
 10
96.09781810310302
 20
64.2250588680174
 30
0.0
 11
96.49050288636779
 21
64.04194805211711
 31
0.0
  0
LINE
  5
330
330
1E
100
AcDbEntity
  8
0
100
AcDbLine
 10
96.09781810310302
 20
64.2250588680174
 30
0.0
 11
97.06729658854179
 21
63.7729863558345
 31
0.0
  0
LINE
  5
331
330
1E
100
AcDbEntity
  8
0
100
AcDbLine
 10
95.69192655584959
 20
64.9366666053757
 30
0.0
 11
100.5632540485359
 21
75.3833252108339
 31
0.0
  0
LINE
  5
332
330
1E
100
AcDbEntity
  8
0
100
AcDbLine
 10
95.69192655584959
 20
64.9366666053757
 30
0.0
 11
95.7342976576421
 21
64.3945702119798
 31
0.0
  0
LINE
  5
333
330
1E
100
AcDbEntity
  8
0
100
AcDbLine
 10
90.91065956013641
 20
58.3391807262166
 30
0.0
 11
91.33481206194558
 21
58.1413963607856
 31
0.0
  0
LINE
  5
334
330
1E
100
AcDbEntity
  8
0
100
AcDbLine
 10
90.41785099136779
 20
58.0206015138561
 30
0.0
 11
90.91065956013641
 21
58.3391807262166
 31
0.0
  0
LINE
  5
336
330
1E
100
AcDbEntity
  8
0
100
AcDbLine
 10
87.83247094372629
 20
36.6036436764494
 30
0.0
 11
96.5040332029374
 21
32.5600522054148
 31
0.0
  0
LINE
  5
339
330
1E
100
AcDbEntity
  8
0
100
AcDbLine
 10
86.798726389798
 20
34.8789303097639
 30
0.0
 11
104.4782558861473
 21
26.7121901925114
 31
0.0
  0
LINE
  5
33A
330
1E
100
AcDbEntity
  8
0
100
AcDbLine
 10
88.40839791531392
 20
5.44053773170446
 30
0.0
 11
92.75867998515229
 21
3.411980137539939
 31
0.0
  0
LINE
  5
33B
330
1E
100
AcDbEntity
  8
0
100
AcDbLine
 10
86.60076508441958
 20
6.28344567369636
 30
0.0
 11
88.06200670550301
 21
5.602061630139809
 31
0.0
  0
LINE
  5
33C
330
1E
100
AcDbEntity
  8
0
100
AcDbLine
 10
92.12426384996751
 20
3.7078114533556
 30
0.0
 11
92.75867998515229
 21
3.411980137539939
 31
0.0
  0
LINE
  5
33D
330
1E
100
AcDbEntity
  8
0
100
AcDbLine
 10
86.60076508441958
 20
6.28344567369636
 30
0.0
 11
88.06200670550301
 21
5.6020616301398
 31
0.0
  0
LINE
  5
33E
330
1E
100
AcDbEntity
  8
0
100
AcDbLine
 10
93.12120349097209
 20
3.242933671359559
 30
0.0
 11
98.01527081954029
 21
0.9608063779244721
 31
0.0
  0
LINE
  5
33F
330
1E
100
AcDbEntity
  8
0
100
AcDbLine
 10
93.12120349097209
 20
3.242933671359559
 30
0.0
 11
98.01527081954029
 21
0.9608063779244721
 31
0.0
  0
LINE
  5
340
330
1E
100
AcDbEntity
  8
0
100
AcDbLine
 10
98.6427331139585
 20
63.0383526754311
 30
0.0
 11
100.702954197533
 21
62.07766160812809
 31
0.0
  0
LINE
  5
349
330
1E
100
AcDbEntity
  8
0
100
AcDbLine
 10
99.23746043681921
 20
31.28544185041469
 30
0.0
 11
101.640991280405
 21
30.1646637796388
 31
0.0
  0
LINE
  5
34A
330
1E
100
AcDbEntity
  8
0
100
AcDbLine
 10
98.6491950677167
 20
2.32026952474897
 30
0.0
 11
100.461812596816
 21
1.47503719384709
 31
0.0
  0
LINE
  5
34B
330
1E
100
AcDbEntity
  8
0
100
AcDbLine
 10
98.48014860153641
 20
1.9577460189291
 30
0.0
 11
100.292766130636
 21
1.112513688027219
 31
0.0
  0
LINE
  5
34C
330
1E
100
AcDbEntity
  8
0
100
AcDbLine
 10
100.461812596816
 20
1.47503719384709
 30
0.0
 11
104.054050003149
 21
9.17866169251925
 31
0.0
  0
LINE
  5
350
330
1E
100
AcDbEntity
  8
0
100
AcDbLine
 10
100.9636803308699
 20
75.66927376007909
 30
0.0
 11
107.397775751824
 21
90.0979259529773
 31
0.0
  0
LINE
  5
353
330
1E
100
AcDbEntity
  8
0
100
AcDbLine
 10
100.702954197533
 20
62.07766160812809
 30
0.0
 11
103.04585298477
 21
60.9851565588208
 31
0.0
  0
LINE
  5
355
330
1E
100
AcDbEntity
  8
0
100
AcDbLine
 10
100.5632540485359
 20
75.3833252108339
 30
0.0
 11
100.9636803308699
 21
75.66927376007909
 31
0.0
  0
LINE
  5
357
330
1E
100
AcDbEntity
  8
0
100
AcDbLine
 10
101.640991280405
 20
30.1646637796388
 30
0.0
 11
103.4789854549119
 21
29.3075981961043
 31
0.0
  0
LINE
  5
358
330
1E
100
AcDbEntity
  8
0
100
AcDbLine
 10
101.640991280405
 20
30.1646637796388
 30
0.0
 11
103.4789854549119
 21
29.3075981961043
 31
0.0
  0
LINE
  5
359
330
1E
100
AcDbEntity
  8
0
100
AcDbLine
 10
101.936050305811
 20
21.2000624961725
 30
0.0
 11
103.3871281031069
 21
17.2132877061707
 31
0.0
  0
LINE
  5
35B
330
1E
100
AcDbEntity
  8
0
100
AcDbLine
 10
103.4789854549119
 20
29.3075981961043
 30
0.0
 11
104.6100587930699
 21
28.78017322162159
 31
0.0
  0
LINE
  5
35E
330
1E
100
AcDbEntity
  8
0
100
AcDbLine
 10
103.04585298477
 20
60.9851565588208
 30
0.0
 11
105.5907679956259
 21
59.79845036623459
 31
0.0
  0
LINE
  5
363
330
1E
100
AcDbEntity
  8
0
100
AcDbLine
 10
101.936050305811
 20
21.2000624961725
 30
0.0
 11
103.3871281031069
 21
17.2132877061707
 31
0.0
  0
LINE
  5
364
330
1E
100
AcDbEntity
  8
0
100
AcDbLine
 10
101.936050305811
 20
21.2000624961725
 30
0.0
 11
105.0569016412
 21
27.89279019886599
 31
0.0
  0
LINE
  5
365
330
1E
100
AcDbEntity
  8
0
100
AcDbLine
 10
103.3871281031069
 20
17.2132877061707
 30
0.0
 11
103.9624353526769
 21
12.53151223434469
 31
0.0
  0
LINE
  5
366
330
1E
100
AcDbEntity
  8
0
100
AcDbLine
 10
104.6100587930699
 20
28.78017322162159
 30
0.0
 11
105.0342112948789
 21
28.5823888561905
 31
0.0
  0
LINE
  5
368
330
1E
100
AcDbEntity
  8
0
100
AcDbLine
 10
105.5270198636479
 20
28.900968068551
 30
0.0
 11
113.981878869659
 21
47.0325812121316
 31
0.0
  0
LINE
  5
369
330
1E
100
AcDbEntity
  8
0
100
AcDbLine
 10
105.0342112948789
 20
28.5823888561905
 30
0.0
 11
105.0569016412
 21
27.89279019886599
 31
0.0
  0
LINE
  5
36A
330
1E
100
AcDbEntity
  8
0
100
AcDbLine
 10
105.0342112948789
 20
28.5823888561905
 30
0.0
 11
105.5270198636479
 21
28.900968068551
 31
0.0
  0
LINE
  5
37F
330
1E
100
AcDbEntity
  8
0
100
AcDbLine
 10
110.5159307548749
 20
49.1971478351818
 30
0.0
 11
112.353924929381
 21
48.3400822516473
 31
0.0
  0
LINE
  5
384
330
1E
100
AcDbEntity
  8
0
100
AcDbLine
 10
112.353924929381
 20
48.3400822516473
 30
0.0
 11
113.484998267539
 21
47.8126572771645
 31
0.0
  0
LINE
  5
385
330
1E
100
AcDbEntity
  8
0
100
AcDbLine
 10
111.3495548826289
 20
52.58920055214439
 30
0.0
 11
112.677286152956
 21
53.5485084572384
 31
0.0
  0
LINE
  5
386
330
1E
100
AcDbEntity
  8
0
100
AcDbLine
 10
111.3495548826289
 20
52.58920055214439
 30
0.0
 11
112.7823836929879
 21
49.8741360472779
 31
0.0
  0
LINE
  5
38D
330
1E
100
AcDbEntity
  8
0
100
AcDbLine
 10
113.484998267539
 20
47.8126572771645
 30
0.0
 11
113.9091507693489
 21
47.61487291173351
 31
0.0
  0
LINE
  5
38E
330
1E
100
AcDbEntity
  8
0
100
AcDbLine
 10
337.866075751824
 20
23.8844259529773
 30
0.0
 11
348.866075751824
 21
23.8844259529773
 31
0.0
  0
LINE
  5
38F
330
1E
100
AcDbEntity
  8
0
100
AcDbLine
 10
336.8660757518239
 20
26.37287595297729
 30
0.0
 11
336.8660757518239
 21
25.3244659529772
 31
0.0
  0
LINE
  5
390
330
1E
100
AcDbEntity
  8
0
100
AcDbLine
 10
336.8660757518239
 20
26.37287595297729
 30
0.0
 11
336.8660757518239
 21
28.0844259529773
 31
0.0
  0
LINE
  5
391
330
1E
100
AcDbEntity
  8
0
100
AcDbLine
 10
336.8660757518239
 20
25.3244659529772
 30
0.0
 11
336.8660757518239
 21
24.8844259529773
 31
0.0
  0
LINE
  5
392
330
1E
100
AcDbEntity
  8
0
100
AcDbLine
 10
336.8660757518239
 20
25.3244659529772
 30
0.0
 11
336.8660757518239
 21
26.37287595297729
 31
0.0
  0
LINE
  5
393
330
1E
100
AcDbEntity
  8
0
100
AcDbLine
 10
336.8660757518239
 20
24.8844259529773
 30
0.0
 11
337.166075751824
 21
24.18442595297729
 31
0.0
  0
LINE
  5
394
330
1E
100
AcDbEntity
  8
0
100
AcDbLine
 10
336.8660757518239
 20
24.8844259529773
 30
0.0
 11
336.8660757518239
 21
25.3244659529772
 31
0.0
  0
LINE
  5
395
330
1E
100
AcDbEntity
  8
0
100
AcDbLine
 10
336.8660757518239
 20
30.3929459529773
 30
0.0
 11
336.8660757518239
 21
33.04748595297729
 31
0.0
  0
LINE
  5
396
330
1E
100
AcDbEntity
  8
0
100
AcDbLine
 10
336.8660757518239
 20
30.3929459529773
 30
0.0
 11
336.8660757518239
 21
28.0844259529773
 31
0.0
  0
LINE
  5
397
330
1E
100
AcDbEntity
  8
0
100
AcDbLine
 10
336.8660757518239
 20
33.04748595297729
 30
0.0
 11
336.8660757518239
 21
35.88442595297729
 31
0.0
  0
LINE
  5
398
330
1E
100
AcDbEntity
  8
0
100
AcDbLine
 10
336.8660757518239
 20
33.04748595297729
 30
0.0
 11
336.8660757518239
 21
30.3929459529773
 31
0.0
  0
LINE
  5
399
330
1E
100
AcDbEntity
  8
0
100
AcDbLine
 10
336.8660757518239
 20
35.88442595297729
 30
0.0
 11
336.8660757518239
 21
108.884425952977
 31
0.0
  0
LINE
  5
39A
330
1E
100
AcDbEntity
  8
0
100
AcDbLine
 10
336.8660757518239
 20
35.88442595297729
 30
0.0
 11
336.8660757518239
 21
33.04748595297729
 31
0.0
  0
LINE
  5
39B
330
1E
100
AcDbEntity
  8
0
100
AcDbLine
 10
337.166075751824
 20
30.0436659529773
 30
0.0
 11
337.166075751824
 21
27.58442595297729
 31
0.0
  0
LINE
  5
39C
330
1E
100
AcDbEntity
  8
0
100
AcDbLine
 10
337.166075751824
 20
30.0436659529773
 30
0.0
 11
337.166075751824
 21
32.8612059529773
 31
0.0
  0
LINE
  5
39D
330
1E
100
AcDbEntity
  8
0
100
AcDbLine
 10
337.166075751824
 20
32.8612059529773
 30
0.0
 11
337.166075751824
 21
30.0436659529773
 31
0.0
  0
LINE
  5
39E
330
1E
100
AcDbEntity
  8
0
100
AcDbLine
 10
337.166075751824
 20
32.8612059529773
 30
0.0
 11
337.166075751824
 21
35.88442595297729
 31
0.0
  0
LINE
  5
39F
330
1E
100
AcDbEntity
  8
0
100
AcDbLine
 10
337.166075751824
 20
35.88442595297729
 30
0.0
 11
337.166075751824
 21
32.8612059529773
 31
0.0
  0
LINE
  5
3A0
330
1E
100
AcDbEntity
  8
0
100
AcDbLine
 10
337.166075751824
 20
35.88442595297729
 30
0.0
 11
337.166075751824
 21
108.884425952977
 31
0.0
  0
LINE
  5
3A1
330
1E
100
AcDbEntity
  8
0
100
AcDbLine
 10
336.8660757518239
 20
28.0844259529773
 30
0.0
 11
336.8660757518239
 21
26.37287595297729
 31
0.0
  0
LINE
  5
3A2
330
1E
100
AcDbEntity
  8
0
100
AcDbLine
 10
336.8660757518239
 20
28.0844259529773
 30
0.0
 11
336.8660757518239
 21
30.3929459529773
 31
0.0
  0
LINE
  5
3A3
330
1E
100
AcDbEntity
  8
0
100
AcDbLine
 10
337.166075751824
 20
27.58442595297729
 30
0.0
 11
337.166075751824
 21
25.7438259529773
 31
0.0
  0
LINE
  5
3A4
330
1E
100
AcDbEntity
  8
0
100
AcDbLine
 10
337.166075751824
 20
27.58442595297729
 30
0.0
 11
337.166075751824
 21
30.0436659529773
 31
0.0
  0
LINE
  5
3A5
330
1E
100
AcDbEntity
  8
0
100
AcDbLine
 10
337.166075751824
 20
25.7438259529773
 30
0.0
 11
337.166075751824
 21
24.6255299529773
 31
0.0
  0
LINE
  5
3A6
330
1E
100
AcDbEntity
  8
0
100
AcDbLine
 10
337.166075751824
 20
25.7438259529773
 30
0.0
 11
337.166075751824
 21
27.58442595297729
 31
0.0
  0
LINE
  5
3A7
330
1E
100
AcDbEntity
  8
0
100
AcDbLine
 10
337.166075751824
 20
24.6255299529773
 30
0.0
 11
337.166075751824
 21
24.18442595297729
 31
0.0
  0
LINE
  5
3A8
330
1E
100
AcDbEntity
  8
0
100
AcDbLine
 10
337.166075751824
 20
24.6255299529773
 30
0.0
 11
337.166075751824
 21
25.7438259529773
 31
0.0
  0
LINE
  5
3A9
330
1E
100
AcDbEntity
  8
0
100
AcDbLine
 10
348.866075751824
 20
27.3844259529772
 30
0.0
 11
348.866075751824
 21
25.4844259529773
 31
0.0
  0
LINE
  5
3AA
330
1E
100
AcDbEntity
  8
0
100
AcDbLine
 10
348.866075751824
 20
27.3844259529772
 30
0.0
 11
348.866075751824
 21
29.8844259529773
 31
0.0
  0
LINE
  5
3AB
330
1E
100
AcDbEntity
  8
0
100
AcDbLine
 10
348.866075751824
 20
29.8844259529773
 30
0.0
 11
348.866075751824
 21
27.3844259529772
 31
0.0
  0
LINE
  5
3AC
330
1E
100
AcDbEntity
  8
0
100
AcDbLine
 10
348.866075751824
 20
29.8844259529773
 30
0.0
 11
348.866075751824
 21
32.7844259529773
 31
0.0
  0
LINE
  5
3AD
330
1E
100
AcDbEntity
  8
0
100
AcDbLine
 10
348.866075751824
 20
32.7844259529773
 30
0.0
 11
348.866075751824
 21
29.8844259529773
 31
0.0
  0
LINE
  5
3AE
330
1E
100
AcDbEntity
  8
0
100
AcDbLine
 10
348.866075751824
 20
32.7844259529773
 30
0.0
 11
348.866075751824
 21
35.88442595297729
 31
0.0
  0
LINE
  5
3AF
330
1E
100
AcDbEntity
  8
0
100
AcDbLine
 10
348.866075751824
 20
35.88442595297729
 30
0.0
 11
348.866075751824
 21
32.7844259529773
 31
0.0
  0
LINE
  5
3B0
330
1E
100
AcDbEntity
  8
0
100
AcDbLine
 10
348.866075751824
 20
35.88442595297729
 30
0.0
 11
348.866075751824
 21
108.884425952977
 31
0.0
  0
LINE
  5
3B1
330
1E
100
AcDbEntity
  8
0
100
AcDbLine
 10
348.866075751824
 20
25.4844259529773
 30
0.0
 11
348.866075751824
 21
27.3844259529772
 31
0.0
  0
LINE
  5
3B2
330
1E
100
AcDbEntity
  8
0
100
AcDbLine
 10
348.866075751824
 20
25.4844259529773
 30
0.0
 11
348.866075751824
 21
24.2844259529773
 31
0.0
  0
LINE
  5
3B3
330
1E
100
AcDbEntity
  8
0
100
AcDbLine
 10
348.866075751824
 20
24.2844259529773
 30
0.0
 11
348.866075751824
 21
25.4844259529773
 31
0.0
  0
LINE
  5
3B4
330
1E
100
AcDbEntity
  8
0
100
AcDbLine
 10
348.866075751824
 20
24.2844259529773
 30
0.0
 11
348.866075751824
 21
23.8844259529773
 31
0.0
  0
LINE
  5
3B5
330
1E
100
AcDbEntity
  8
0
100
AcDbLine
 10
337.166075751824
 20
24.18442595297729
 30
0.0
 11
337.866075751824
 21
23.8844259529773
 31
0.0
  0
LINE
  5
3B6
330
1E
100
AcDbEntity
  8
0
100
AcDbLine
 10
337.166075751824
 20
24.18442595297729
 30
0.0
 11
337.166075751824
 21
24.6255299529773
 31
0.0
  0
LINE
  5
3B7
330
1E
100
AcDbEntity
  8
0
100
AcDbLine
 10
348.866075751824
 20
23.8844259529773
 30
0.0
 11
348.866075751824
 21
24.2844259529773
 31
0.0
  0
LINE
  5
3B8
330
1E
100
AcDbEntity
  8
0
100
AcDbLine
 10
113.9091507693489
 20
47.61487291173351
 30
0.0
 11
113.981878869659
 21
47.0325812121316
 31
0.0
  0
LINE
  5
3B9
330
1E
100
AcDbEntity
  8
0
100
AcDbLine
 10
114.114239402709
 20
55.8239143766346
 30
0.0
 11
115.083445995519
 21
55.37196864930139
 31
0.0
  0
LINE
  5
3BA
330
1E
100
AcDbEntity
  8
0
100
AcDbLine
 10
115.083445995519
 20
55.37196864930139
 30
0.0
 11
115.446875810103
 21
55.2024995669556
 31
0.0
  0
LINE
  5
3BB
330
1E
100
AcDbEntity
  8
0
100
AcDbLine
 10
114.690802166141
 20
55.55506036820599
 30
0.0
 11
115.083445995519
 21
55.37196864930139
 31
0.0
  0
LINE
  5
3BC
330
1E
100
AcDbEntity
  8
0
100
AcDbLine
 10
115.446875810103
 20
55.2024995669556
 30
0.0
 11
115.889833051727
 21
55.5182850037525
 31
0.0
  0
LINE
  5
3BE
330
1E
100
AcDbEntity
  8
0
100
AcDbLine
 10
112.7823836929879
 20
49.8741360472779
 30
0.0
 11
113.349958261622
 21
47.8756270858167
 31
0.0
  0
LINE
  5
3BF
330
1E
100
AcDbEntity
  8
0
100
AcDbLine
 10
112.677286152956
 20
53.5485084572384
 30
0.0
 11
114.690802166141
 21
55.55506036820599
 31
0.0
  0
LINE
  5
3C0
330
1E
100
AcDbEntity
  8
0
100
AcDbLine
 10
107.397775751824
 20
90.0979259529773
 30
0.0
 11
111.698875751824
 21
96.60852595297729
 31
0.0
  0
LINE
  5
3C1
330
1E
100
AcDbEntity
  8
0
100
AcDbLine
 10
105.5907679956259
 20
59.79845036623459
 30
0.0
 11
108.1356830064809
 21
58.61174417364829
 31
0.0
  0
LINE
  5
3C2
330
1E
100
AcDbEntity
  8
0
100
AcDbLine
 10
108.1356830064809
 20
58.61174417364829
 30
0.0
 11
110.4785817937179
 21
57.5192391243411
 31
0.0
  0
LINE
  5
3C3
330
1E
100
AcDbEntity
  8
0
100
AcDbLine
 10
120.6673690072944
 20
66.44416846384337
 30
0.0
 11
126.524075751824
 21
79.20922595297729
 31
0.0
  0
LINE
  5
3C4
330
1E
100
AcDbEntity
  8
0
100
AcDbLine
 10
100.5632540485359
 20
75.3833252108339
 30
0.0
 11
120.761160544414
 21
65.9649436092107
 31
0.0
  0
LINE
  5
3CA
330
1E
100
AcDbEntity
  8
0
100
AcDbLine
 10
336.8660757518239
 20
74.2844259529773
 30
0.0
 11
336.8660757518239
 21
75.5844259529773
 31
0.0
  0
LINE
  5
3CB
330
1E
100
AcDbEntity
  8
0
100
AcDbLine
 10
336.8660757518239
 20
75.5844259529773
 30
0.0
 11
336.8660757518239
 21
78.88442595297729
 31
0.0
  0
LINE
  5
3CC
330
1E
100
AcDbEntity
  8
0
100
AcDbLine
 10
336.8660757518239
 20
75.5844259529773
 30
0.0
 11
336.8660757518239
 21
74.2844259529773
 31
0.0
  0
LINE
  5
3CD
330
1E
100
AcDbEntity
  8
0
100
AcDbLine
 10
336.8660757518239
 20
73.38442595297729
 30
0.0
 11
336.8660757518239
 21
74.68442595297729
 31
0.0
  0
LINE
  5
3CE
330
1E
100
AcDbEntity
  8
0
100
AcDbLine
 10
126.524075751824
 20
79.20922595297729
 30
0.0
 11
129.2249757518239
 21
83.2856259529773
 31
0.0
  0
LINE
  5
3CF
330
1E
100
AcDbEntity
  8
0
100
AcDbLine
 10
129.2249757518239
 20
83.2856259529773
 30
0.0
 11
132.4022757518239
 21
86.9376259529773
 31
0.0
  0
LINE
  5
3D0
330
1E
100
AcDbEntity
  8
0
100
AcDbLine
 10
336.8660757518239
 20
78.88442595297729
 30
0.0
 11
336.8660757518239
 21
84.48442595297729
 31
0.0
  0
LINE
  5
3D1
330
1E
100
AcDbEntity
  8
0
100
AcDbLine
 10
336.8660757518239
 20
78.88442595297729
 30
0.0
 11
336.8660757518239
 21
75.5844259529773
 31
0.0
  0
LINE
  5
3D2
330
1E
100
AcDbEntity
  8
0
100
AcDbLine
 10
336.8660757518239
 20
84.48442595297729
 30
0.0
 11
336.8660757518239
 21
91.68442595297729
 31
0.0
  0
LINE
  5
3D3
330
1E
100
AcDbEntity
  8
0
100
AcDbLine
 10
336.8660757518239
 20
84.48442595297729
 30
0.0
 11
336.8660757518239
 21
78.88442595297729
 31
0.0
  0
LINE
  5
3D4
330
1E
100
AcDbEntity
  8
0
100
AcDbLine
 10
336.8660757518239
 20
83.8844259529773
 30
0.0
 11
336.8660757518239
 21
84.79992595297728
 31
0.0
  0
LINE
  5
3D5
330
1E
100
AcDbEntity
  8
0
100
AcDbLine
 10
336.8660757518239
 20
84.51822595297729
 30
0.0
 11
336.8660757518239
 21
85.4337259529773
 31
0.0
  0
LINE
  5
3D8
330
1E
100
AcDbEntity
  8
0
100
AcDbLine
 10
136.0398757518239
 20
90.1354259529773
 30
0.0
 11
140.0629757518239
 21
92.82982595297729
 31
0.0
  0
LINE
  5
3D9
330
1E
100
AcDbEntity
  8
0
100
AcDbLine
 10
132.4022757518239
 20
86.9376259529773
 30
0.0
 11
136.0398757518239
 21
90.1354259529773
 31
0.0
  0
LINE
  5
3DA
330
1E
100
AcDbEntity
  8
0
100
AcDbLine
 10
336.8660757518239
 20
87.75762595297729
 30
0.0
 11
336.8660757518239
 21
85.4337259529773
 31
0.0
  0
LINE
  5
3DB
330
1E
100
AcDbEntity
  8
0
100
AcDbLine
 10
336.8660757518239
 20
87.75762595297729
 30
0.0
 11
336.8660757518239
 21
91.70132595297729
 31
0.0
  0
LINE
  5
3DC
330
1E
100
AcDbEntity
  8
0
100
AcDbLine
 10
336.8660757518239
 20
85.4337259529773
 30
0.0
 11
336.8660757518239
 21
87.75762595297729
 31
0.0
  0
LINE
  5
3DD
330
1E
100
AcDbEntity
  8
0
100
AcDbLine
 10
336.8660757518239
 20
85.4337259529773
 30
0.0
 11
336.8660757518239
 21
84.51822595297729
 31
0.0
  0
LINE
  5
3DE
330
1E
100
AcDbEntity
  8
0
100
AcDbLine
 10
336.8660757518239
 20
87.2647259529773
 30
0.0
 11
336.8660757518239
 21
84.79992595297728
 31
0.0
  0
LINE
  5
3DF
330
1E
100
AcDbEntity
  8
0
100
AcDbLine
 10
336.8660757518239
 20
87.2647259529773
 30
0.0
 11
336.8660757518239
 21
91.2083259529772
 31
0.0
  0
LINE
  5
3E0
330
1E
100
AcDbEntity
  8
0
100
AcDbLine
 10
336.8660757518239
 20
84.79992595297728
 30
0.0
 11
336.8660757518239
 21
83.8844259529773
 31
0.0
  0
LINE
  5
3E1
330
1E
100
AcDbEntity
  8
0
100
AcDbLine
 10
336.8660757518239
 20
84.79992595297728
 30
0.0
 11
336.8660757518239
 21
87.2647259529773
 31
0.0
  0
LINE
  5
3E2
330
1E
100
AcDbEntity
  8
0
100
AcDbLine
 10
336.8660757518239
 20
83.7844259529773
 30
0.0
 11
336.8660757518239
 21
78.18442595297729
 31
0.0
  0
LINE
  5
3E3
330
1E
100
AcDbEntity
  8
0
100
AcDbLine
 10
336.8660757518239
 20
83.7844259529773
 30
0.0
 11
336.8660757518239
 21
91.18442595297729
 31
0.0
  0
LINE
  5
3E4
330
1E
100
AcDbEntity
  8
0
100
AcDbLine
 10
336.8660757518239
 20
78.18442595297729
 30
0.0
 11
336.8660757518239
 21
74.68442595297729
 31
0.0
  0
LINE
  5
3E5
330
1E
100
AcDbEntity
  8
0
100
AcDbLine
 10
336.8660757518239
 20
78.18442595297729
 30
0.0
 11
336.8660757518239
 21
83.7844259529773
 31
0.0
  0
LINE
  5
3E6
330
1E
100
AcDbEntity
  8
0
100
AcDbLine
 10
336.8660757518239
 20
74.68442595297729
 30
0.0
 11
336.8660757518239
 21
73.38442595297729
 31
0.0
  0
LINE
  5
3E7
330
1E
100
AcDbEntity
  8
0
100
AcDbLine
 10
336.8660757518239
 20
74.68442595297729
 30
0.0
 11
336.8660757518239
 21
78.18442595297729
 31
0.0
  0
LINE
  5
3EA
330
1E
100
AcDbEntity
  8
0
100
AcDbLine
 10
111.698875751824
 20
96.60852595297729
 30
0.0
 11
116.8506757518239
 21
102.526225952977
 31
0.0
  0
LINE
  5
3EB
330
1E
100
AcDbEntity
  8
0
100
AcDbLine
 10
148.983875751824
 20
96.53382595297729
 30
0.0
 11
153.7293757518239
 21
97.47992595297731
 31
0.0
  0
LINE
  5
3EC
330
1E
100
AcDbEntity
  8
0
100
AcDbLine
 10
144.402275751824
 20
94.9748259529773
 30
0.0
 11
148.983875751824
 21
96.53382595297729
 31
0.0
  0
LINE
  5
3ED
330
1E
100
AcDbEntity
  8
0
100
AcDbLine
 10
140.0629757518239
 20
92.82982595297729
 30
0.0
 11
144.402275751824
 21
94.9748259529773
 31
0.0
  0
LINE
  5
3EE
330
1E
100
AcDbEntity
  8
0
100
AcDbLine
 10
336.8660757518239
 20
91.70132595297729
 30
0.0
 11
336.8660757518239
 21
96.77172595297729
 31
0.0
  0
LINE
  5
3EF
330
1E
100
AcDbEntity
  8
0
100
AcDbLine
 10
336.8660757518239
 20
91.70132595297729
 30
0.0
 11
336.8660757518239
 21
87.75762595297729
 31
0.0
  0
LINE
  5
3F0
330
1E
100
AcDbEntity
  8
0
100
AcDbLine
 10
336.8660757518239
 20
91.68442595297729
 30
0.0
 11
336.8660757518239
 21
99.98442595297721
 31
0.0
  0
LINE
  5
3F1
330
1E
100
AcDbEntity
  8
0
100
AcDbLine
 10
336.8660757518239
 20
91.68442595297729
 30
0.0
 11
336.8660757518239
 21
84.48442595297729
 31
0.0
  0
LINE
  5
3F2
330
1E
100
AcDbEntity
  8
0
100
AcDbLine
 10
336.8660757518239
 20
91.2083259529772
 30
0.0
 11
336.8660757518239
 21
87.2647259529773
 31
0.0
  0
LINE
  5
3F3
330
1E
100
AcDbEntity
  8
0
100
AcDbLine
 10
336.8660757518239
 20
91.2083259529772
 30
0.0
 11
336.8660757518239
 21
96.4196259529773
 31
0.0
  0
LINE
  5
3F4
330
1E
100
AcDbEntity
  8
0
100
AcDbLine
 10
153.7293757518239
 20
97.47992595297731
 30
0.0
 11
158.557375751824
 21
97.7971259529772
 31
0.0
  0
LINE
  5
3F5
330
1E
100
AcDbEntity
  8
0
100
AcDbLine
 10
158.557375751824
 20
97.7971259529772
 30
0.0
 11
336.8660757518239
 21
97.7971259529772
 31
0.0
  0
LINE
  5
3F6
330
1E
100
AcDbEntity
  8
0
100
AcDbLine
 10
158.557375751824
 20
97.7971259529772
 30
0.0
 11
336.8660757518239
 21
97.7971259529772
 31
0.0
  0
LINE
  5
3F7
330
1E
100
AcDbEntity
  8
0
100
AcDbLine
 10
122.6512757518239
 20
107.625325952977
 30
0.0
 11
129.0661757518239
 21
111.921925952977
 31
0.0
  0
LINE
  5
3F8
330
1E
100
AcDbEntity
  8
0
100
AcDbLine
 10
135.985775751824
 20
115.342425952977
 30
0.0
 11
143.2916757518239
 21
117.828325952977
 31
0.0
  0
LINE
  5
3F9
330
1E
100
AcDbEntity
  8
0
100
AcDbLine
 10
129.0661757518239
 20
111.921925952977
 30
0.0
 11
135.985775751824
 21
115.342425952977
 31
0.0
  0
LINE
  5
3FA
330
1E
100
AcDbEntity
  8
0
100
AcDbLine
 10
116.8506757518239
 20
102.526225952977
 30
0.0
 11
122.6512757518239
 21
107.625325952977
 31
0.0
  0
LINE
  5
3FB
330
1E
100
AcDbEntity
  8
0
100
AcDbLine
 10
158.557375751824
 20
119.842925952977
 30
0.0
 11
336.8660757518239
 21
119.842925952977
 31
0.0
  0
LINE
  5
3FC
330
1E
100
AcDbEntity
  8
0
100
AcDbLine
 10
150.8586757518239
 20
119.337025952977
 30
0.0
 11
158.557375751824
 21
119.842925952977
 31
0.0
  0
LINE
  5
3FD
330
1E
100
AcDbEntity
  8
0
100
AcDbLine
 10
143.2916757518239
 20
117.828325952977
 30
0.0
 11
150.8586757518239
 21
119.337025952977
 31
0.0
  0
LINE
  5
3FE
330
1E
100
AcDbEntity
  8
0
100
AcDbLine
 10
158.557375751824
 20
119.842925952977
 30
0.0
 11
336.8660757518239
 21
119.842925952977
 31
0.0
  0
LINE
  5
3FF
330
1E
100
AcDbEntity
  8
0
100
AcDbLine
 10
336.8660757518239
 20
117.784425952977
 30
0.0
 11
336.8660757518239
 21
126.084425952977
 31
0.0
  0
LINE
  5
400
330
1E
100
AcDbEntity
  8
0
100
AcDbLine
 10
336.8660757518239
 20
117.784425952977
 30
0.0
 11
336.8660757518239
 21
108.884425952977
 31
0.0
  0
LINE
  5
401
330
1E
100
AcDbEntity
  8
0
100
AcDbLine
 10
336.8660757518239
 20
115.152025952977
 30
0.0
 11
336.8660757518239
 21
108.884425952977
 31
0.0
  0
LINE
  5
402
330
1E
100
AcDbEntity
  8
0
100
AcDbLine
 10
336.8660757518239
 20
115.152025952977
 30
0.0
 11
336.8660757518239
 21
120.997125952977
 31
0.0
  0
LINE
  5
403
330
1E
100
AcDbEntity
  8
0
100
AcDbLine
 10
336.8660757518239
 20
121.349225952977
 30
0.0
 11
336.8660757518239
 21
126.560425952977
 31
0.0
  0
LINE
  5
404
330
1E
100
AcDbEntity
  8
0
100
AcDbLine
 10
336.8660757518239
 20
121.349225952977
 30
0.0
 11
336.8660757518239
 21
119.842925952977
 31
0.0
  0
LINE
  5
405
330
1E
100
AcDbEntity
  8
0
100
AcDbLine
 10
336.8660757518239
 20
130.504425952977
 30
0.0
 11
336.8660757518239
 21
132.969425952977
 31
0.0
  0
LINE
  5
406
330
1E
100
AcDbEntity
  8
0
100
AcDbLine
 10
336.8660757518239
 20
130.504425952977
 30
0.0
 11
336.8660757518239
 21
126.560425952977
 31
0.0
  0
LINE
  5
407
330
1E
100
AcDbEntity
  8
0
100
AcDbLine
 10
336.8660757518239
 20
126.560425952977
 30
0.0
 11
336.8660757518239
 21
130.504425952977
 31
0.0
  0
LINE
  5
408
330
1E
100
AcDbEntity
  8
0
100
AcDbLine
 10
336.8660757518239
 20
126.560425952977
 30
0.0
 11
336.8660757518239
 21
121.349225952977
 31
0.0
  0
LINE
  5
409
330
1E
100
AcDbEntity
  8
0
100
AcDbLine
 10
336.8660757518239
 20
126.084425952977
 30
0.0
 11
336.8660757518239
 21
133.284425952977
 31
0.0
  0
LINE
  5
40A
330
1E
100
AcDbEntity
  8
0
100
AcDbLine
 10
336.8660757518239
 20
126.084425952977
 30
0.0
 11
336.8660757518239
 21
117.784425952977
 31
0.0
  0
LINE
  5
40B
330
1E
100
AcDbEntity
  8
0
100
AcDbLine
 10
336.8660757518239
 20
130.011425952977
 30
0.0
 11
336.8660757518239
 21
126.0674259529769
 31
0.0
  0
LINE
  5
40C
330
1E
100
AcDbEntity
  8
0
100
AcDbLine
 10
336.8660757518239
 20
130.011425952977
 30
0.0
 11
336.8660757518239
 21
132.335425952977
 31
0.0
  0
LINE
  5
40D
330
1E
100
AcDbEntity
  8
0
100
AcDbLine
 10
336.8660757518239
 20
133.884425952977
 30
0.0
 11
336.8660757518239
 21
132.969425952977
 31
0.0
  0
LINE
  5
40E
330
1E
100
AcDbEntity
  8
0
100
AcDbLine
 10
336.8660757518239
 20
132.969425952977
 30
0.0
 11
336.8660757518239
 21
133.884425952977
 31
0.0
  0
LINE
  5
40F
330
1E
100
AcDbEntity
  8
0
100
AcDbLine
 10
336.8660757518239
 20
132.969425952977
 30
0.0
 11
336.8660757518239
 21
130.504425952977
 31
0.0
  0
LINE
  5
410
330
1E
100
AcDbEntity
  8
0
100
AcDbLine
 10
336.8660757518239
 20
133.284425952977
 30
0.0
 11
336.8660757518239
 21
138.884425952977
 31
0.0
  0
LINE
  5
411
330
1E
100
AcDbEntity
  8
0
100
AcDbLine
 10
336.8660757518239
 20
133.284425952977
 30
0.0
 11
336.8660757518239
 21
126.084425952977
 31
0.0
  0
LINE
  5
412
330
1E
100
AcDbEntity
  8
0
100
AcDbLine
 10
336.8660757518239
 20
132.335425952977
 30
0.0
 11
336.8660757518239
 21
130.011425952977
 31
0.0
  0
LINE
  5
413
330
1E
100
AcDbEntity
  8
0
100
AcDbLine
 10
336.8660757518239
 20
132.335425952977
 30
0.0
 11
336.8660757518239
 21
133.250425952977
 31
0.0
  0
LINE
  5
414
330
1E
100
AcDbEntity
  8
0
100
AcDbLine
 10
336.8660757518239
 20
133.250425952977
 30
0.0
 11
336.8660757518239
 21
132.335425952977
 31
0.0
  0
LINE
  5
415
330
1E
100
AcDbEntity
  8
0
100
AcDbLine
 10
336.8660757518239
 20
126.0674259529769
 30
0.0
 11
336.8660757518239
 21
120.997125952977
 31
0.0
  0
LINE
  5
416
330
1E
100
AcDbEntity
  8
0
100
AcDbLine
 10
336.8660757518239
 20
126.0674259529769
 30
0.0
 11
336.8660757518239
 21
130.011425952977
 31
0.0
  0
LINE
  5
417
330
1E
100
AcDbEntity
  8
0
100
AcDbLine
 10
336.8660757518239
 20
120.997125952977
 30
0.0
 11
336.8660757518239
 21
115.152025952977
 31
0.0
  0
LINE
  5
418
330
1E
100
AcDbEntity
  8
0
100
AcDbLine
 10
336.8660757518239
 20
120.997125952977
 30
0.0
 11
336.8660757518239
 21
126.0674259529769
 31
0.0
  0
LINE
  5
419
330
1E
100
AcDbEntity
  8
0
100
AcDbLine
 10
336.8660757518239
 20
120.997125952977
 30
0.0
 11
336.8660757518239
 21
119.842925952977
 31
0.0
  0
LINE
  5
41A
330
1E
100
AcDbEntity
  8
0
100
AcDbLine
 10
336.8660757518239
 20
138.884425952977
 30
0.0
 11
336.8660757518239
 21
133.284425952977
 31
0.0
  0
LINE
  5
41B
330
1E
100
AcDbEntity
  8
0
100
AcDbLine
 10
336.8660757518239
 20
138.884425952977
 30
0.0
 11
336.8660757518239
 21
142.184425952977
 31
0.0
  0
LINE
  5
41C
330
1E
100
AcDbEntity
  8
0
100
AcDbLine
 10
336.8660757518239
 20
142.184425952977
 30
0.0
 11
336.8660757518239
 21
138.884425952977
 31
0.0
  0
LINE
  5
41D
330
1E
100
AcDbEntity
  8
0
100
AcDbLine
 10
336.8660757518239
 20
142.184425952977
 30
0.0
 11
336.8660757518239
 21
143.484425952977
 31
0.0
  0
LINE
  5
41E
330
1E
100
AcDbEntity
  8
0
100
AcDbLine
 10
336.8660757518239
 20
144.384425952977
 30
0.0
 11
336.8660757518239
 21
143.084425952977
 31
0.0
  0
LINE
  5
41F
330
1E
100
AcDbEntity
  8
0
100
AcDbLine
 10
336.8660757518239
 20
143.484425952977
 30
0.0
 11
336.8660757518239
 21
142.184425952977
 31
0.0
  0
LINE
  5
420
330
1E
100
AcDbEntity
  8
0
100
AcDbLine
 10
336.8660757518239
 20
191.3964259529769
 30
0.0
 11
336.8660757518239
 21
189.6844259529769
 31
0.0
  0
LINE
  5
421
330
1E
100
AcDbEntity
  8
0
100
AcDbLine
 10
336.8660757518239
 20
191.3964259529769
 30
0.0
 11
336.8660757518239
 21
192.4444259529769
 31
0.0
  0
LINE
  5
422
330
1E
100
AcDbEntity
  8
0
100
AcDbLine
 10
336.8660757518239
 20
192.4444259529769
 30
0.0
 11
336.8660757518239
 21
191.3964259529769
 31
0.0
  0
LINE
  5
423
330
1E
100
AcDbEntity
  8
0
100
AcDbLine
 10
336.8660757518239
 20
192.4444259529769
 30
0.0
 11
336.8660757518239
 21
192.8844259529769
 31
0.0
  0
LINE
  5
424
330
1E
100
AcDbEntity
  8
0
100
AcDbLine
 10
336.8660757518239
 20
192.8844259529769
 30
0.0
 11
337.166075751824
 21
193.5844259529769
 31
0.0
  0
LINE
  5
425
330
1E
100
AcDbEntity
  8
0
100
AcDbLine
 10
336.8660757518239
 20
192.8844259529769
 30
0.0
 11
336.8660757518239
 21
192.4444259529769
 31
0.0
  0
LINE
  5
426
330
1E
100
AcDbEntity
  8
0
100
AcDbLine
 10
336.8660757518239
 20
189.6844259529769
 30
0.0
 11
336.8660757518239
 21
187.375425952977
 31
0.0
  0
LINE
  5
427
330
1E
100
AcDbEntity
  8
0
100
AcDbLine
 10
336.8660757518239
 20
189.6844259529769
 30
0.0
 11
336.8660757518239
 21
191.3964259529769
 31
0.0
  0
LINE
  5
428
330
1E
100
AcDbEntity
  8
0
100
AcDbLine
 10
336.8660757518239
 20
187.375425952977
 30
0.0
 11
336.8660757518239
 21
184.721425952977
 31
0.0
  0
LINE
  5
429
330
1E
100
AcDbEntity
  8
0
100
AcDbLine
 10
336.8660757518239
 20
187.375425952977
 30
0.0
 11
336.8660757518239
 21
189.6844259529769
 31
0.0
  0
LINE
  5
42A
330
1E
100
AcDbEntity
  8
0
100
AcDbLine
 10
336.8660757518239
 20
184.721425952977
 30
0.0
 11
336.8660757518239
 21
181.8844259529769
 31
0.0
  0
LINE
  5
42B
330
1E
100
AcDbEntity
  8
0
100
AcDbLine
 10
336.8660757518239
 20
184.721425952977
 30
0.0
 11
336.8660757518239
 21
187.375425952977
 31
0.0
  0
LINE
  5
42C
330
1E
100
AcDbEntity
  8
0
100
AcDbLine
 10
336.8660757518239
 20
181.8844259529769
 30
0.0
 11
336.8660757518239
 21
108.884425952977
 31
0.0
  0
LINE
  5
42D
330
1E
100
AcDbEntity
  8
0
100
AcDbLine
 10
336.8660757518239
 20
181.8844259529769
 30
0.0
 11
336.8660757518239
 21
184.721425952977
 31
0.0
  0
LINE
  5
42E
330
1E
100
AcDbEntity
  8
0
100
AcDbLine
 10
336.8660757518239
 20
143.084425952977
 30
0.0
 11
336.8660757518239
 21
144.384425952977
 31
0.0
  0
LINE
  5
42F
330
1E
100
AcDbEntity
  8
0
100
AcDbLine
 10
336.8660757518239
 20
143.084425952977
 30
0.0
 11
336.8660757518239
 21
139.5844259529769
 31
0.0
  0
LINE
  5
430
330
1E
100
AcDbEntity
  8
0
100
AcDbLine
 10
336.8660757518239
 20
139.5844259529769
 30
0.0
 11
336.8660757518239
 21
143.084425952977
 31
0.0
  0
LINE
  5
431
330
1E
100
AcDbEntity
  8
0
100
AcDbLine
 10
336.8660757518239
 20
139.5844259529769
 30
0.0
 11
336.8660757518239
 21
133.984425952977
 31
0.0
  0
LINE
  5
432
330
1E
100
AcDbEntity
  8
0
100
AcDbLine
 10
336.8660757518239
 20
133.984425952977
 30
0.0
 11
336.8660757518239
 21
139.5844259529769
 31
0.0
  0
LINE
  5
433
330
1E
100
AcDbEntity
  8
0
100
AcDbLine
 10
336.8660757518239
 20
133.984425952977
 30
0.0
 11
336.8660757518239
 21
126.584425952977
 31
0.0
  0
LINE
  5
434
330
1E
100
AcDbEntity
  8
0
100
AcDbLine
 10
336.8660757518239
 20
126.584425952977
 30
0.0
 11
336.8660757518239
 21
133.984425952977
 31
0.0
  0
LINE
  5
435
330
1E
100
AcDbEntity
  8
0
100
AcDbLine
 10
336.8660757518239
 20
126.584425952977
 30
0.0
 11
336.8660757518239
 21
119.842925952977
 31
0.0
  0
LINE
  5
436
330
1E
100
AcDbEntity
  8
0
100
AcDbLine
 10
336.8660757518239
 20
119.842925952977
 30
0.0
 11
336.8660757518239
 21
126.584425952977
 31
0.0
  0
LINE
  5
437
330
1E
100
AcDbEntity
  8
0
100
AcDbLine
 10
336.8660757518239
 20
119.842925952977
 30
0.0
 11
336.8660757518239
 21
121.349225952977
 31
0.0
  0
LINE
  5
438
330
1E
100
AcDbEntity
  8
0
100
AcDbLine
 10
336.8660757518239
 20
119.842925952977
 30
0.0
 11
336.8660757518239
 21
120.997125952977
 31
0.0
  0
LINE
  5
439
330
1E
100
AcDbEntity
  8
0
100
AcDbLine
 10
336.8660757518239
 20
102.616825952977
 30
0.0
 11
336.8660757518239
 21
108.884425952977
 31
0.0
  0
LINE
  5
43A
330
1E
100
AcDbEntity
  8
0
100
AcDbLine
 10
336.8660757518239
 20
102.616825952977
 30
0.0
 11
336.8660757518239
 21
96.77172595297729
 31
0.0
  0
LINE
  5
43B
330
1E
100
AcDbEntity
  8
0
100
AcDbLine
 10
336.8660757518239
 20
99.98442595297721
 30
0.0
 11
336.8660757518239
 21
108.884425952977
 31
0.0
  0
LINE
  5
43C
330
1E
100
AcDbEntity
  8
0
100
AcDbLine
 10
336.8660757518239
 20
99.98442595297721
 30
0.0
 11
336.8660757518239
 21
91.68442595297729
 31
0.0
  0
LINE
  5
43D
330
1E
100
AcDbEntity
  8
0
100
AcDbLine
 10
336.8660757518239
 20
108.884425952977
 30
0.0
 11
336.8660757518239
 21
35.88442595297729
 31
0.0
  0
LINE
  5
43E
330
1E
100
AcDbEntity
  8
0
100
AcDbLine
 10
336.8660757518239
 20
108.884425952977
 30
0.0
 11
336.8660757518239
 21
102.616825952977
 31
0.0
  0
LINE
  5
43F
330
1E
100
AcDbEntity
  8
0
100
AcDbLine
 10
336.8660757518239
 20
108.884425952977
 30
0.0
 11
336.8660757518239
 21
99.98442595297721
 31
0.0
  0
LINE
  5
440
330
1E
100
AcDbEntity
  8
0
100
AcDbLine
 10
336.8660757518239
 20
108.884425952977
 30
0.0
 11
336.8660757518239
 21
181.8844259529769
 31
0.0
  0
LINE
  5
441
330
1E
100
AcDbEntity
  8
0
100
AcDbLine
 10
336.8660757518239
 20
108.884425952977
 30
0.0
 11
336.8660757518239
 21
115.152025952977
 31
0.0
  0
LINE
  5
442
330
1E
100
AcDbEntity
  8
0
100
AcDbLine
 10
336.8660757518239
 20
108.884425952977
 30
0.0
 11
336.8660757518239
 21
117.784425952977
 31
0.0
  0
LINE
  5
443
330
1E
100
AcDbEntity
  8
0
100
AcDbLine
 10
336.8660757518239
 20
96.77172595297729
 30
0.0
 11
336.8660757518239
 21
97.7971259529772
 31
0.0
  0
LINE
  5
444
330
1E
100
AcDbEntity
  8
0
100
AcDbLine
 10
336.8660757518239
 20
96.77172595297729
 30
0.0
 11
336.8660757518239
 21
102.616825952977
 31
0.0
  0
LINE
  5
445
330
1E
100
AcDbEntity
  8
0
100
AcDbLine
 10
336.8660757518239
 20
96.77172595297729
 30
0.0
 11
336.8660757518239
 21
91.70132595297729
 31
0.0
  0
LINE
  5
446
330
1E
100
AcDbEntity
  8
0
100
AcDbLine
 10
336.8660757518239
 20
96.4196259529773
 30
0.0
 11
336.8660757518239
 21
91.2083259529772
 31
0.0
  0
LINE
  5
447
330
1E
100
AcDbEntity
  8
0
100
AcDbLine
 10
336.8660757518239
 20
96.4196259529773
 30
0.0
 11
336.8660757518239
 21
97.7971259529772
 31
0.0
  0
LINE
  5
448
330
1E
100
AcDbEntity
  8
0
100
AcDbLine
 10
336.8660757518239
 20
91.18442595297729
 30
0.0
 11
336.8660757518239
 21
83.7844259529773
 31
0.0
  0
LINE
  5
449
330
1E
100
AcDbEntity
  8
0
100
AcDbLine
 10
336.8660757518239
 20
91.18442595297729
 30
0.0
 11
336.8660757518239
 21
97.7971259529772
 31
0.0
  0
LINE
  5
44A
330
1E
100
AcDbEntity
  8
0
100
AcDbLine
 10
337.166075751824
 20
108.884425952977
 30
0.0
 11
337.166075751824
 21
35.88442595297729
 31
0.0
  0
LINE
  5
44B
330
1E
100
AcDbEntity
  8
0
100
AcDbLine
 10
337.166075751824
 20
108.884425952977
 30
0.0
 11
337.166075751824
 21
181.8844259529769
 31
0.0
  0
LINE
  5
44C
330
1E
100
AcDbEntity
  8
0
100
AcDbLine
 10
337.166075751824
 20
192.025425952977
 30
0.0
 11
337.166075751824
 21
190.1844259529769
 31
0.0
  0
LINE
  5
44D
330
1E
100
AcDbEntity
  8
0
100
AcDbLine
 10
337.166075751824
 20
192.025425952977
 30
0.0
 11
337.166075751824
 21
193.1434259529769
 31
0.0
  0
LINE
  5
44E
330
1E
100
AcDbEntity
  8
0
100
AcDbLine
 10
337.166075751824
 20
193.1434259529769
 30
0.0
 11
337.166075751824
 21
192.025425952977
 31
0.0
  0
LINE
  5
44F
330
1E
100
AcDbEntity
  8
0
100
AcDbLine
 10
337.166075751824
 20
193.1434259529769
 30
0.0
 11
337.166075751824
 21
193.5844259529769
 31
0.0
  0
LINE
  5
450
330
1E
100
AcDbEntity
  8
0
100
AcDbLine
 10
337.166075751824
 20
190.1844259529769
 30
0.0
 11
337.166075751824
 21
187.7254259529769
 31
0.0
  0
LINE
  5
451
330
1E
100
AcDbEntity
  8
0
100
AcDbLine
 10
337.166075751824
 20
190.1844259529769
 30
0.0
 11
337.166075751824
 21
192.025425952977
 31
0.0
  0
LINE
  5
452
330
1E
100
AcDbEntity
  8
0
100
AcDbLine
 10
337.166075751824
 20
187.7254259529769
 30
0.0
 11
337.166075751824
 21
184.9074259529769
 31
0.0
  0
LINE
  5
453
330
1E
100
AcDbEntity
  8
0
100
AcDbLine
 10
337.166075751824
 20
187.7254259529769
 30
0.0
 11
337.166075751824
 21
190.1844259529769
 31
0.0
  0
LINE
  5
454
330
1E
100
AcDbEntity
  8
0
100
AcDbLine
 10
337.166075751824
 20
184.9074259529769
 30
0.0
 11
337.166075751824
 21
181.8844259529769
 31
0.0
  0
LINE
  5
455
330
1E
100
AcDbEntity
  8
0
100
AcDbLine
 10
337.166075751824
 20
184.9074259529769
 30
0.0
 11
337.166075751824
 21
187.7254259529769
 31
0.0
  0
LINE
  5
456
330
1E
100
AcDbEntity
  8
0
100
AcDbLine
 10
337.166075751824
 20
181.8844259529769
 30
0.0
 11
337.166075751824
 21
108.884425952977
 31
0.0
  0
LINE
  5
457
330
1E
100
AcDbEntity
  8
0
100
AcDbLine
 10
337.166075751824
 20
181.8844259529769
 30
0.0
 11
337.166075751824
 21
184.9074259529769
 31
0.0
  0
LINE
  5
458
330
1E
100
AcDbEntity
  8
0
100
AcDbLine
 10
348.866075751824
 20
190.3844259529769
 30
0.0
 11
348.866075751824
 21
192.2844259529769
 31
0.0
  0
LINE
  5
459
330
1E
100
AcDbEntity
  8
0
100
AcDbLine
 10
348.866075751824
 20
190.3844259529769
 30
0.0
 11
348.866075751824
 21
187.8844259529769
 31
0.0
  0
LINE
  5
45A
330
1E
100
AcDbEntity
  8
0
100
AcDbLine
 10
348.866075751824
 20
192.2844259529769
 30
0.0
 11
348.866075751824
 21
193.4844259529769
 31
0.0
  0
LINE
  5
45B
330
1E
100
AcDbEntity
  8
0
100
AcDbLine
 10
348.866075751824
 20
192.2844259529769
 30
0.0
 11
348.866075751824
 21
190.3844259529769
 31
0.0
  0
LINE
  5
45C
330
1E
100
AcDbEntity
  8
0
100
AcDbLine
 10
348.866075751824
 20
193.8844259529769
 30
0.0
 11
348.866075751824
 21
193.4844259529769
 31
0.0
  0
LINE
  5
45D
330
1E
100
AcDbEntity
  8
0
100
AcDbLine
 10
348.866075751824
 20
193.4844259529769
 30
0.0
 11
348.866075751824
 21
193.8844259529769
 31
0.0
  0
LINE
  5
45E
330
1E
100
AcDbEntity
  8
0
100
AcDbLine
 10
348.866075751824
 20
193.4844259529769
 30
0.0
 11
348.866075751824
 21
192.2844259529769
 31
0.0
  0
LINE
  5
45F
330
1E
100
AcDbEntity
  8
0
100
AcDbLine
 10
337.866075751824
 20
193.8844259529769
 30
0.0
 11
348.866075751824
 21
193.8844259529769
 31
0.0
  0
LINE
  5
460
330
1E
100
AcDbEntity
  8
0
100
AcDbLine
 10
348.866075751824
 20
187.8844259529769
 30
0.0
 11
348.866075751824
 21
190.3844259529769
 31
0.0
  0
LINE
  5
461
330
1E
100
AcDbEntity
  8
0
100
AcDbLine
 10
348.866075751824
 20
187.8844259529769
 30
0.0
 11
348.866075751824
 21
184.9844259529769
 31
0.0
  0
LINE
  5
462
330
1E
100
AcDbEntity
  8
0
100
AcDbLine
 10
348.866075751824
 20
184.9844259529769
 30
0.0
 11
348.866075751824
 21
187.8844259529769
 31
0.0
  0
LINE
  5
463
330
1E
100
AcDbEntity
  8
0
100
AcDbLine
 10
348.866075751824
 20
184.9844259529769
 30
0.0
 11
348.866075751824
 21
181.8844259529769
 31
0.0
  0
LINE
  5
464
330
1E
100
AcDbEntity
  8
0
100
AcDbLine
 10
348.866075751824
 20
181.8844259529769
 30
0.0
 11
348.866075751824
 21
184.9844259529769
 31
0.0
  0
LINE
  5
465
330
1E
100
AcDbEntity
  8
0
100
AcDbLine
 10
348.866075751824
 20
181.8844259529769
 30
0.0
 11
348.866075751824
 21
108.884425952977
 31
0.0
  0
LINE
  5
466
330
1E
100
AcDbEntity
  8
0
100
AcDbLine
 10
337.166075751824
 20
193.5844259529769
 30
0.0
 11
337.866075751824
 21
193.8844259529769
 31
0.0
  0
LINE
  5
467
330
1E
100
AcDbEntity
  8
0
100
AcDbLine
 10
337.166075751824
 20
193.5844259529769
 30
0.0
 11
337.166075751824
 21
193.1434259529769
 31
0.0
  0
LINE
  5
468
330
1E
100
AcDbEntity
  8
0
100
AcDbLine
 10
348.866075751824
 20
108.884425952977
 30
0.0
 11
348.866075751824
 21
35.88442595297729
 31
0.0
  0
LINE
  5
469
330
1E
100
AcDbEntity
  8
0
100
AcDbLine
 10
348.866075751824
 20
108.884425952977
 30
0.0
 11
348.866075751824
 21
181.8844259529769
 31
0.0
  0
LINE
  5
46A
330
1E
100
AcDbEntity
  8
0
100
AcDbLine
 10
336.8660757518239
 20
97.7971259529772
 30
0.0
 11
336.8660757518239
 21
91.18442595297729
 31
0.0
  0
LINE
  5
46B
330
1E
100
AcDbEntity
  8
0
100
AcDbLine
 10
336.8660757518239
 20
97.7971259529772
 30
0.0
 11
336.8660757518239
 21
96.4196259529773
 31
0.0
  0
LINE
  5
46C
330
1E
100
AcDbEntity
  8
0
100
AcDbLine
 10
336.8660757518239
 20
97.7971259529772
 30
0.0
 11
336.8660757518239
 21
96.77172595297729
 31
0.0
  0
LINE
  5
46D
330
1E
100
AcDbEntity
  8
0
100
AcDbLine
 10
120.6673690072944
 20
66.44416846384337
 30
0.0
 11
120.761160544414
 21
65.9649436092107
 31
0.0
  0
LINE
  5
46E
330
1E
100
AcDbEntity
  8
0
100
AcDbLine
 10
110.4785817937179
 20
57.5192391243411
 30
0.0
 11
112.5388028772929
 21
56.558548057038
 31
0.0
  0
LINE
  5
46F
330
1E
100
AcDbEntity
  8
0
100
AcDbLine
 10
112.5388028772929
 20
56.558548057038
 30
0.0
 11
114.114239402709
 21
55.8239143766346
 31
0.0
  0
LINE
  5
471
330
1E
100
AcDbEntity
  8
0
100
AcDbLine
 10
103.9624353526769
 20
12.53151223434469
 30
0.0
 11
104.054050003149
 21
9.17866169251925
 31
0.0
  0
LINE
  5
472
330
1E
100
AcDbEntity
  8
0
100
AcDbLine
 10
100.461812596816
 20
1.47503719384709
 30
0.0
 11
104.054050003149
 21
9.17866169251925
 31
0.0
  0
LINE
  5
473
330
1E
100
AcDbEntity
  8
0
100
AcDbLine
 10
99.47098059917621
 20
1.716391606388089
 30
0.0
 11
100.292766130636
 21
1.112513688027219
 31
0.0
  0
LINE
  5
474
330
1E
100
AcDbEntity
  8
0
100
AcDbLine
 10
99.47098059917621
 20
1.716391606388089
 30
0.0
 11
100.461812596816
 21
1.47503719384709
 31
0.0
  0
LINE
  5
475
330
1E
100
AcDbEntity
  8
0
100
AcDbLine
 10
99.8278883486396
 20
0.115574047022587
 30
0.0
 11
100.292766130636
 21
1.112513688027219
 31
0.0
  0
LINE
  5
476
330
1E
100
AcDbEntity
  8
0
100
AcDbLine
 10
98.01527081954029
 20
0.9608063779244721
 30
0.0
 11
99.8278883486396
 21
0.115574047022587
 31
0.0
  0
LINE
  5
47B
330
1E
100
AcDbEntity
  8
0
100
AcDbLine
 10
115.889833051727
 20
55.5182850037525
 30
0.0
 11
120.761160544414
 21
65.9649436092107
 31
0.0
  0
LINE
  5
47C
330
1E
100
AcDbEntity
  8
0
100
AcDbLine
 10
100.9636803308699
 20
75.66927376007909
 30
0.0
 11
120.6673690072944
 21
66.44416846384337
 31
0.0
  0
LINE
  5
47D
330
1E
100
AcDbEntity
  8
0
100
AcDbLine
 10
96.36648704820069
 20
59.5758691159299
 30
0.0
 11
111.3495548826289
 21
52.58920055214439
 31
0.0
  0
ENDSEC
  0
SECTION
  2
OBJECTS
  0
DICTIONARY
  5
C
330
0
100
AcDbDictionary
281
     1
  3
ACAD_GROUP
350
D
  3
ACAD_LAYOUT
350
19
  3
ACAD_MLINESTYLE
350
16
  3
ACAD_PLOTSETTINGS
350
18
  3
ACAD_PLOTSTYLENAME
350
E
  3
AcDbVariableDictionary
350
47E
  0
DICTIONARY
  5
D
102
{ACAD_REACTORS
330
C
102
}
330
C
100
AcDbDictionary
281
     1
  0
DICTIONARY
  5
19
102
{ACAD_REACTORS
330
C
102
}
330
C
100
AcDbDictionary
281
     1
  3
Layout1
350
1D
  3
Model
350
21
  0
DICTIONARY
  5
16
102
{ACAD_REACTORS
330
C
102
}
330
C
100
AcDbDictionary
281
     1
  3
Standard
350
17
  0
DICTIONARY
  5
18
102
{ACAD_REACTORS
330
C
102
}
330
C
100
AcDbDictionary
281
     1
  0
ACDBDICTIONARYWDFLT
  5
E
102
{ACAD_REACTORS
330
C
102
}
330
C
100
AcDbDictionary
281
     1
  3
Normal
350
F
100
AcDbDictionaryWithDefault
340
F
  0
DICTIONARY
  5
47E
102
{ACAD_REACTORS
330
C
102
}
330
C
100
AcDbDictionary
281
     1
  3
DIMASSOC
350
47F
  0
LAYOUT
  5
1D
102
{ACAD_REACTORS
330
19
102
}
330
19
100
AcDbPlotSettings
  1

  2
hp deskjet 980c series
  4

  6

 40
0.0
 41
0.0
 42
0.0
 43
0.0
 44
0.0
 45
0.0
 46
0.0
 47
0.0
 48
0.0
 49
0.0
140
0.0
141
0.0
142
1.0
143
1.0
 70
   688
 72
     0
 73
     0
 74
     5
  7

 75
    16
147
1.0
148
0.0
149
0.0
100
AcDbLayout
  1
Layout1
 70
     1
 71
     1
 10
0.0
 20
0.0
 11
12.0
 21
9.0
 12
0.0
 22
0.0
 32
0.0
 14
1.000000000000000E+20
 24
1.000000000000000E+20
 34
1.000000000000000E+20
 15
-1.000000000000000E+20
 25
-1.000000000000000E+20
 35
-1.000000000000000E+20
146
0.0
 13
0.0
 23
0.0
 33
0.0
 16
1.0
 26
0.0
 36
0.0
 17
0.0
 27
1.0
 37
0.0
 76
     0
330
1A
  0
LAYOUT
  5
21
102
{ACAD_REACTORS
330
19
102
}
330
19
100
AcDbPlotSettings
  1

  2
hp deskjet 980c series
  4

  6

 40
0.0
 41
0.0
 42
0.0
 43
0.0
 44
0.0
 45
0.0
 46
0.0
 47
0.0
 48
0.0
 49
0.0
140
0.0
141
0.0
142
1.0
143
1.0
 70
  1712
 72
     0
 73
     0
 74
     0
  7

 75
     0
147
1.0
148
0.0
149
0.0
100
AcDbLayout
  1
Model
 70
     1
 71
     0
 10
0.0
 20
0.0
 11
12.0
 21
9.0
 12
0.0
 22
0.0
 32
0.0
 14
0.0
 24
0.0
 34
0.0
 15
0.0
 25
0.0
 35
0.0
146
0.0
 13
0.0
 23
0.0
 33
0.0
 16
1.0
 26
0.0
 36
0.0
 17
0.0
 27
1.0
 37
0.0
 76
     0
330
1E
  0
MLINESTYLE
  5
17
102
{ACAD_REACTORS
330
16
102
}
330
16
100
AcDbMlineStyle
  2
STANDARD
 70
     0
  3

 62
   256
 51
90.0
 52
90.0
 71
     2
 49
0.5
 62
   256
  6
BYLAYER
 49
-0.5
 62
   256
  6
BYLAYER
  0
ACDBPLACEHOLDER
  5
F
102
{ACAD_REACTORS
330
E
102
}
330
E
  0
DICTIONARYVAR
  5
47F
102
{ACAD_REACTORS
330
47E
102
}
330
47E
100
DictionaryVariables
280
     0
  1
1
  0
ENDSEC
  0
EOF
