  0
SECTION
  2
HEADER
  9
$ACADVER
  1
AC1015
  9
$ACADMAINTVER
 70
    13
  9
$DWGCODEPAGE
  3
ANSI_1252
  9
$INSBASE
 10
0.0
 20
0.0
 30
0.0
  9
$EXTMIN
 10
0.0000000000000012
 20
0.115574047022587
 30
0.0
  9
$EXTMAX
 10
170.0
 20
193.8844259529769
 30
0.0
  9
$LIMMIN
 10
0.0
 20
0.0
  9
$LIMMAX
 10
12.0
 20
9.0
  9
$ORTHOMODE
 70
     0
  9
$REGENMODE
 70
     1
  9
$FILLMODE
 70
     1
  9
$QTEXTMODE
 70
     0
  9
$MIRRTEXT
 70
     1
  9
$LTSCALE
 40
1.0
  9
$ATTMODE
 70
     1
  9
$TEXTSIZE
 40
0.2
  9
$TRACEWID
 40
0.05
  9
$TEXTSTYLE
  7
Standard
  9
$CLAYER
  8
0
  9
$CELTYPE
  6
Continuous
  9
$CECOLOR
 62
   256
  9
$CELTSCALE
 40
1.0
  9
$DISPSILH
 70
     0
  9
$DIMSCALE
 40
1.0
  9
$DIMASZ
 40
0.18
  9
$DIMEXO
 40
0.0625
  9
$DIMDLI
 40
0.38
  9
$DIMRND
 40
0.0
  9
$DIMDLE
 40
0.0
  9
$DIMEXE
 40
0.18
  9
$DIMTP
 40
0.0
  9
$DIMTM
 40
0.0
  9
$DIMTXT
 40
0.18
  9
$DIMCEN
 40
0.09
  9
$DIMTSZ
 40
0.0
  9
$DIMTOL
 70
     0
  9
$DIMLIM
 70
     0
  9
$DIMTIH
 70
     1
  9
$DIMTOH
 70
     1
  9
$DIMSE1
 70
     0
  9
$DIMSE2
 70
     0
  9
$DIMTAD
 70
     0
  9
$DIMZIN
 70
     0
  9
$DIMBLK
  1

  9
$DIMASO
 70
     1
  9
$DIMSHO
 70
     1
  9
$DIMPOST
  1

  9
$DIMAPOST
  1

  9
$DIMALT
 70
     0
  9
$DIMALTD
 70
     2
  9
$DIMALTF
 40
25.4
  9
$DIMLFAC
 40
1.0
  9
$DIMTOFL
 70
     0
  9
$DIMTVP
 40
0.0
  9
$DIMTIX
 70
     0
  9
$DIMSOXD
 70
     0
  9
$DIMSAH
 70
     0
  9
$DIMBLK1
  1

  9
$DIMBLK2
  1

  9
$DIMSTYLE
  2
Standard
  9
$DIMCLRD
 70
     0
  9
$DIMCLRE
 70
     0
  9
$DIMCLRT
 70
     0
  9
$DIMTFAC
 40
1.0
  9
$DIMGAP
 40
0.09
  9
$DIMJUST
 70
     0
  9
$DIMSD1
 70
     0
  9
$DIMSD2
 70
     0
  9
$DIMTOLJ
 70
     1
  9
$DIMTZIN
 70
     0
  9
$DIMALTZ
 70
     0
  9
$DIMALTTZ
 70
     0
  9
$DIMUPT
 70
     0
  9
$DIMDEC
 70
     4
  9
$DIMTDEC
 70
     4
  9
$DIMALTU
 70
     2
  9
$DIMALTTD
 70
     2
  9
$DIMTXSTY
  7
Standard
  9
$DIMAUNIT
 70
     0
  9
$DIMADEC
 70
     0
  9
$DIMALTRND
 40
0.0
  9
$DIMAZIN
 70
     0
  9
$DIMDSEP
 70
    46
  9
$DIMATFIT
 70
     3
  9
$DIMFRAC
 70
     0
  9
$DIMLDRBLK
  1

  9
$DIMLUNIT
 70
     2
  9
$DIMLWD
 70
    -2
  9
$DIMLWE
 70
    -2
  9
$DIMTMOVE
 70
     0
  9
$LUNITS
 70
     2
  9
$LUPREC
 70
     4
  9
$SKETCHINC
 40
0.1
  9
$FILLETRAD
 40
0.0
  9
$AUNITS
 70
     0
  9
$AUPREC
 70
     0
  9
$MENU
  1
.
  9
$ELEVATION
 40
0.0
  9
$PELEVATION
 40
0.0
  9
$THICKNESS
 40
0.0
  9
$LIMCHECK
 70
     0
  9
$CHAMFERA
 40
0.0
  9
$CHAMFERB
 40
0.0
  9
$CHAMFERC
 40
0.0
  9
$CHAMFERD
 40
0.0
  9
$SKPOLY
 70
     0
  9
$TDCREATE
 40
2454637.792509918
  9
$TDUCREATE
 40
2454637.709176585
  9
$TDUPDATE
 40
2454637.805229456
  9
$TDUUPDATE
 40
2454637.721896122
  9
$TDINDWG
 40
0.0127195370
  9
$TDUSRTIMER
 40
0.0127195370
  9
$USRTIMER
 70
     1
  9
$ANGBASE
 50
0.0
  9
$ANGDIR
 70
     0
  9
$PDMODE
 70
     0
  9
$PDSIZE
 40
0.0
  9
$PLINEWID
 40
0.0
  9
$SPLFRAME
 70
     0
  9
$SPLINETYPE
 70
     6
  9
$SPLINESEGS
 70
     8
  9
$HANDSEED
  5
866
  9
$SURFTAB1
 70
     6
  9
$SURFTAB2
 70
     6
  9
$SURFTYPE
 70
     6
  9
$SURFU
 70
     6
  9
$SURFV
 70
     6
  9
$UCSBASE
  2

  9
$UCSNAME
  2

  9
$UCSORG
 10
0.0
 20
0.0
 30
0.0
  9
$UCSXDIR
 10
1.0
 20
0.0
 30
0.0
  9
$UCSYDIR
 10
0.0
 20
1.0
 30
0.0
  9
$UCSORTHOREF
  2

  9
$UCSORTHOVIEW
 70
     1
  9
$UCSORGTOP
 10
0.0
 20
0.0
 30
0.0
  9
$UCSORGBOTTOM
 10
0.0
 20
0.0
 30
0.0
  9
$UCSORGLEFT
 10
0.0
 20
0.0
 30
0.0
  9
$UCSORGRIGHT
 10
0.0
 20
0.0
 30
0.0
  9
$UCSORGFRONT
 10
0.0
 20
0.0
 30
0.0
  9
$UCSORGBACK
 10
0.0
 20
0.0
 30
0.0
  9
$PUCSBASE
  2

  9
$PUCSNAME
  2

  9
$PUCSORG
 10
0.0
 20
0.0
 30
0.0
  9
$PUCSXDIR
 10
1.0
 20
0.0
 30
0.0
  9
$PUCSYDIR
 10
0.0
 20
1.0
 30
0.0
  9
$PUCSORTHOREF
  2

  9
$PUCSORTHOVIEW
 70
     0
  9
$PUCSORGTOP
 10
0.0
 20
0.0
 30
0.0
  9
$PUCSORGBOTTOM
 10
0.0
 20
0.0
 30
0.0
  9
$PUCSORGLEFT
 10
0.0
 20
0.0
 30
0.0
  9
$PUCSORGRIGHT
 10
0.0
 20
0.0
 30
0.0
  9
$PUCSORGFRONT
 10
0.0
 20
0.0
 30
0.0
  9
$PUCSORGBACK
 10
0.0
 20
0.0
 30
0.0
  9
$USERI1
 70
     0
  9
$USERI2
 70
     0
  9
$USERI3
 70
     0
  9
$USERI4
 70
     0
  9
$USERI5
 70
     0
  9
$USERR1
 40
0.0
  9
$USERR2
 40
0.0
  9
$USERR3
 40
0.0
  9
$USERR4
 40
0.0
  9
$USERR5
 40
0.0
  9
$WORLDVIEW
 70
     1
  9
$SHADEDGE
 70
     3
  9
$SHADEDIF
 70
    70
  9
$TILEMODE
 70
     1
  9
$MAXACTVP
 70
    64
  9
$PINSBASE
 10
0.0
 20
0.0
 30
0.0
  9
$PLIMCHECK
 70
     0
  9
$PEXTMIN
 10
1.000000000000000E+20
 20
1.000000000000000E+20
 30
1.000000000000000E+20
  9
$PEXTMAX
 10
-1.000000000000000E+20
 20
-1.000000000000000E+20
 30
-1.000000000000000E+20
  9
$PLIMMIN
 10
0.0
 20
0.0
  9
$PLIMMAX
 10
12.0
 20
9.0
  9
$UNITMODE
 70
     0
  9
$VISRETAIN
 70
     1
  9
$PLINEGEN
 70
     0
  9
$PSLTSCALE
 70
     1
  9
$TREEDEPTH
 70
  3020
  9
$CMLSTYLE
  2
Standard
  9
$CMLJUST
 70
     0
  9
$CMLSCALE
 40
1.0
  9
$PROXYGRAPHICS
 70
     1
  9
$MEASUREMENT
 70
     0
  9
$CELWEIGHT
370
    -1
  9
$ENDCAPS
280
     0
  9
$JOINSTYLE
280
     0
  9
$LWDISPLAY
290
     0
  9
$INSUNITS
 70
     0
  9
$HYPERLINKBASE
  1

  9
$STYLESHEET
  1

  9
$XEDIT
290
     1
  9
$CEPSNTYPE
380
     0
  9
$PSTYLEMODE
290
     1
  9
$FINGERPRINTGUID
  2
{687E568A-51F4-43BB-B718-782081FDA794}
  9
$VERSIONGUID
  2
{33A59715-D25A-48DB-A522-F9BFCAE00BF2}
  9
$EXTNAMES
290
     1
  9
$PSVPSCALE
 40
0.0
  9
$OLESTARTUP
290
     0
  0
ENDSEC
  0
SECTION
  2
CLASSES
  0
CLASS
  1
ACDBDICTIONARYWDFLT
  2
AcDbDictionaryWithDefault
  3
AutoCAD 2000
 90
        0
280
     0
281
     0
  0
CLASS
  1
ACDBPLACEHOLDER
  2
AcDbPlaceHolder
  3
AutoCAD 2000
 90
        0
280
     0
281
     0
  0
CLASS
  1
LAYOUT
  2
AcDbLayout
  3
AutoCAD 2000
 90
        0
280
     0
281
     0
  0
CLASS
  1
DICTIONARYVAR
  2
AcDbDictionaryVar
  3
AutoCAD 2000
 90
        0
280
     0
281
     0
  0
ENDSEC
  0
SECTION
  2
TABLES
  0
TABLE
  2
VPORT
  5
8
330
0
100
AcDbSymbolTable
 70
     2
  0
VPORT
  5
865
330
8
100
AcDbSymbolTableRecord
100
AcDbViewportTableRecord
  2
*Active
 70
     0
 10
0.0
 20
0.0
 11
1.0
 21
1.0
 12
85.0
 22
96.99999999999979
 13
0.0
 23
0.0
 14
1.0
 24
1.0
 15
0.0
 25
0.0
 16
0.0
 26
0.0
 36
1.0
 17
0.0
 27
0.0
 37
0.0
 40
195.2555694397596
 41
2.043533930857874
 42
50.0
 43
0.0
 44
0.0
 50
0.0
 51
0.0
 71
     0
 72
   100
 73
     1
 74
     3
 75
     0
 76
     0
 77
     0
 78
     0
281
     0
 65
     1
110
0.0
120
0.0
130
0.0
111
1.0
121
0.0
131
0.0
112
0.0
122
1.0
132
0.0
 79
     1
146
0.0
  0
ENDTAB
  0
TABLE
  2
LTYPE
  5
5
330
0
100
AcDbSymbolTable
 70
     1
  0
LTYPE
  5
13
330
5
100
AcDbSymbolTableRecord
100
AcDbLinetypeTableRecord
  2
ByBlock
 70
     0
  3

 72
    65
 73
     0
 40
0.0
  0
LTYPE
  5
14
330
5
100
AcDbSymbolTableRecord
100
AcDbLinetypeTableRecord
  2
ByLayer
 70
     0
  3

 72
    65
 73
     0
 40
0.0
  0
LTYPE
  5
15
330
5
100
AcDbSymbolTableRecord
100
AcDbLinetypeTableRecord
  2
Continuous
 70
     0
  3
Solid line
 72
    65
 73
     0
 40
0.0
  0
ENDTAB
  0
TABLE
  2
LAYER
  5
2
330
0
100
AcDbSymbolTable
 70
     1
  0
LAYER
  5
10
330
2
100
AcDbSymbolTableRecord
100
AcDbLayerTableRecord
  2
0
 70
     0
 62
     7
  6
Continuous
370
    -3
390
F
  0
ENDTAB
  0
TABLE
  2
STYLE
  5
3
330
0
100
AcDbSymbolTable
 70
     1
  0
STYLE
  5
11
330
3
100
AcDbSymbolTableRecord
100
AcDbTextStyleTableRecord
  2
Standard
 70
     0
 40
0.0
 41
1.0
 50
0.0
 71
     0
 42
0.2
  3
txt
  4

  0
ENDTAB
  0
TABLE
  2
VIEW
  5
6
330
0
100
AcDbSymbolTable
 70
     0
  0
ENDTAB
  0
TABLE
  2
UCS
  5
7
330
0
100
AcDbSymbolTable
 70
     0
  0
ENDTAB
  0
TABLE
  2
APPID
  5
9
330
0
100
AcDbSymbolTable
 70
     1
  0
APPID
  5
12
330
9
100
AcDbSymbolTableRecord
100
AcDbRegAppTableRecord
  2
ACAD
 70
     0
  0
ENDTAB
  0
TABLE
  2
DIMSTYLE
  5
A
330
0
100
AcDbSymbolTable
 70
     1
100
AcDbDimStyleTable
 71
     0
  0
DIMSTYLE
105
858
330
A
100
AcDbSymbolTableRecord
100
AcDbDimStyleTableRecord
  2
Standard
 70
     0
340
11
  0
ENDTAB
  0
TABLE
  2
BLOCK_RECORD
  5
1
330
0
100
AcDbSymbolTable
 70
     0
  0
BLOCK_RECORD
  5
1E
330
1
100
AcDbSymbolTableRecord
100
AcDbBlockTableRecord
  2
*Model_Space
340
21
  0
BLOCK_RECORD
  5
1A
330
1
100
AcDbSymbolTableRecord
100
AcDbBlockTableRecord
  2
*Paper_Space
340
1D
  0
ENDTAB
  0
ENDSEC
  0
SECTION
  2
BLOCKS
  0
BLOCK
  5
1F
330
1E
100
AcDbEntity
  8
0
100
AcDbBlockBegin
  2
*Model_Space
 70
     0
 10
0.0
 20
0.0
 30
0.0
  3
*Model_Space
  1

  0
ENDBLK
  5
20
330
1E
100
AcDbEntity
  8
0
100
AcDbBlockEnd
  0
BLOCK
  5
1B
330
1A
100
AcDbEntity
 67
     1
  8
0
100
AcDbBlockBegin
  2
*Paper_Space
 70
     0
 10
0.0
 20
0.0
 30
0.0
  3
*Paper_Space
  1

  0
ENDBLK
  5
1C
330
1A
100
AcDbEntity
 67
     1
  8
0
100
AcDbBlockEnd
  0
ENDSEC
  0
SECTION
  2
ENTITIES
  0
LINE
  5
22
330
1E
100
AcDbEntity
  8
0
100
AcDbLine
 10
36.0
 20
22.9063087645496
 30
0.0
 11
37.79999999999999
 21
17.5813450798677
 31
0.0
  0
LINE
  5
23
330
1E
100
AcDbEntity
  8
0
100
AcDbLine
 10
36.0
 20
22.9063087645496
 30
0.0
 11
36.0
 21
23.35946314682439
 31
0.0
  0
LINE
  5
24
330
1E
100
AcDbEntity
  8
0
100
AcDbLine
 10
36.0
 20
22.9063087645496
 30
0.0
 11
37.79999999999999
 21
28.2312724492315
 31
0.0
  0
LINE
  5
25
330
1E
100
AcDbEntity
  8
0
100
AcDbLine
 10
41.9216
 20
16.465545482104
 30
0.0
 11
42.8193
 21
16.7640815413786
 31
0.0
  0
LINE
  5
26
330
1E
100
AcDbEntity
  8
0
100
AcDbLine
 10
40.79089999999999
 20
16.534389655456
 30
0.0
 11
41.9216
 21
16.465545482104
 31
0.0
  0
LINE
  5
27
330
1E
100
AcDbEntity
  8
0
100
AcDbLine
 10
40.0844
 20
16.9137721871813
 30
0.0
 11
40.2474
 21
17.3916242854567
 31
0.0
  0
LINE
  5
28
330
1E
100
AcDbEntity
  8
0
100
AcDbLine
 10
40.0844
 20
16.9137721871813
 30
0.0
 11
40.79089999999999
 21
16.534389655456
 31
0.0
  0
LINE
  5
2A
330
1E
100
AcDbEntity
  8
0
100
AcDbLine
 10
40.2474
 20
17.3916242854567
 30
0.0
 11
41.1451
 21
17.6901603447312
 31
0.0
  0
LINE
  5
2D
330
1E
100
AcDbEntity
  8
0
100
AcDbLine
 10
45.64449999999999
 20
11.8849779112474
 30
0.0
 11
46.7789
 21
11.9421578784329
 31
0.0
  0
LINE
  5
2F
330
1E
100
AcDbEntity
  8
0
100
AcDbLine
 10
45.2789
 20
13.0401146762745
 30
0.0
 11
46.4132
 21
13.09729464346
 31
0.0
  0
LINE
  5
31
330
1E
100
AcDbEntity
  8
0
100
AcDbLine
 10
44.72979999999999
 20
12.1741741532655
 30
0.0
 11
45.64449999999999
 21
11.8849779112474
 31
0.0
  0
LINE
  5
32
330
1E
100
AcDbEntity
  8
0
100
AcDbLine
 10
44.59449999999999
 20
12.6535476697365
 30
0.0
 11
45.2789
 21
13.0401146762745
 31
0.0
  0
LINE
  5
33
330
1E
100
AcDbEntity
  8
0
100
AcDbLine
 10
44.59449999999999
 20
12.6535476697365
 30
0.0
 11
44.72979999999999
 21
12.1741741532655
 31
0.0
  0
LINE
  5
36
330
1E
100
AcDbEntity
  8
0
100
AcDbLine
 10
42.8193
 20
16.7640815413786
 30
0.0
 11
42.98219999999999
 21
17.2419336396539
 31
0.0
  0
LINE
  5
37
330
1E
100
AcDbEntity
  8
0
100
AcDbLine
 10
42.6
 20
12.5944743275466
 30
0.0
 11
50.4
 21
8.28378943994698
 31
0.0
  0
LINE
  5
39
330
1E
100
AcDbEntity
  8
0
100
AcDbLine
 10
38.95
 20
22.44374697372339
 30
0.0
 11
40.0
 21
22.6339242481763
 31
0.0
  0
LINE
  5
3B
330
1E
100
AcDbEntity
  8
0
100
AcDbLine
 10
38.5
 20
21.99999999999989
 30
0.0
 11
38.95
 21
21.55625302627639
 31
0.0
  0
LINE
  5
3C
330
1E
100
AcDbEntity
  8
0
100
AcDbLine
 10
38.5
 20
21.99999999999989
 30
0.0
 11
38.95
 21
22.44374697372339
 31
0.0
  0
LINE
  5
40
330
1E
100
AcDbEntity
  8
0
100
AcDbLine
 10
40.0
 20
21.36607575182349
 30
0.0
 11
41.04999999999999
 21
21.55625302627639
 31
0.0
  0
LINE
  5
41
330
1E
100
AcDbEntity
  8
0
100
AcDbLine
 10
41.04999999999999
 20
21.55625302627639
 30
0.0
 11
41.5
 21
21.99999999999989
 31
0.0
  0
LINE
  5
44
330
1E
100
AcDbEntity
  8
0
100
AcDbLine
 10
41.1451
 20
17.6901603447312
 30
0.0
 11
42.27579999999999
 21
17.62131617137919
 31
0.0
  0
LINE
  5
47
330
1E
100
AcDbEntity
  8
0
100
AcDbLine
 10
42.27579999999999
 20
17.62131617137919
 30
0.0
 11
42.98219999999999
 21
17.2419336396539
 31
0.0
  0
LINE
  5
49
330
1E
100
AcDbEntity
  8
0
100
AcDbLine
 10
45.83789999999999
 20
19.60136023438149
 30
0.0
 11
45.83789999999999
 21
19.5491829448031
 31
0.0
  0
LINE
  5
4A
330
1E
100
AcDbEntity
  8
0
100
AcDbLine
 10
45.83789999999999
 20
19.5491829448031
 30
0.0
 11
46.147
 21
20.013976203566
 31
0.0
  0
LINE
  5
4B
330
1E
100
AcDbEntity
  8
0
100
AcDbLine
 10
45.83789999999999
 20
19.5491829448031
 30
0.0
 11
46.4211
 21
19.1340470854806
 31
0.0
  0
LINE
  5
4C
330
1E
100
AcDbEntity
  8
0
100
AcDbLine
 10
45.83789999999999
 20
19.5491829448031
 30
0.0
 11
45.83789999999999
 21
19.60136023438149
 31
0.0
  0
LINE
  5
4D
330
1E
100
AcDbEntity
  8
0
100
AcDbLine
 10
46.147
 20
20.013976203566
 30
0.0
 11
47.1293
 21
20.260445951257
 31
0.0
  0
LINE
  5
4F
330
1E
100
AcDbEntity
  8
0
100
AcDbLine
 10
41.04999999999999
 20
22.44374697372339
 30
0.0
 11
41.5
 21
21.99999999999989
 31
0.0
  0
LINE
  5
53
330
1E
100
AcDbEntity
  8
0
100
AcDbLine
 10
40.0
 20
22.6339242481763
 30
0.0
 11
41.04999999999999
 21
22.44374697372339
 31
0.0
  0
LINE
  5
55
330
1E
100
AcDbEntity
  8
0
100
AcDbLine
 10
38.95
 20
21.55625302627639
 30
0.0
 11
40.0
 21
21.36607575182349
 31
0.0
  0
LINE
  5
56
330
1E
100
AcDbEntity
  8
0
100
AcDbLine
 10
37.79999999999999
 20
17.5813450798677
 30
0.0
 11
42.6
 21
12.5944743275466
 31
0.0
  0
LINE
  5
57
330
1E
100
AcDbEntity
  8
0
100
AcDbLine
 10
36.0
 20
23.35946314682439
 30
0.0
 11
37.79999999999999
 21
28.6844268315063
 31
0.0
  0
LINE
  5
58
330
1E
100
AcDbEntity
  8
0
100
AcDbLine
 10
36.0
 20
23.35946314682439
 30
0.0
 11
36.0
 21
22.9063087645496
 31
0.0
  0
LINE
  5
59
330
1E
100
AcDbEntity
  8
0
100
AcDbLine
 10
37.4
 20
11.82204183001369
 30
0.0
 11
46.2
 21
6.961955927327849
 31
0.0
  0
LINE
  5
5A
330
1E
100
AcDbEntity
  8
0
100
AcDbLine
 10
32.0
 20
17.4005752139661
 30
0.0
 11
37.4
 21
11.82204183001369
 31
0.0
  0
LINE
  5
5B
330
1E
100
AcDbEntity
  8
0
100
AcDbLine
 10
12.0
 20
23.8844259529773
 30
0.0
 11
30.0
 21
23.8844259529773
 31
0.0
  0
LINE
  5
5C
330
1E
100
AcDbEntity
  8
0
100
AcDbLine
 10
12.0
 20
24.18442595297729
 30
0.0
 11
30.0
 21
24.18442595297729
 31
0.0
  0
LINE
  5
5D
330
1E
100
AcDbEntity
  8
0
100
AcDbLine
 10
12.0
 20
24.18442595297729
 30
0.0
 11
30.0
 21
24.18442595297729
 31
0.0
  0
LINE
  5
5E
330
1E
100
AcDbEntity
  8
0
100
AcDbLine
 10
12.0
 20
23.8844259529773
 30
0.0
 11
30.0
 21
23.8844259529773
 31
0.0
  0
LINE
  5
5F
330
1E
100
AcDbEntity
  8
0
100
AcDbLine
 10
0.3000000000000011
 20
35.88442595297729
 30
0.0
 11
0.7411040000000011
 21
32.8612059529773
 31
0.0
  0
LINE
  5
60
330
1E
100
AcDbEntity
  8
0
100
AcDbLine
 10
0.3000000000000011
 20
35.88442595297729
 30
0.0
 11
0.3000000000000011
 21
108.884425952977
 31
0.0
  0
LINE
  5
61
330
1E
100
AcDbEntity
  8
0
100
AcDbLine
 10
0.3000000000000011
 20
35.88442595297729
 30
0.0
 11
0.7411040000000011
 21
32.8612059529773
 31
0.0
  0
LINE
  5
62
330
1E
100
AcDbEntity
  8
0
100
AcDbLine
 10
3.7
 20
27.58442595297729
 30
0.0
 11
6.15924
 21
25.7438259529773
 31
0.0
  0
LINE
  5
63
330
1E
100
AcDbEntity
  8
0
100
AcDbLine
 10
6.15924
 20
25.7438259529773
 30
0.0
 11
8.976779999999999
 21
24.6255299529773
 31
0.0
  0
LINE
  5
64
330
1E
100
AcDbEntity
  8
0
100
AcDbLine
 10
8.976779999999999
 20
24.6255299529773
 30
0.0
 11
12.0
 21
24.18442595297729
 31
0.0
  0
LINE
  5
65
330
1E
100
AcDbEntity
  8
0
100
AcDbLine
 10
6.0
 20
25.4844259529773
 30
0.0
 11
8.9
 21
24.2844259529773
 31
0.0
  0
LINE
  5
66
330
1E
100
AcDbEntity
  8
0
100
AcDbLine
 10
1.859399999999999
 20
30.0436659529773
 30
0.0
 11
3.7
 21
27.58442595297729
 31
0.0
  0
LINE
  5
67
330
1E
100
AcDbEntity
  8
0
100
AcDbLine
 10
0.7411040000000011
 20
32.8612059529773
 30
0.0
 11
1.859399999999999
 21
30.0436659529773
 31
0.0
  0
LINE
  5
68
330
1E
100
AcDbEntity
  8
0
100
AcDbLine
 10
1.6
 20
29.8844259529773
 30
0.0
 11
3.5
 21
27.3844259529772
 31
0.0
  0
LINE
  5
69
330
1E
100
AcDbEntity
  8
0
100
AcDbLine
 10
0.4000000000000011
 20
32.7844259529773
 30
0.0
 11
1.6
 21
29.8844259529773
 31
0.0
  0
LINE
  5
6A
330
1E
100
AcDbEntity
  8
0
100
AcDbLine
 10
0.0000000000000012
 20
181.8844259529769
 30
0.0
 11
0.4000000000000011
 21
184.9844259529769
 31
0.0
  0
LINE
  5
6B
330
1E
100
AcDbEntity
  8
0
100
AcDbLine
 10
0.0000000000000012
 20
181.8844259529769
 30
0.0
 11
0.0000000000000012
 21
108.884425952977
 31
0.0
  0
LINE
  5
6C
330
1E
100
AcDbEntity
  8
0
100
AcDbLine
 10
0.3000000000000011
 20
181.8844259529769
 30
0.0
 11
0.7411040000000011
 21
184.9074259529769
 31
0.0
  0
LINE
  5
6D
330
1E
100
AcDbEntity
  8
0
100
AcDbLine
 10
0.3000000000000011
 20
181.8844259529769
 30
0.0
 11
0.7411040000000011
 21
184.9074259529769
 31
0.0
  0
LINE
  5
6E
330
1E
100
AcDbEntity
  8
0
100
AcDbLine
 10
0.3000000000000011
 20
181.8844259529769
 30
0.0
 11
0.3000000000000011
 21
108.884425952977
 31
0.0
  0
LINE
  5
6F
330
1E
100
AcDbEntity
  8
0
100
AcDbLine
 10
0.7411040000000011
 20
184.9074259529769
 30
0.0
 11
1.859399999999999
 21
187.7254259529769
 31
0.0
  0
LINE
  5
70
330
1E
100
AcDbEntity
  8
0
100
AcDbLine
 10
1.859399999999999
 20
187.7254259529769
 30
0.0
 11
3.7
 21
190.1844259529769
 31
0.0
  0
LINE
  5
71
330
1E
100
AcDbEntity
  8
0
100
AcDbLine
 10
0.4000000000000011
 20
184.9844259529769
 30
0.0
 11
1.6
 21
187.8844259529769
 31
0.0
  0
LINE
  5
72
330
1E
100
AcDbEntity
  8
0
100
AcDbLine
 10
0.4000000000000011
 20
184.9844259529769
 30
0.0
 11
1.6
 21
187.8844259529769
 31
0.0
  0
LINE
  5
73
330
1E
100
AcDbEntity
  8
0
100
AcDbLine
 10
1.6
 20
187.8844259529769
 30
0.0
 11
3.5
 21
190.3844259529769
 31
0.0
  0
LINE
  5
74
330
1E
100
AcDbEntity
  8
0
100
AcDbLine
 10
3.7
 20
190.1844259529769
 30
0.0
 11
6.15924
 21
192.025425952977
 31
0.0
  0
LINE
  5
75
330
1E
100
AcDbEntity
  8
0
100
AcDbLine
 10
3.5
 20
190.3844259529769
 30
0.0
 11
6.0
 21
192.2844259529769
 31
0.0
  0
LINE
  5
76
330
1E
100
AcDbEntity
  8
0
100
AcDbLine
 10
6.15924
 20
192.025425952977
 30
0.0
 11
8.976779999999999
 21
193.1434259529769
 31
0.0
  0
LINE
  5
77
330
1E
100
AcDbEntity
  8
0
100
AcDbLine
 10
8.976779999999999
 20
193.1434259529769
 30
0.0
 11
12.0
 21
193.5844259529769
 31
0.0
  0
LINE
  5
78
330
1E
100
AcDbEntity
  8
0
100
AcDbLine
 10
6.0
 20
192.2844259529769
 30
0.0
 11
8.9
 21
193.4844259529769
 31
0.0
  0
LINE
  5
79
330
1E
100
AcDbEntity
  8
0
100
AcDbLine
 10
12.0
 20
193.5844259529769
 30
0.0
 11
85.0
 21
193.5844259529769
 31
0.0
  0
LINE
  5
7A
330
1E
100
AcDbEntity
  8
0
100
AcDbLine
 10
12.0
 20
193.8844259529769
 30
0.0
 11
85.0
 21
193.8844259529769
 31
0.0
  0
LINE
  5
7B
330
1E
100
AcDbEntity
  8
0
100
AcDbLine
 10
12.0
 20
193.5844259529769
 30
0.0
 11
85.0
 21
193.5844259529769
 31
0.0
  0
LINE
  5
7C
330
1E
100
AcDbEntity
  8
0
100
AcDbLine
 10
8.9
 20
193.4844259529769
 30
0.0
 11
12.0
 21
193.8844259529769
 31
0.0
  0
LINE
  5
7D
330
1E
100
AcDbEntity
  8
0
100
AcDbLine
 10
12.0
 20
193.8844259529769
 30
0.0
 11
85.0
 21
193.8844259529769
 31
0.0
  0
LINE
  5
7E
330
1E
100
AcDbEntity
  8
0
100
AcDbLine
 10
0.3000000000000011
 20
108.884425952977
 30
0.0
 11
0.3000000000000011
 21
35.88442595297729
 31
0.0
  0
LINE
  5
7F
330
1E
100
AcDbEntity
  8
0
100
AcDbLine
 10
0.3000000000000011
 20
108.884425952977
 30
0.0
 11
0.3000000000000011
 21
181.8844259529769
 31
0.0
  0
LINE
  5
80
330
1E
100
AcDbEntity
  8
0
100
AcDbLine
 10
0.0000000000000012
 20
108.884425952977
 30
0.0
 11
0.0000000000000012
 21
35.88442595297729
 31
0.0
  0
LINE
  5
81
330
1E
100
AcDbEntity
  8
0
100
AcDbLine
 10
0.0000000000000012
 20
108.884425952977
 30
0.0
 11
0.0000000000000012
 21
181.8844259529769
 31
0.0
  0
LINE
  5
82
330
1E
100
AcDbEntity
  8
0
100
AcDbLine
 10
0.0000000000000012
 20
35.88442595297729
 30
0.0
 11
0.0000000000000012
 21
108.884425952977
 31
0.0
  0
LINE
  5
83
330
1E
100
AcDbEntity
  8
0
100
AcDbLine
 10
0.0000000000000012
 20
35.88442595297729
 30
0.0
 11
0.4000000000000011
 21
32.7844259529773
 31
0.0
  0
LINE
  5
84
330
1E
100
AcDbEntity
  8
0
100
AcDbLine
 10
30.0
 20
32.42255079232109
 30
0.0
 11
30.0
 21
24.71892629364889
 31
0.0
  0
LINE
  5
85
330
1E
100
AcDbEntity
  8
0
100
AcDbLine
 10
30.0
 20
32.42255079232109
 30
0.0
 11
32.0
 21
38.3814387251794
 31
0.0
  0
LINE
  5
86
330
1E
100
AcDbEntity
  8
0
100
AcDbLine
 10
30.0
 20
24.356402787829
 30
0.0
 11
30.0
 21
23.35946314682439
 31
0.0
  0
LINE
  5
87
330
1E
100
AcDbEntity
  8
0
100
AcDbLine
 10
30.0
 20
24.356402787829
 30
0.0
 11
32.0
 21
30.3152907206873
 31
0.0
  0
LINE
  5
88
330
1E
100
AcDbEntity
  8
0
100
AcDbLine
 10
37.79999999999999
 20
28.2312724492315
 30
0.0
 11
42.6
 21
33.2181432015526
 31
0.0
  0
LINE
  5
89
330
1E
100
AcDbEntity
  8
0
100
AcDbLine
 10
46.147
 20
23.442238537704
 30
0.0
 11
47.1293
 21
23.1957687900131
 31
0.0
  0
LINE
  5
8A
330
1E
100
AcDbEntity
  8
0
100
AcDbLine
 10
41.1451
 20
26.3098396552686
 30
0.0
 11
42.27579999999999
 21
26.3786838286206
 31
0.0
  0
LINE
  5
8B
330
1E
100
AcDbEntity
  8
0
100
AcDbLine
 10
42.27579999999999
 20
26.3786838286206
 30
0.0
 11
42.98219999999999
 21
26.7580663603459
 31
0.0
  0
LINE
  5
90
330
1E
100
AcDbEntity
  8
0
100
AcDbLine
 10
42.8193
 20
27.2359184586213
 30
0.0
 11
42.98219999999999
 21
26.7580663603459
 31
0.0
  0
LINE
  5
94
330
1E
100
AcDbEntity
  8
0
100
AcDbLine
 10
41.9216
 20
27.5344545178958
 30
0.0
 11
42.8193
 21
27.2359184586213
 31
0.0
  0
LINE
  5
96
330
1E
100
AcDbEntity
  8
0
100
AcDbLine
 10
40.79089999999999
 20
27.4656103445439
 30
0.0
 11
41.9216
 21
27.5344545178958
 31
0.0
  0
LINE
  5
98
330
1E
100
AcDbEntity
  8
0
100
AcDbLine
 10
40.0844
 20
27.0862278128186
 30
0.0
 11
40.2474
 21
26.6083757145432
 31
0.0
  0
LINE
  5
99
330
1E
100
AcDbEntity
  8
0
100
AcDbLine
 10
40.0844
 20
27.0862278128186
 30
0.0
 11
40.79089999999999
 21
27.4656103445439
 31
0.0
  0
LINE
  5
9B
330
1E
100
AcDbEntity
  8
0
100
AcDbLine
 10
40.2474
 20
26.6083757145432
 30
0.0
 11
41.1451
 21
26.3098396552686
 31
0.0
  0
LINE
  5
9D
330
1E
100
AcDbEntity
  8
0
100
AcDbLine
 10
45.83789999999999
 20
23.90703179646699
 30
0.0
 11
46.147
 21
23.442238537704
 31
0.0
  0
LINE
  5
9E
330
1E
100
AcDbEntity
  8
0
100
AcDbLine
 10
45.83789999999999
 20
23.90703179646699
 30
0.0
 11
46.4211
 21
24.32216765578949
 31
0.0
  0
LINE
  5
A2
330
1E
100
AcDbEntity
  8
0
100
AcDbLine
 10
37.79999999999999
 20
28.6844268315063
 30
0.0
 11
42.6
 21
33.6712975838274
 31
0.0
  0
LINE
  5
A3
330
1E
100
AcDbEntity
  8
0
100
AcDbLine
 10
35.8
 20
44.30298391157609
 30
0.0
 11
40.8
 21
49.50116274662271
 31
0.0
  0
LINE
  5
A4
330
1E
100
AcDbEntity
  8
0
100
AcDbLine
 10
33.39999999999999
 20
40.93131855264799
 30
0.0
 11
35.8
 21
44.30298391157609
 31
0.0
  0
LINE
  5
A5
330
1E
100
AcDbEntity
  8
0
100
AcDbLine
 10
32.0
 20
38.3814387251794
 30
0.0
 11
33.39999999999999
 21
40.93131855264799
 31
0.0
  0
LINE
  5
A6
330
1E
100
AcDbEntity
  8
0
100
AcDbLine
 10
37.4
 20
36.2563476104596
 30
0.0
 11
46.2
 21
41.1164335131455
 31
0.0
  0
LINE
  5
A7
330
1E
100
AcDbEntity
  8
0
100
AcDbLine
 10
32.0
 20
30.6778142265072
 30
0.0
 11
37.4
 21
36.2563476104596
 31
0.0
  0
LINE
  5
A8
330
1E
100
AcDbEntity
  8
0
100
AcDbLine
 10
37.4
 20
35.89382410463979
 30
0.0
 11
46.2
 21
40.7539100073256
 31
0.0
  0
LINE
  5
A9
330
1E
100
AcDbEntity
  8
0
100
AcDbLine
 10
32.0
 20
30.3152907206873
 30
0.0
 11
37.4
 21
35.89382410463979
 31
0.0
  0
LINE
  5
AA
330
1E
100
AcDbEntity
  8
0
100
AcDbLine
 10
45.2789
 20
30.9598853237253
 30
0.0
 11
46.4132
 21
30.9027053565398
 31
0.0
  0
LINE
  5
AE
330
1E
100
AcDbEntity
  8
0
100
AcDbLine
 10
45.64449999999999
 20
32.1150220887524
 30
0.0
 11
46.7789
 21
32.05784212156689
 31
0.0
  0
LINE
  5
B0
330
1E
100
AcDbEntity
  8
0
100
AcDbLine
 10
44.72979999999999
 20
31.8258258467343
 30
0.0
 11
45.64449999999999
 21
32.1150220887524
 31
0.0
  0
LINE
  5
B2
330
1E
100
AcDbEntity
  8
0
100
AcDbLine
 10
44.59449999999999
 20
31.3464523302633
 30
0.0
 11
45.2789
 21
30.9598853237253
 31
0.0
  0
LINE
  5
B3
330
1E
100
AcDbEntity
  8
0
100
AcDbLine
 10
44.59449999999999
 20
31.3464523302633
 30
0.0
 11
44.72979999999999
 21
31.8258258467343
 31
0.0
  0
LINE
  5
B5
330
1E
100
AcDbEntity
  8
0
100
AcDbLine
 10
42.6
 20
33.2181432015526
 30
0.0
 11
50.4
 21
37.5288280891522
 31
0.0
  0
LINE
  5
B6
330
1E
100
AcDbEntity
  8
0
100
AcDbLine
 10
46.2
 20
41.1164335131455
 30
0.0
 11
57.7
 21
44.8354557691138
 31
0.0
  0
LINE
  5
B7
330
1E
100
AcDbEntity
  8
0
100
AcDbLine
 10
46.2
 20
40.7539100073256
 30
0.0
 11
57.7
 21
44.4729322632939
 31
0.0
  0
LINE
  5
B8
330
1E
100
AcDbEntity
  8
0
100
AcDbLine
 10
46.2
 20
39.756970366321
 30
0.0
 11
57.7
 21
43.47599262228929
 31
0.0
  0
LINE
  5
B9
330
1E
100
AcDbEntity
  8
0
100
AcDbLine
 10
44.29999999999999
 20
52.28116547391949
 30
0.0
 11
51.79999999999999
 21
56.42280389533871
 31
0.0
  0
LINE
  5
BA
330
1E
100
AcDbEntity
  8
0
100
AcDbLine
 10
40.8
 20
49.50116274662271
 30
0.0
 11
44.29999999999999
 21
52.28116547391949
 31
0.0
  0
LINE
  5
BB
330
1E
100
AcDbEntity
  8
0
100
AcDbLine
 10
42.6
 20
33.6712975838274
 30
0.0
 11
50.4
 21
37.981982471427
 31
0.0
  0
LINE
  5
BC
330
1E
100
AcDbEntity
  8
0
100
AcDbLine
 10
37.4
 20
34.8968844636351
 30
0.0
 11
46.2
 21
39.756970366321
 31
0.0
  0
LINE
  5
BD
330
1E
100
AcDbEntity
  8
0
100
AcDbLine
 10
32.0
 20
29.3183510796827
 30
0.0
 11
37.4
 21
34.8968844636351
 31
0.0
  0
LINE
  5
BE
330
1E
100
AcDbEntity
  8
0
100
AcDbLine
 10
30.0
 20
24.71892629364889
 30
0.0
 11
30.06083744314449
 21
24.537664540739
 31
0.0
  0
LINE
  5
BF
330
1E
100
AcDbEntity
  8
0
100
AcDbLine
 10
30.0
 20
24.71892629364889
 30
0.0
 11
30.06083744314449
 21
24.537664540739
 31
0.0
  0
LINE
  5
C0
330
1E
100
AcDbEntity
  8
0
100
AcDbLine
 10
30.0
 20
24.71892629364889
 30
0.0
 11
30.0
 21
32.42255079232109
 31
0.0
  0
LINE
  5
C1
330
1E
100
AcDbEntity
  8
0
100
AcDbLine
 10
30.0
 20
24.71892629364889
 30
0.0
 11
32.0
 21
30.6778142265072
 31
0.0
  0
LINE
  5
C2
330
1E
100
AcDbEntity
  8
0
100
AcDbLine
 10
30.0
 20
23.35946314682439
 30
0.0
 11
32.0
 21
17.4005752139661
 31
0.0
  0
LINE
  5
C3
330
1E
100
AcDbEntity
  8
0
100
AcDbLine
 10
30.0
 20
23.35946314682439
 30
0.0
 11
30.0
 21
24.356402787829
 31
0.0
  0
LINE
  5
C4
330
1E
100
AcDbEntity
  8
0
100
AcDbLine
 10
30.0
 20
23.35946314682439
 30
0.0
 11
32.0
 21
29.3183510796827
 31
0.0
  0
LINE
  5
C5
330
1E
100
AcDbEntity
  8
0
100
AcDbLine
 10
54.2409
 20
8.104169171890209
 30
0.0
 11
54.6651
 21
8.552438138584019
 31
0.0
  0
LINE
  5
C6
330
1E
100
AcDbEntity
  8
0
100
AcDbLine
 10
53.1802
 20
7.92489539450592
 30
0.0
 11
54.2409
 21
8.104169171890209
 31
0.0
  0
LINE
  5
C7
330
1E
100
AcDbEntity
  8
0
100
AcDbLine
 10
52.1195
 20
8.104169171890209
 30
0.0
 11
53.1802
 21
7.92489539450592
 31
0.0
  0
LINE
  5
C9
330
1E
100
AcDbEntity
  8
0
100
AcDbLine
 10
46.4132
 20
13.09729464346
 30
0.0
 11
47.3279
 21
12.8080984014419
 31
0.0
  0
LINE
  5
CB
330
1E
100
AcDbEntity
  8
0
100
AcDbLine
 10
46.7789
 20
11.9421578784329
 30
0.0
 11
47.46319999999999
 21
12.3287248849709
 31
0.0
  0
LINE
  5
CC
330
1E
100
AcDbEntity
  8
0
100
AcDbLine
 10
47.1293
 20
20.260445951257
 30
0.0
 11
48.2291
 21
20.1298152945161
 31
0.0
  0
LINE
  5
CD
330
1E
100
AcDbEntity
  8
0
100
AcDbLine
 10
46.4211
 20
19.1340470854806
 30
0.0
 11
47.52089999999999
 21
19.0034164287397
 31
0.0
  0
LINE
  5
D1
330
1E
100
AcDbEntity
  8
0
100
AcDbLine
 10
47.3279
 20
12.8080984014419
 30
0.0
 11
47.46319999999999
 21
12.3287248849709
 31
0.0
  0
LINE
  5
D3
330
1E
100
AcDbEntity
  8
0
100
AcDbLine
 10
48.2291
 20
20.1298152945161
 30
0.0
 11
48.8123
 21
19.7146794351936
 31
0.0
  0
LINE
  5
D4
330
1E
100
AcDbEntity
  8
0
100
AcDbLine
 10
48.50319999999999
 20
19.24988617643069
 30
0.0
 11
48.8123
 21
19.7146794351936
 31
0.0
  0
LINE
  5
D5
330
1E
100
AcDbEntity
  8
0
100
AcDbLine
 10
47.52089999999999
 20
19.0034164287397
 30
0.0
 11
48.50319999999999
 21
19.24988617643069
 31
0.0
  0
LINE
  5
D6
330
1E
100
AcDbEntity
  8
0
100
AcDbLine
 10
47.1293
 20
23.1957687900131
 30
0.0
 11
48.2291
 21
23.32639944675389
 31
0.0
  0
LINE
  5
D7
330
1E
100
AcDbEntity
  8
0
100
AcDbLine
 10
48.2291
 20
23.32639944675389
 30
0.0
 11
48.8123
 21
23.74153530607639
 31
0.0
  0
LINE
  5
D8
330
1E
100
AcDbEntity
  8
0
100
AcDbLine
 10
48.5068
 20
15.53555162265779
 30
0.0
 11
48.5068
 21
15.3398414136786
 31
0.0
  0
LINE
  5
D9
330
1E
100
AcDbEntity
  8
0
100
AcDbLine
 10
48.5068
 20
15.3398414136786
 30
0.0
 11
48.5207
 21
15.8225958594732
 31
0.0
  0
LINE
  5
DA
330
1E
100
AcDbEntity
  8
0
100
AcDbLine
 10
48.5068
 20
15.3398414136786
 30
0.0
 11
49.3243
 21
15.0026359752653
 31
0.0
  0
LINE
  5
DB
330
1E
100
AcDbEntity
  8
0
100
AcDbLine
 10
48.5068
 20
15.3398414136786
 30
0.0
 11
48.5068
 21
15.53555162265779
 31
0.0
  0
LINE
  5
DE
330
1E
100
AcDbEntity
  8
0
100
AcDbLine
 10
49.3186
 20
16.1680845747293
 30
0.0
 11
50.46079999999999
 21
16.16221021002959
 31
0.0
  0
LINE
  5
DF
330
1E
100
AcDbEntity
  8
0
100
AcDbLine
 10
48.5207
 20
15.8225958594732
 30
0.0
 11
49.3186
 21
16.1680845747293
 31
0.0
  0
LINE
  5
E1
330
1E
100
AcDbEntity
  8
0
100
AcDbLine
 10
48.50319999999999
 20
24.2063285648393
 30
0.0
 11
48.8123
 21
23.74153530607639
 31
0.0
  0
LINE
  5
E5
330
1E
100
AcDbEntity
  8
0
100
AcDbLine
 10
47.52089999999999
 20
24.4527983125303
 30
0.0
 11
48.50319999999999
 21
24.2063285648393
 31
0.0
  0
LINE
  5
E7
330
1E
100
AcDbEntity
  8
0
100
AcDbLine
 10
46.4211
 20
24.32216765578949
 30
0.0
 11
47.52089999999999
 21
24.4527983125303
 31
0.0
  0
LINE
  5
E9
330
1E
100
AcDbEntity
  8
0
100
AcDbLine
 10
49.3243
 20
15.0026359752653
 30
0.0
 11
50.4666
 21
14.9967616105655
 31
0.0
  0
LINE
  5
EA
330
1E
100
AcDbEntity
  8
0
100
AcDbLine
 10
49.3186
 20
27.2881301665407
 30
0.0
 11
50.46079999999999
 21
27.2940045312405
 31
0.0
  0
LINE
  5
EC
330
1E
100
AcDbEntity
  8
0
100
AcDbLine
 10
46.4132
 20
30.9027053565398
 30
0.0
 11
47.3279
 21
31.1919015985579
 31
0.0
  0
LINE
  5
EF
330
1E
100
AcDbEntity
  8
0
100
AcDbLine
 10
47.3279
 20
31.1919015985579
 30
0.0
 11
47.46319999999999
 21
31.6712751150289
 31
0.0
  0
LINE
  5
F0
330
1E
100
AcDbEntity
  8
0
100
AcDbLine
 10
46.7789
 20
32.05784212156689
 30
0.0
 11
47.46319999999999
 21
31.6712751150289
 31
0.0
  0
LINE
  5
F4
330
1E
100
AcDbEntity
  8
0
100
AcDbLine
 10
49.3243
 20
28.4535787660048
 30
0.0
 11
50.4666
 21
28.45945313070449
 31
0.0
  0
LINE
  5
F6
330
1E
100
AcDbEntity
  8
0
100
AcDbLine
 10
48.5068
 20
28.1163733275915
 30
0.0
 11
48.5207
 21
27.6336188817968
 31
0.0
  0
LINE
  5
F7
330
1E
100
AcDbEntity
  8
0
100
AcDbLine
 10
48.5068
 20
28.1163733275915
 30
0.0
 11
49.3243
 21
28.4535787660048
 31
0.0
  0
LINE
  5
F9
330
1E
100
AcDbEntity
  8
0
100
AcDbLine
 10
48.5207
 20
27.6336188817968
 30
0.0
 11
49.3186
 21
27.2881301665407
 31
0.0
  0
LINE
  5
FB
330
1E
100
AcDbEntity
  8
0
100
AcDbLine
 10
50.46079999999999
 20
16.16221021002959
 30
0.0
 11
51.27839999999999
 21
15.8250470332328
 31
0.0
  0
LINE
  5
FF
330
1E
100
AcDbEntity
  8
0
100
AcDbLine
 10
52.1195
 20
9.00070710527784
 30
0.0
 11
53.1802
 21
9.17998088266213
 31
0.0
  0
LINE
  5
100
330
1E
100
AcDbEntity
  8
0
100
AcDbLine
 10
53.1802
 20
9.17998088266213
 30
0.0
 11
54.2409
 21
9.00070710527784
 31
0.0
  0
LINE
  5
102
330
1E
100
AcDbEntity
  8
0
100
AcDbLine
 10
51.6953
 20
8.552438138584019
 30
0.0
 11
52.1195
 21
9.00070710527784
 31
0.0
  0
LINE
  5
103
330
1E
100
AcDbEntity
  8
0
100
AcDbLine
 10
51.6953
 20
8.552438138584019
 30
0.0
 11
52.1195
 21
8.104169171890209
 31
0.0
  0
LINE
  5
106
330
1E
100
AcDbEntity
  8
0
100
AcDbLine
 10
54.2409
 20
9.00070710527784
 30
0.0
 11
54.6651
 21
8.552438138584019
 31
0.0
  0
LINE
  5
10A
330
1E
100
AcDbEntity
  8
0
100
AcDbLine
 10
54.6588
 20
11.3295520964815
 30
0.0
 11
55.7657
 21
11.4488143783718
 31
0.0
  0
LINE
  5
10C
330
1E
100
AcDbEntity
  8
0
100
AcDbLine
 10
53.9394
 20
12.45468311376149
 30
0.0
 11
55.0464
 21
12.5739453956518
 31
0.0
  0
LINE
  5
10D
330
1E
100
AcDbEntity
  8
0
100
AcDbLine
 10
55.0464
 20
12.5739453956518
 30
0.0
 11
56.0426
 21
12.33766069754819
 31
0.0
  0
LINE
  5
10F
330
1E
100
AcDbEntity
  8
0
100
AcDbLine
 10
53.6625
 20
11.5658367945851
 30
0.0
 11
54.6588
 21
11.3295520964815
 31
0.0
  0
LINE
  5
110
330
1E
100
AcDbEntity
  8
0
100
AcDbLine
 10
53.3804
 20
12.0336728897393
 30
0.0
 11
53.9394
 21
12.45468311376149
 31
0.0
  0
LINE
  5
111
330
1E
100
AcDbEntity
  8
0
100
AcDbLine
 10
53.3804
 20
12.0336728897393
 30
0.0
 11
53.6625
 21
11.5658367945851
 31
0.0
  0
LINE
  5
113
330
1E
100
AcDbEntity
  8
0
100
AcDbLine
 10
54.3138
 20
17.6125426870761
 30
0.0
 11
55.4445
 21
17.54369851372409
 31
0.0
  0
LINE
  5
114
330
1E
100
AcDbEntity
  8
0
100
AcDbLine
 10
53.60739999999999
 20
17.99196748041789
 30
0.0
 11
53.7703
 21
18.4698195786933
 31
0.0
  0
LINE
  5
115
330
1E
100
AcDbEntity
  8
0
100
AcDbLine
 10
53.60739999999999
 20
17.99196748041789
 30
0.0
 11
54.3138
 21
17.6125426870761
 31
0.0
  0
LINE
  5
119
330
1E
100
AcDbEntity
  8
0
100
AcDbLine
 10
54.6681
 20
18.7683556379679
 30
0.0
 11
55.7988
 21
18.69951146461589
 31
0.0
  0
LINE
  5
11A
330
1E
100
AcDbEntity
  8
0
100
AcDbLine
 10
53.7703
 20
18.4698195786933
 30
0.0
 11
54.6681
 21
18.7683556379679
 31
0.0
  0
LINE
  5
11D
330
1E
100
AcDbEntity
  8
0
100
AcDbLine
 10
51.2645
 20
15.34229258743819
 30
0.0
 11
51.27839999999999
 21
15.8250470332328
 31
0.0
  0
LINE
  5
11E
330
1E
100
AcDbEntity
  8
0
100
AcDbLine
 10
50.4666
 20
14.9967616105655
 30
0.0
 11
51.2645
 21
15.34229258743819
 31
0.0
  0
LINE
  5
11F
330
1E
100
AcDbEntity
  8
0
100
AcDbLine
 10
54.0
 20
20.91292136954869
 30
0.0
 11
55.04999999999999
 21
21.1030986440016
 31
0.0
  0
LINE
  5
123
330
1E
100
AcDbEntity
  8
0
100
AcDbLine
 10
56.0426
 20
12.33766069754819
 30
0.0
 11
56.32480000000001
 21
11.86982460239399
 31
0.0
  0
LINE
  5
125
330
1E
100
AcDbEntity
  8
0
100
AcDbLine
 10
55.7657
 20
11.4488143783718
 30
0.0
 11
56.32480000000001
 21
11.86982460239399
 31
0.0
  0
LINE
  5
127
330
1E
100
AcDbEntity
  8
0
100
AcDbLine
 10
58.9032
 20
14.44731665431469
 30
0.0
 11
59.5875
 21
14.8338836608527
 31
0.0
  0
LINE
  5
128
330
1E
100
AcDbEntity
  8
0
100
AcDbLine
 10
57.7689
 20
14.39013668712919
 30
0.0
 11
58.9032
 21
14.44731665431469
 31
0.0
  0
LINE
  5
129
330
1E
100
AcDbEntity
  8
0
100
AcDbLine
 10
57.4032
 20
15.5452734521562
 30
0.0
 11
58.5375
 21
15.6024534193418
 31
0.0
  0
LINE
  5
12C
330
1E
100
AcDbEntity
  8
0
100
AcDbLine
 10
58.5375
 20
15.6024534193418
 30
0.0
 11
59.4523
 21
15.3132571773237
 31
0.0
  0
LINE
  5
130
330
1E
100
AcDbEntity
  8
0
100
AcDbLine
 10
59.4523
 20
15.3132571773237
 30
0.0
 11
59.5875
 21
14.8338836608527
 31
0.0
  0
LINE
  5
132
330
1E
100
AcDbEntity
  8
0
100
AcDbLine
 10
56.8542
 20
14.6793329291473
 30
0.0
 11
57.7689
 21
14.39013668712919
 31
0.0
  0
LINE
  5
133
330
1E
100
AcDbEntity
  8
0
100
AcDbLine
 10
56.7189
 20
15.1587064456183
 30
0.0
 11
57.4032
 21
15.5452734521562
 31
0.0
  0
LINE
  5
134
330
1E
100
AcDbEntity
  8
0
100
AcDbLine
 10
56.7189
 20
15.1587064456183
 30
0.0
 11
56.8542
 21
14.6793329291473
 31
0.0
  0
LINE
  5
137
330
1E
100
AcDbEntity
  8
0
100
AcDbLine
 10
55.7988
 20
18.69951146461589
 30
0.0
 11
56.5052
 21
18.32008667127399
 31
0.0
  0
LINE
  5
13B
330
1E
100
AcDbEntity
  8
0
100
AcDbLine
 10
56.3423
 20
17.84223457299869
 30
0.0
 11
56.5052
 21
18.32008667127399
 31
0.0
  0
LINE
  5
13C
330
1E
100
AcDbEntity
  8
0
100
AcDbLine
 10
55.4445
 20
17.54369851372409
 30
0.0
 11
56.3423
 21
17.84223457299869
 31
0.0
  0
LINE
  5
13D
330
1E
100
AcDbEntity
  8
0
100
AcDbLine
 10
60.3948
 20
8.905425771454881
 30
0.0
 11
60.677
 21
9.373219604992529
 31
0.0
  0
LINE
  5
13E
330
1E
100
AcDbEntity
  8
0
100
AcDbLine
 10
60.3948
 20
8.905425771454881
 30
0.0
 11
60.9539
 21
8.48437328581611
 31
0.0
  0
LINE
  5
13F
330
1E
100
AcDbEntity
  8
0
100
AcDbLine
 10
60.3014
 20
19.3625506074958
 30
0.0
 11
61.40109999999999
 21
19.231919950755
 31
0.0
  0
LINE
  5
140
330
1E
100
AcDbEntity
  8
0
100
AcDbLine
 10
59.71820000000001
 20
19.7776864668183
 30
0.0
 11
60.02729999999999
 21
20.24243746396469
 31
0.0
  0
LINE
  5
141
330
1E
100
AcDbEntity
  8
0
100
AcDbLine
 10
59.71820000000001
 20
19.7776864668183
 30
0.0
 11
60.3014
 21
19.3625506074958
 31
0.0
  0
LINE
  5
144
330
1E
100
AcDbEntity
  8
0
100
AcDbLine
 10
60.02729999999999
 20
20.24243746396469
 30
0.0
 11
61.0095
 21
20.4889072116557
 31
0.0
  0
LINE
  5
146
330
1E
100
AcDbEntity
  8
0
100
AcDbLine
 10
55.04999999999999
 20
21.1030986440016
 30
0.0
 11
55.5
 21
21.5468456177251
 31
0.0
  0
LINE
  5
148
330
1E
100
AcDbEntity
  8
0
100
AcDbLine
 10
50.46079999999999
 20
27.2940045312405
 30
0.0
 11
51.27839999999999
 21
27.6311677080372
 31
0.0
  0
LINE
  5
14B
330
1E
100
AcDbEntity
  8
0
100
AcDbLine
 10
52.1195
 20
34.99929289472199
 30
0.0
 11
53.1802
 21
34.8200191173377
 31
0.0
  0
LINE
  5
14D
330
1E
100
AcDbEntity
  8
0
100
AcDbLine
 10
52.1195
 20
35.8958308281096
 30
0.0
 11
53.1802
 21
36.0751046054939
 31
0.0
  0
LINE
  5
14F
330
1E
100
AcDbEntity
  8
0
100
AcDbLine
 10
51.6953
 20
35.44756186141579
 30
0.0
 11
52.1195
 21
34.99929289472199
 31
0.0
  0
LINE
  5
150
330
1E
100
AcDbEntity
  8
0
100
AcDbLine
 10
51.6953
 20
35.44756186141579
 30
0.0
 11
52.1195
 21
35.8958308281096
 31
0.0
  0
LINE
  5
154
330
1E
100
AcDbEntity
  8
0
100
AcDbLine
 10
51.2645
 20
28.1139221538319
 30
0.0
 11
51.27839999999999
 21
27.6311677080372
 31
0.0
  0
LINE
  5
156
330
1E
100
AcDbEntity
  8
0
100
AcDbLine
 10
50.4666
 20
28.45945313070449
 30
0.0
 11
51.2645
 21
28.1139221538319
 31
0.0
  0
LINE
  5
15B
330
1E
100
AcDbEntity
  8
0
100
AcDbLine
 10
55.04999999999999
 20
21.9905925914486
 30
0.0
 11
55.5
 21
21.5468456177251
 31
0.0
  0
LINE
  5
15D
330
1E
100
AcDbEntity
  8
0
100
AcDbLine
 10
53.1802
 20
34.8200191173377
 30
0.0
 11
54.2409
 21
34.99929289472199
 31
0.0
  0
LINE
  5
15F
330
1E
100
AcDbEntity
  8
0
100
AcDbLine
 10
53.1802
 20
36.0751046054939
 30
0.0
 11
54.2409
 21
35.8958308281096
 31
0.0
  0
LINE
  5
161
330
1E
100
AcDbEntity
  8
0
100
AcDbLine
 10
53.3804
 20
31.4225418515307
 30
0.0
 11
53.9394
 21
31.0015316275085
 31
0.0
  0
LINE
  5
162
330
1E
100
AcDbEntity
  8
0
100
AcDbLine
 10
53.3804
 20
31.4225418515307
 30
0.0
 11
53.6625
 21
31.8903779466849
 31
0.0
  0
LINE
  5
164
330
1E
100
AcDbEntity
  8
0
100
AcDbLine
 10
53.9394
 20
31.0015316275085
 30
0.0
 11
55.0464
 21
30.8822693456182
 31
0.0
  0
LINE
  5
166
330
1E
100
AcDbEntity
  8
0
100
AcDbLine
 10
53.6625
 20
31.8903779466849
 30
0.0
 11
54.6588
 21
32.12666264478849
 31
0.0
  0
LINE
  5
168
330
1E
100
AcDbEntity
  8
0
100
AcDbLine
 10
53.60739999999999
 20
25.1017237550322
 30
0.0
 11
53.7703
 21
24.62387165675689
 31
0.0
  0
LINE
  5
169
330
1E
100
AcDbEntity
  8
0
100
AcDbLine
 10
53.60739999999999
 20
25.1017237550322
 30
0.0
 11
54.3138
 21
25.4811485483741
 31
0.0
  0
LINE
  5
16B
330
1E
100
AcDbEntity
  8
0
100
AcDbLine
 10
53.7703
 20
24.62387165675689
 30
0.0
 11
54.6681
 21
24.3253355974823
 31
0.0
  0
LINE
  5
16E
330
1E
100
AcDbEntity
  8
0
100
AcDbLine
 10
59.71820000000001
 20
22.5909577569921
 30
0.0
 11
60.02729999999999
 21
22.1262067598457
 31
0.0
  0
LINE
  5
16F
330
1E
100
AcDbEntity
  8
0
100
AcDbLine
 10
59.71820000000001
 20
22.5909577569921
 30
0.0
 11
60.3014
 21
23.0060936163146
 31
0.0
  0
LINE
  5
171
330
1E
100
AcDbEntity
  8
0
100
AcDbLine
 10
60.02729999999999
 20
22.1262067598457
 30
0.0
 11
61.0095
 21
21.8797370121547
 31
0.0
  0
LINE
  5
174
330
1E
100
AcDbEntity
  8
0
100
AcDbLine
 10
54.2409
 20
34.99929289472199
 30
0.0
 11
54.6651
 21
35.44756186141579
 31
0.0
  0
LINE
  5
175
330
1E
100
AcDbEntity
  8
0
100
AcDbLine
 10
54.2409
 20
35.8958308281096
 30
0.0
 11
54.6651
 21
35.44756186141579
 31
0.0
  0
LINE
  5
178
330
1E
100
AcDbEntity
  8
0
100
AcDbLine
 10
54.6681
 20
24.3253355974823
 30
0.0
 11
55.7988
 21
24.3941797708343
 31
0.0
  0
LINE
  5
179
330
1E
100
AcDbEntity
  8
0
100
AcDbLine
 10
55.7988
 20
24.3941797708343
 30
0.0
 11
56.5052
 21
24.7736045641761
 31
0.0
  0
LINE
  5
17C
330
1E
100
AcDbEntity
  8
0
100
AcDbLine
 10
56.3423
 20
25.2514566624515
 30
0.0
 11
56.5052
 21
24.7736045641761
 31
0.0
  0
LINE
  5
17E
330
1E
100
AcDbEntity
  8
0
100
AcDbLine
 10
55.0464
 20
30.8822693456182
 30
0.0
 11
56.0426
 21
31.1185540437219
 31
0.0
  0
LINE
  5
17F
330
1E
100
AcDbEntity
  8
0
100
AcDbLine
 10
54.6651
 20
35.4989456753179
 30
0.0
 11
54.6651
 21
35.44756186141579
 31
0.0
  0
LINE
  5
180
330
1E
100
AcDbEntity
  8
0
100
AcDbLine
 10
54.6651
 20
35.44756186141579
 30
0.0
 11
54.6651
 21
35.4989456753179
 31
0.0
  0
LINE
  5
182
330
1E
100
AcDbEntity
  8
0
100
AcDbLine
 10
54.6588
 20
32.12666264478849
 30
0.0
 11
55.7657
 21
32.0074003628983
 31
0.0
  0
LINE
  5
187
330
1E
100
AcDbEntity
  8
0
100
AcDbLine
 10
56.0426
 20
31.1185540437219
 30
0.0
 11
56.32480000000001
 21
31.5863901388761
 31
0.0
  0
LINE
  5
188
330
1E
100
AcDbEntity
  8
0
100
AcDbLine
 10
55.7657
 20
32.0074003628983
 30
0.0
 11
56.32480000000001
 21
31.5863901388761
 31
0.0
  0
LINE
  5
18B
330
1E
100
AcDbEntity
  8
0
100
AcDbLine
 10
57.4032
 20
27.5484177832939
 30
0.0
 11
58.5375
 21
27.4912378161084
 31
0.0
  0
LINE
  5
18C
330
1E
100
AcDbEntity
  8
0
100
AcDbLine
 10
58.5375
 20
27.4912378161084
 30
0.0
 11
59.4523
 21
27.7804340581265
 31
0.0
  0
LINE
  5
18E
330
1E
100
AcDbEntity
  8
0
100
AcDbLine
 10
59.4523
 20
27.7804340581265
 30
0.0
 11
59.5875
 21
28.2598075745975
 31
0.0
  0
LINE
  5
193
330
1E
100
AcDbEntity
  8
0
100
AcDbLine
 10
58.9032
 20
28.6463745811355
 30
0.0
 11
59.5875
 21
28.2598075745975
 31
0.0
  0
LINE
  5
195
330
1E
100
AcDbEntity
  8
0
100
AcDbLine
 10
57.7689
 20
28.70355454832099
 30
0.0
 11
58.9032
 21
28.6463745811355
 31
0.0
  0
LINE
  5
197
330
1E
100
AcDbEntity
  8
0
100
AcDbLine
 10
56.8542
 20
28.4143583063029
 30
0.0
 11
57.7689
 21
28.70355454832099
 31
0.0
  0
LINE
  5
199
330
1E
100
AcDbEntity
  8
0
100
AcDbLine
 10
56.7189
 20
27.9349847898319
 30
0.0
 11
57.4032
 21
27.5484177832939
 31
0.0
  0
LINE
  5
19A
330
1E
100
AcDbEntity
  8
0
100
AcDbLine
 10
56.7189
 20
27.9349847898319
 30
0.0
 11
56.8542
 21
28.4143583063029
 31
0.0
  0
LINE
  5
19E
330
1E
100
AcDbEntity
  8
0
100
AcDbLine
 10
55.4445
 20
25.549992721726
 30
0.0
 11
56.3423
 21
25.2514566624515
 31
0.0
  0
LINE
  5
1A0
330
1E
100
AcDbEntity
  8
0
100
AcDbLine
 10
54.3138
 20
25.4811485483741
 30
0.0
 11
55.4445
 21
25.549992721726
 31
0.0
  0
LINE
  5
1A3
330
1E
100
AcDbEntity
  8
0
100
AcDbLine
 10
60.3948
 20
34.55078896981519
 30
0.0
 11
60.677
 21
34.08299513627749
 31
0.0
  0
LINE
  5
1A4
330
1E
100
AcDbEntity
  8
0
100
AcDbLine
 10
60.3948
 20
34.55078896981519
 30
0.0
 11
60.9539
 21
34.97184145545389
 31
0.0
  0
LINE
  5
1A5
330
1E
100
AcDbEntity
  8
0
100
AcDbLine
 10
60.3014
 20
23.0060936163146
 30
0.0
 11
61.40109999999999
 21
23.1367242730555
 31
0.0
  0
LINE
  5
1A7
330
1E
100
AcDbEntity
  8
0
100
AcDbLine
 10
54.0
 20
22.18076986590149
 30
0.0
 11
55.04999999999999
 21
21.9905925914486
 31
0.0
  0
LINE
  5
1A9
330
1E
100
AcDbEntity
  8
0
100
AcDbLine
 10
52.95
 20
21.9905925914486
 30
0.0
 11
54.0
 21
22.18076986590149
 31
0.0
  0
LINE
  5
1AB
330
1E
100
AcDbEntity
  8
0
100
AcDbLine
 10
52.5
 20
21.5468456177251
 30
0.0
 11
52.95
 21
21.1030986440016
 31
0.0
  0
LINE
  5
1AC
330
1E
100
AcDbEntity
  8
0
100
AcDbLine
 10
52.5
 20
21.5468456177251
 30
0.0
 11
52.95
 21
21.9905925914486
 31
0.0
  0
LINE
  5
1AE
330
1E
100
AcDbEntity
  8
0
100
AcDbLine
 10
52.95
 20
21.1030986440016
 30
0.0
 11
54.0
 21
20.91292136954869
 31
0.0
  0
LINE
  5
1AF
330
1E
100
AcDbEntity
  8
0
100
AcDbLine
 10
50.4
 20
37.5288280891522
 30
0.0
 11
60.6
 21
40.8252341796695
 31
0.0
  0
LINE
  5
1B0
330
1E
100
AcDbEntity
  8
0
100
AcDbLine
 10
50.4
 20
8.28378943994698
 30
0.0
 11
60.6
 21
4.98738334942963
 31
0.0
  0
LINE
  5
1B1
330
1E
100
AcDbEntity
  8
0
100
AcDbLine
 10
60.6
 20
4.98738334942963
 30
0.0
 11
72.40000000000001
 21
2.958825755265099
 31
0.0
  0
LINE
  5
1B2
330
1E
100
AcDbEntity
  8
0
100
AcDbLine
 10
60.6
 20
40.8252341796695
 30
0.0
 11
72.40000000000001
 21
42.8537917738341
 31
0.0
  0
LINE
  5
1B3
330
1E
100
AcDbEntity
  8
0
100
AcDbLine
 10
50.4
 20
37.981982471427
 30
0.0
 11
60.6
 21
41.27838856194439
 31
0.0
  0
LINE
  5
1B5
330
1E
100
AcDbEntity
  8
0
100
AcDbLine
 10
60.677
 20
9.373219604992529
 30
0.0
 11
61.6732
 21
9.609504303096159
 31
0.0
  0
LINE
  5
1B7
330
1E
100
AcDbEntity
  8
0
100
AcDbLine
 10
61.201
 20
5.847145278682901
 30
0.0
 11
62.1157
 21
6.136341520700989
 31
0.0
  0
LINE
  5
1B8
330
1E
100
AcDbEntity
  8
0
100
AcDbLine
 10
61.0657
 20
5.36772950059536
 30
0.0
 11
61.201
 21
5.847145278682901
 31
0.0
  0
LINE
  5
1B9
330
1E
100
AcDbEntity
  8
0
100
AcDbLine
 10
61.0657
 20
5.36772950059536
 30
0.0
 11
61.75
 21
4.98116249405738
 31
0.0
  0
LINE
  5
1BA
330
1E
100
AcDbEntity
  8
0
100
AcDbLine
 10
60.9539
 20
8.48437328581611
 30
0.0
 11
62.06089999999999
 21
8.365153265542399
 31
0.0
  0
LINE
  5
1BC
330
1E
100
AcDbEntity
  8
0
100
AcDbLine
 10
61.0095
 20
20.4889072116557
 30
0.0
 11
62.1093
 21
20.3582765549148
 31
0.0
  0
LINE
  5
1BE
330
1E
100
AcDbEntity
  8
0
100
AcDbLine
 10
61.40109999999999
 20
19.231919950755
 30
0.0
 11
62.3834
 21
19.47838969844589
 31
0.0
  0
LINE
  5
1C0
330
1E
100
AcDbEntity
  8
0
100
AcDbLine
 10
61.0095
 20
21.8797370121547
 30
0.0
 11
62.1093
 21
22.0103676688956
 31
0.0
  0
LINE
  5
1C1
330
1E
100
AcDbEntity
  8
0
100
AcDbLine
 10
61.4411
 20
17.0602645229687
 30
0.0
 11
61.455
 21
17.5430189687634
 31
0.0
  0
LINE
  5
1C2
330
1E
100
AcDbEntity
  8
0
100
AcDbLine
 10
61.4411
 20
17.0602645229687
 30
0.0
 11
62.2586
 21
16.72305908455539
 31
0.0
  0
LINE
  5
1C6
330
1E
100
AcDbEntity
  8
0
100
AcDbLine
 10
61.455
 20
17.5430189687634
 30
0.0
 11
62.2529
 21
17.88850768401949
 31
0.0
  0
LINE
  5
1C8
330
1E
100
AcDbEntity
  8
0
100
AcDbLine
 10
61.40109999999999
 20
23.1367242730555
 30
0.0
 11
62.3834
 21
22.89025452536449
 31
0.0
  0
LINE
  5
1CA
330
1E
100
AcDbEntity
  8
0
100
AcDbLine
 10
60.677
 20
34.08299513627749
 30
0.0
 11
61.6732
 21
33.8467104381739
 31
0.0
  0
LINE
  5
1CC
330
1E
100
AcDbEntity
  8
0
100
AcDbLine
 10
60.9539
 20
34.97184145545389
 30
0.0
 11
62.06089999999999
 21
35.0910614757276
 31
0.0
  0
LINE
  5
1CF
330
1E
100
AcDbEntity
  8
0
100
AcDbLine
 10
61.4411
 20
25.30837970084169
 30
0.0
 11
61.455
 21
24.8256252550471
 31
0.0
  0
LINE
  5
1D0
330
1E
100
AcDbEntity
  8
0
100
AcDbLine
 10
61.4411
 20
25.30837970084169
 30
0.0
 11
62.2586
 21
25.64558513925499
 31
0.0
  0
LINE
  5
1D2
330
1E
100
AcDbEntity
  8
0
100
AcDbLine
 10
61.5948
 20
12.40416941900369
 30
0.0
 11
61.5948
 21
12.2829724861908
 31
0.0
  0
LINE
  5
1D3
330
1E
100
AcDbEntity
  8
0
100
AcDbLine
 10
61.75
 20
4.98116249405738
 30
0.0
 11
62.8843
 21
4.92398252687186
 31
0.0
  0
LINE
  5
1D5
330
1E
100
AcDbEntity
  8
0
100
AcDbLine
 10
61.6732
 20
9.609504303096159
 30
0.0
 11
62.7802
 21
9.490242021205901
 31
0.0
  0
LINE
  5
1D7
330
1E
100
AcDbEntity
  8
0
100
AcDbLine
 10
62.1157
 20
6.136341520700989
 30
0.0
 11
63.25
 21
6.07916155351548
 31
0.0
  0
LINE
  5
1D8
330
1E
100
AcDbEntity
  8
0
100
AcDbLine
 10
62.06089999999999
 20
8.365153265542399
 30
0.0
 11
63.0571
 21
8.601395702029469
 31
0.0
  0
LINE
  5
1D9
330
1E
100
AcDbEntity
  8
0
100
AcDbLine
 10
62.019
 20
12.7312414528846
 30
0.0
 11
63.0797
 21
12.9105152302689
 31
0.0
  0
LINE
  5
1DA
330
1E
100
AcDbEntity
  8
0
100
AcDbLine
 10
62.019
 20
11.834703519497
 30
0.0
 11
63.0797
 21
11.65542974211269
 31
0.0
  0
LINE
  5
1DB
330
1E
100
AcDbEntity
  8
0
100
AcDbLine
 10
61.5948
 20
12.2829724861908
 30
0.0
 11
62.019
 21
12.7312414528846
 31
0.0
  0
LINE
  5
1DC
330
1E
100
AcDbEntity
  8
0
100
AcDbLine
 10
61.5948
 20
12.2829724861908
 30
0.0
 11
62.019
 21
11.834703519497
 31
0.0
  0
LINE
  5
1DD
330
1E
100
AcDbEntity
  8
0
100
AcDbLine
 10
61.5948
 20
12.2829724861908
 30
0.0
 11
61.5948
 21
12.40416941900369
 31
0.0
  0
LINE
  5
1DF
330
1E
100
AcDbEntity
  8
0
100
AcDbLine
 10
62.1093
 20
20.3582765549148
 30
0.0
 11
62.6925
 21
19.94318295720889
 31
0.0
  0
LINE
  5
1E2
330
1E
100
AcDbEntity
  8
0
100
AcDbLine
 10
62.2529
 20
17.88850768401949
 30
0.0
 11
63.3951
 21
17.88263331931969
 31
0.0
  0
LINE
  5
1E4
330
1E
100
AcDbEntity
  8
0
100
AcDbLine
 10
62.1093
 20
22.0103676688956
 30
0.0
 11
62.6925
 21
22.4254612666015
 31
0.0
  0
LINE
  5
1E7
330
1E
100
AcDbEntity
  8
0
100
AcDbLine
 10
62.3834
 20
19.47838969844589
 30
0.0
 11
62.6925
 21
19.94318295720889
 31
0.0
  0
LINE
  5
1E8
330
1E
100
AcDbEntity
  8
0
100
AcDbLine
 10
62.2586
 20
16.72305908455539
 30
0.0
 11
63.4009
 21
16.71718471985569
 31
0.0
  0
LINE
  5
1E9
330
1E
100
AcDbEntity
  8
0
100
AcDbLine
 10
62.8843
 20
4.92398252687186
 30
0.0
 11
63.799
 21
5.21322103050649
 31
0.0
  0
LINE
  5
1EB
330
1E
100
AcDbEntity
  8
0
100
AcDbLine
 10
62.7802
 20
9.490242021205901
 30
0.0
 11
63.3393
 21
9.06923179718367
 31
0.0
  0
LINE
  5
1EE
330
1E
100
AcDbEntity
  8
0
100
AcDbLine
 10
63.25
 20
6.07916155351548
 30
0.0
 11
63.9343
 21
5.692594546977499
 31
0.0
  0
LINE
  5
1F0
330
1E
100
AcDbEntity
  8
0
100
AcDbLine
 10
63.0571
 20
8.601395702029469
 30
0.0
 11
63.3393
 21
9.06923179718367
 31
0.0
  0
LINE
  5
1F1
330
1E
100
AcDbEntity
  8
0
100
AcDbLine
 10
63.0797
 20
12.9105152302689
 30
0.0
 11
64.14039999999999
 21
12.7312414528846
 31
0.0
  0
LINE
  5
1F2
330
1E
100
AcDbEntity
  8
0
100
AcDbLine
 10
63.0797
 20
11.65542974211269
 30
0.0
 11
64.14039999999999
 21
11.834703519497
 31
0.0
  0
LINE
  5
1F5
330
1E
100
AcDbEntity
  8
0
100
AcDbLine
 10
62.3834
 20
22.89025452536449
 30
0.0
 11
62.6925
 21
22.4254612666015
 31
0.0
  0
LINE
  5
1F6
330
1E
100
AcDbEntity
  8
0
100
AcDbLine
 10
62.2529
 20
24.48013653979089
 30
0.0
 11
63.3951
 21
24.4860109044907
 31
0.0
  0
LINE
  5
1F8
330
1E
100
AcDbEntity
  8
0
100
AcDbLine
 10
62.019
 20
30.3624497825656
 30
0.0
 11
63.0797
 21
30.1831760051813
 31
0.0
  0
LINE
  5
1F9
330
1E
100
AcDbEntity
  8
0
100
AcDbLine
 10
63.0797
 20
30.1831760051813
 30
0.0
 11
64.14039999999999
 21
30.3624497825656
 31
0.0
  0
LINE
  5
1FA
330
1E
100
AcDbEntity
  8
0
100
AcDbLine
 10
61.6732
 20
33.8467104381739
 30
0.0
 11
62.7802
 21
33.9659727200641
 31
0.0
  0
LINE
  5
1FB
330
1E
100
AcDbEntity
  8
0
100
AcDbLine
 10
62.7802
 20
33.9659727200641
 30
0.0
 11
63.3393
 21
34.3869829440864
 31
0.0
  0
LINE
  5
1FC
330
1E
100
AcDbEntity
  8
0
100
AcDbLine
 10
63.0571
 20
34.8548190392406
 30
0.0
 11
63.3393
 21
34.3869829440864
 31
0.0
  0
LINE
  5
200
330
1E
100
AcDbEntity
  8
0
100
AcDbLine
 10
62.06089999999999
 20
35.0910614757276
 30
0.0
 11
63.0571
 21
34.8548190392406
 31
0.0
  0
LINE
  5
204
330
1E
100
AcDbEntity
  8
0
100
AcDbLine
 10
63.0797
 20
31.43826149333749
 30
0.0
 11
64.14039999999999
 21
31.25898771595319
 31
0.0
  0
LINE
  5
206
330
1E
100
AcDbEntity
  8
0
100
AcDbLine
 10
62.019
 20
31.25898771595319
 30
0.0
 11
63.0797
 21
31.43826149333749
 31
0.0
  0
LINE
  5
208
330
1E
100
AcDbEntity
  8
0
100
AcDbLine
 10
61.5948
 20
30.8107187492594
 30
0.0
 11
62.019
 21
30.3624497825656
 31
0.0
  0
LINE
  5
209
330
1E
100
AcDbEntity
  8
0
100
AcDbLine
 10
61.5948
 20
30.8107187492594
 30
0.0
 11
62.019
 21
31.25898771595319
 31
0.0
  0
LINE
  5
20B
330
1E
100
AcDbEntity
  8
0
100
AcDbLine
 10
62.2586
 20
25.64558513925499
 30
0.0
 11
63.4009
 21
25.6514595039548
 31
0.0
  0
LINE
  5
20C
330
1E
100
AcDbEntity
  8
0
100
AcDbLine
 10
61.455
 20
24.8256252550471
 30
0.0
 11
62.2529
 21
24.48013653979089
 31
0.0
  0
LINE
  5
20D
330
1E
100
AcDbEntity
  8
0
100
AcDbLine
 10
61.201
 20
38.15285472131689
 30
0.0
 11
62.1157
 21
37.86365847929889
 31
0.0
  0
LINE
  5
20E
330
1E
100
AcDbEntity
  8
0
100
AcDbLine
 10
62.1157
 20
37.86365847929889
 30
0.0
 11
63.25
 21
37.92083844648439
 31
0.0
  0
LINE
  5
212
330
1E
100
AcDbEntity
  8
0
100
AcDbLine
 10
63.799
 20
5.21322103050649
 30
0.0
 11
63.9343
 21
5.692594546977499
 31
0.0
  0
LINE
  5
215
330
1E
100
AcDbEntity
  8
0
100
AcDbLine
 10
64.14039999999999
 20
12.7312414528846
 30
0.0
 11
64.56459999999999
 21
12.2829724861908
 31
0.0
  0
LINE
  5
217
330
1E
100
AcDbEntity
  8
0
100
AcDbLine
 10
64.14039999999999
 20
11.834703519497
 30
0.0
 11
64.56459999999999
 21
12.2829724861908
 31
0.0
  0
LINE
  5
219
330
1E
100
AcDbEntity
  8
0
100
AcDbLine
 10
63.3951
 20
17.88263331931969
 30
0.0
 11
64.21269999999999
 21
17.5454278809064
 31
0.0
  0
LINE
  5
21D
330
1E
100
AcDbEntity
  8
0
100
AcDbLine
 10
64.1988
 20
17.0626734351118
 30
0.0
 11
64.21269999999999
 21
17.5454278809064
 31
0.0
  0
LINE
  5
21E
330
1E
100
AcDbEntity
  8
0
100
AcDbLine
 10
63.4009
 20
16.71718471985569
 30
0.0
 11
64.1988
 21
17.0626734351118
 31
0.0
  0
LINE
  5
222
330
1E
100
AcDbEntity
  8
0
100
AcDbLine
 10
66.87269999999999
 20
14.50685991293069
 30
0.0
 11
67.4317
 21
14.9278701369529
 31
0.0
  0
LINE
  5
223
330
1E
100
AcDbEntity
  8
0
100
AcDbLine
 10
65.7657
 20
14.3875976310404
 30
0.0
 11
66.87269999999999
 21
14.50685991293069
 31
0.0
  0
LINE
  5
226
330
1E
100
AcDbEntity
  8
0
100
AcDbLine
 10
65.04640000000001
 20
15.5127286483205
 30
0.0
 11
66.1533
 21
15.63194866859419
 31
0.0
  0
LINE
  5
228
330
1E
100
AcDbEntity
  8
0
100
AcDbLine
 10
66.1533
 20
15.63194866859419
 30
0.0
 11
67.14960000000001
 21
15.3957062321071
 31
0.0
  0
LINE
  5
22A
330
1E
100
AcDbEntity
  8
0
100
AcDbLine
 10
64.76949999999999
 20
14.6238823291441
 30
0.0
 11
65.7657
 21
14.3875976310404
 31
0.0
  0
LINE
  5
22B
330
1E
100
AcDbEntity
  8
0
100
AcDbLine
 10
64.48730000000001
 20
15.09167616268169
 30
0.0
 11
65.04640000000001
 21
15.5127286483205
 31
0.0
  0
LINE
  5
22C
330
1E
100
AcDbEntity
  8
0
100
AcDbLine
 10
64.48730000000001
 20
15.09167616268169
 30
0.0
 11
64.76949999999999
 21
14.6238823291441
 31
0.0
  0
LINE
  5
22F
330
1E
100
AcDbEntity
  8
0
100
AcDbLine
 10
63.3951
 20
24.4860109044907
 30
0.0
 11
64.21269999999999
 21
24.823216342904
 31
0.0
  0
LINE
  5
230
330
1E
100
AcDbEntity
  8
0
100
AcDbLine
 10
64.21269999999999
 20
24.823216342904
 30
0.0
 11
64.21269999999999
 21
25.3173380468279
 31
0.0
  0
LINE
  5
231
330
1E
100
AcDbEntity
  8
0
100
AcDbLine
 10
64.14039999999999
 20
30.3624497825656
 30
0.0
 11
64.56459999999999
 21
30.8107187492594
 31
0.0
  0
LINE
  5
233
330
1E
100
AcDbEntity
  8
0
100
AcDbLine
 10
64.14039999999999
 20
31.25898771595319
 30
0.0
 11
64.56459999999999
 21
30.8107187492594
 31
0.0
  0
LINE
  5
236
330
1E
100
AcDbEntity
  8
0
100
AcDbLine
 10
65.04640000000001
 20
26.85591557548999
 30
0.0
 11
66.1533
 21
26.7366955552162
 31
0.0
  0
LINE
  5
237
330
1E
100
AcDbEntity
  8
0
100
AcDbLine
 10
66.1533
 20
26.7366955552162
 30
0.0
 11
67.14960000000001
 21
26.9729379917033
 31
0.0
  0
LINE
  5
23B
330
1E
100
AcDbEntity
  8
0
100
AcDbLine
 10
66.87269999999999
 20
27.8617843108797
 30
0.0
 11
67.4317
 21
27.4407740868575
 31
0.0
  0
LINE
  5
23C
330
1E
100
AcDbEntity
  8
0
100
AcDbLine
 10
65.7657
 20
27.98104659277
 30
0.0
 11
66.87269999999999
 21
27.8617843108797
 31
0.0
  0
LINE
  5
23D
330
1E
100
AcDbEntity
  8
0
100
AcDbLine
 10
64.76949999999999
 20
27.7447618946664
 30
0.0
 11
65.7657
 21
27.98104659277
 31
0.0
  0
LINE
  5
23F
330
1E
100
AcDbEntity
  8
0
100
AcDbLine
 10
64.48730000000001
 20
27.2769680611287
 30
0.0
 11
65.04640000000001
 21
26.85591557548999
 31
0.0
  0
LINE
  5
240
330
1E
100
AcDbEntity
  8
0
100
AcDbLine
 10
64.48730000000001
 20
27.2769680611287
 30
0.0
 11
64.76949999999999
 21
27.7447618946664
 31
0.0
  0
LINE
  5
242
330
1E
100
AcDbEntity
  8
0
100
AcDbLine
 10
64.21269999999999
 20
25.3173380468279
 30
0.0
 11
64.21269999999999
 21
24.823216342904
 31
0.0
  0
LINE
  5
243
330
1E
100
AcDbEntity
  8
0
100
AcDbLine
 10
64.1988
 20
25.3059707886986
 30
0.0
 11
64.21269999999999
 21
24.823216342904
 31
0.0
  0
LINE
  5
244
330
1E
100
AcDbEntity
  8
0
100
AcDbLine
 10
63.4009
 20
25.6514595039548
 30
0.0
 11
64.1988
 21
25.3059707886986
 31
0.0
  0
LINE
  5
246
330
1E
100
AcDbEntity
  8
0
100
AcDbLine
 10
66.95
 20
21.3561764562638
 30
0.0
 11
68.0
 21
21.54635373071669
 31
0.0
  0
LINE
  5
248
330
1E
100
AcDbEntity
  8
0
100
AcDbLine
 10
66.5
 20
20.9124294825403
 30
0.0
 11
66.95
 21
20.4686825088168
 31
0.0
  0
LINE
  5
249
330
1E
100
AcDbEntity
  8
0
100
AcDbLine
 10
66.5
 20
20.9124294825403
 30
0.0
 11
66.95
 21
21.3561764562638
 31
0.0
  0
LINE
  5
24E
330
1E
100
AcDbEntity
  8
0
100
AcDbLine
 10
67.14960000000001
 20
15.3957062321071
 30
0.0
 11
67.4317
 21
14.9278701369529
 31
0.0
  0
LINE
  5
250
330
1E
100
AcDbEntity
  8
0
100
AcDbLine
 10
68.201
 20
10.5179160711849
 30
0.0
 11
69.11570000000001
 21
10.807112313203
 31
0.0
  0
LINE
  5
251
330
1E
100
AcDbEntity
  8
0
100
AcDbLine
 10
68.75
 20
9.651975548175949
 30
0.0
 11
69.8843
 21
9.594795580990439
 31
0.0
  0
LINE
  5
252
330
1E
100
AcDbEntity
  8
0
100
AcDbLine
 10
68.0657
 20
10.0385425547139
 30
0.0
 11
68.201
 21
10.5179160711849
 31
0.0
  0
LINE
  5
253
330
1E
100
AcDbEntity
  8
0
100
AcDbLine
 10
68.0657
 20
10.0385425547139
 30
0.0
 11
68.75
 21
9.651975548175949
 31
0.0
  0
LINE
  5
255
330
1E
100
AcDbEntity
  8
0
100
AcDbLine
 10
68.9175
 20
13.0555960007722
 30
0.0
 11
69.19970000000001
 21
13.52343209592639
 31
0.0
  0
LINE
  5
256
330
1E
100
AcDbEntity
  8
0
100
AcDbLine
 10
68.9175
 20
13.0555960007722
 30
0.0
 11
69.4766
 21
12.6345857767499
 31
0.0
  0
LINE
  5
258
330
1E
100
AcDbEntity
  8
0
100
AcDbLine
 10
68.9785
 20
17.0032299521191
 30
0.0
 11
69.89319999999999
 21
16.71403371010099
 31
0.0
  0
LINE
  5
25A
330
1E
100
AcDbEntity
  8
0
100
AcDbLine
 10
68.84319999999999
 20
17.4826034685901
 30
0.0
 11
69.52760000000001
 21
17.8691704751281
 31
0.0
  0
LINE
  5
25B
330
1E
100
AcDbEntity
  8
0
100
AcDbLine
 10
68.84319999999999
 20
17.4826034685901
 30
0.0
 11
68.9785
 21
17.0032299521191
 31
0.0
  0
LINE
  5
25D
330
1E
100
AcDbEntity
  8
0
100
AcDbLine
 10
68.0
 20
20.27850523436389
 30
0.0
 11
69.05
 21
20.4686825088168
 31
0.0
  0
LINE
  5
25E
330
1E
100
AcDbEntity
  8
0
100
AcDbLine
 10
69.05
 20
20.4686825088168
 30
0.0
 11
69.5
 21
20.9124294825403
 31
0.0
  0
LINE
  5
25F
330
1E
100
AcDbEntity
  8
0
100
AcDbLine
 10
69.0861
 20
6.650979836856839
 30
0.0
 11
69.884
 21
6.305491121600678
 31
0.0
  0
LINE
  5
260
330
1E
100
AcDbEntity
  8
0
100
AcDbLine
 10
69.11570000000001
 20
10.807112313203
 30
0.0
 11
70.25
 21
10.74993234601749
 31
0.0
  0
LINE
  5
262
330
1E
100
AcDbEntity
  8
0
100
AcDbLine
 10
69.07219999999999
 20
7.13373428265145
 30
0.0
 11
69.0861
 21
6.650979836856839
 31
0.0
  0
LINE
  5
263
330
1E
100
AcDbEntity
  8
0
100
AcDbLine
 10
69.07219999999999
 20
7.13373428265145
 30
0.0
 11
69.88979999999999
 21
7.470939721064749
 31
0.0
  0
LINE
  5
265
330
1E
100
AcDbEntity
  8
0
100
AcDbLine
 10
69.05
 20
21.3561764562638
 30
0.0
 11
69.5
 21
20.9124294825403
 31
0.0
  0
LINE
  5
267
330
1E
100
AcDbEntity
  8
0
100
AcDbLine
 10
67.14960000000001
 20
26.9729379917033
 30
0.0
 11
67.4317
 21
27.4407740868575
 31
0.0
  0
LINE
  5
26A
330
1E
100
AcDbEntity
  8
0
100
AcDbLine
 10
68.9175
 20
29.3130482230383
 30
0.0
 11
69.19970000000001
 21
28.8452121278841
 31
0.0
  0
LINE
  5
26B
330
1E
100
AcDbEntity
  8
0
100
AcDbLine
 10
68.9175
 20
29.3130482230383
 30
0.0
 11
69.4766
 21
29.7340584470605
 31
0.0
  0
LINE
  5
26E
330
1E
100
AcDbEntity
  8
0
100
AcDbLine
 10
68.9785
 20
24.8216290129615
 30
0.0
 11
69.89319999999999
 21
25.1108252549796
 31
0.0
  0
LINE
  5
270
330
1E
100
AcDbEntity
  8
0
100
AcDbLine
 10
68.84319999999999
 20
24.3422554964905
 30
0.0
 11
69.52760000000001
 21
23.9556884899526
 31
0.0
  0
LINE
  5
271
330
1E
100
AcDbEntity
  8
0
100
AcDbLine
 10
68.84319999999999
 20
24.3422554964905
 30
0.0
 11
68.9785
 21
24.8216290129615
 31
0.0
  0
LINE
  5
275
330
1E
100
AcDbEntity
  8
0
100
AcDbLine
 10
68.0
 20
21.54635373071669
 30
0.0
 11
69.05
 21
21.3561764562638
 31
0.0
  0
LINE
  5
277
330
1E
100
AcDbEntity
  8
0
100
AcDbLine
 10
66.95
 20
20.4686825088168
 30
0.0
 11
68.0
 21
20.27850523436389
 31
0.0
  0
LINE
  5
278
330
1E
100
AcDbEntity
  8
0
100
AcDbLine
 10
68.201
 20
32.57577516426519
 30
0.0
 11
69.11570000000001
 21
32.2865789222472
 31
0.0
  0
LINE
  5
27A
330
1E
100
AcDbEntity
  8
0
100
AcDbLine
 10
69.19970000000001
 20
13.52343209592639
 30
0.0
 11
70.19589999999999
 21
13.75967453241339
 31
0.0
  0
LINE
  5
27C
330
1E
100
AcDbEntity
  8
0
100
AcDbLine
 10
69.4766
 20
12.6345857767499
 30
0.0
 11
70.5835
 21
12.5153234948597
 31
0.0
  0
LINE
  5
27E
330
1E
100
AcDbEntity
  8
0
100
AcDbLine
 10
69.52760000000001
 20
17.8691704751281
 30
0.0
 11
70.6619
 21
17.9263504423136
 31
0.0
  0
LINE
  5
280
330
1E
100
AcDbEntity
  8
0
100
AcDbLine
 10
69.8843
 20
9.594795580990439
 30
0.0
 11
70.79899999999999
 21
9.883991823008519
 31
0.0
  0
LINE
  5
282
330
1E
100
AcDbEntity
  8
0
100
AcDbLine
 10
69.88979999999999
 20
7.470939721064749
 30
0.0
 11
71.0321
 21
7.476814085764519
 31
0.0
  0
LINE
  5
284
330
1E
100
AcDbEntity
  8
0
100
AcDbLine
 10
69.884
 20
6.305491121600678
 30
0.0
 11
71.02630000000001
 21
6.311365486300459
 31
0.0
  0
LINE
  5
285
330
1E
100
AcDbEntity
  8
0
100
AcDbLine
 10
69.19970000000001
 20
28.8452121278841
 30
0.0
 11
70.19589999999999
 21
28.608969691397
 31
0.0
  0
LINE
  5
287
330
1E
100
AcDbEntity
  8
0
100
AcDbLine
 10
69.4766
 20
29.7340584470605
 30
0.0
 11
70.5835
 21
29.8533207289508
 31
0.0
  0
LINE
  5
289
330
1E
100
AcDbEntity
  8
0
100
AcDbLine
 10
69.52760000000001
 20
23.9556884899526
 30
0.0
 11
70.6619
 21
23.89850852276699
 31
0.0
  0
LINE
  5
28C
330
1E
100
AcDbEntity
  8
0
100
AcDbLine
 10
69.11570000000001
 20
32.2865789222472
 30
0.0
 11
70.25
 21
32.3437166278161
 31
0.0
  0
LINE
  5
291
330
1E
100
AcDbEntity
  8
0
100
AcDbLine
 10
69.8843
 20
33.4988956544597
 30
0.0
 11
70.79899999999999
 21
33.20969941244169
 31
0.0
  0
LINE
  5
293
330
1E
100
AcDbEntity
  8
0
100
AcDbLine
 10
68.75
 20
33.4417156872742
 30
0.0
 11
69.8843
 21
33.4988956544597
 31
0.0
  0
LINE
  5
295
330
1E
100
AcDbEntity
  8
0
100
AcDbLine
 10
68.0657
 20
33.05514868073619
 30
0.0
 11
68.201
 21
32.57577516426519
 31
0.0
  0
LINE
  5
296
330
1E
100
AcDbEntity
  8
0
100
AcDbLine
 10
68.0657
 20
33.05514868073619
 30
0.0
 11
68.75
 21
33.4417156872742
 31
0.0
  0
LINE
  5
298
330
1E
100
AcDbEntity
  8
0
100
AcDbLine
 10
70.25
 20
10.74993234601749
 30
0.0
 11
70.93429999999999
 21
10.3633653394795
 31
0.0
  0
LINE
  5
29B
330
1E
100
AcDbEntity
  8
0
100
AcDbLine
 10
70.19589999999999
 20
13.75967453241339
 30
0.0
 11
71.30289999999999
 21
13.6404545121397
 31
0.0
  0
LINE
  5
29D
330
1E
100
AcDbEntity
  8
0
100
AcDbLine
 10
69.89319999999999
 20
16.71403371010099
 30
0.0
 11
71.0276
 21
16.7712136772865
 31
0.0
  0
LINE
  5
29E
330
1E
100
AcDbEntity
  8
0
100
AcDbLine
 10
70.19589999999999
 20
28.608969691397
 30
0.0
 11
71.30289999999999
 21
28.72818971167069
 31
0.0
  0
LINE
  5
2A0
330
1E
100
AcDbEntity
  8
0
100
AcDbLine
 10
69.89319999999999
 20
25.1108252549796
 30
0.0
 11
71.0276
 21
25.0536452877941
 31
0.0
  0
LINE
  5
2A2
330
1E
100
AcDbEntity
  8
0
100
AcDbLine
 10
70.5835
 20
12.5153234948597
 30
0.0
 11
71.57980000000001
 21
12.75160819296329
 31
0.0
  0
LINE
  5
2A4
330
1E
100
AcDbEntity
  8
0
100
AcDbLine
 10
70.79899999999999
 20
9.883991823008519
 30
0.0
 11
70.93429999999999
 21
10.3633653394795
 31
0.0
  0
LINE
  5
2A5
330
1E
100
AcDbEntity
  8
0
100
AcDbLine
 10
70.6619
 20
17.9263504423136
 30
0.0
 11
71.57659999999999
 21
17.6371542002955
 31
0.0
  0
LINE
  5
2A7
330
1E
100
AcDbEntity
  8
0
100
AcDbLine
 10
70.5835
 20
29.8533207289508
 30
0.0
 11
71.57980000000001
 21
29.6170360308471
 31
0.0
  0
LINE
  5
2A8
330
1E
100
AcDbEntity
  8
0
100
AcDbLine
 10
70.6619
 20
23.89850852276699
 30
0.0
 11
71.57659999999999
 21
24.1877047647851
 31
0.0
  0
LINE
  5
2A9
330
1E
100
AcDbEntity
  8
0
100
AcDbLine
 10
70.25
 20
32.3437166278161
 30
0.0
 11
70.93429999999999
 21
32.7303258959706
 31
0.0
  0
LINE
  5
2AB
330
1E
100
AcDbEntity
  8
0
100
AcDbLine
 10
70.79899999999999
 20
33.20969941244169
 30
0.0
 11
70.93429999999999
 21
32.7303258959706
 31
0.0
  0
LINE
  5
2AD
330
1E
100
AcDbEntity
  8
0
100
AcDbLine
 10
69.88979999999999
 20
35.9852750202053
 30
0.0
 11
71.0321
 21
35.9794006555055
 31
0.0
  0
LINE
  5
2AE
330
1E
100
AcDbEntity
  8
0
100
AcDbLine
 10
69.07219999999999
 20
36.4112232757659
 30
0.0
 11
69.07219999999999
 21
36.3224804586186
 31
0.0
  0
LINE
  5
2AF
330
1E
100
AcDbEntity
  8
0
100
AcDbLine
 10
69.884
 20
37.1507236196694
 30
0.0
 11
71.02630000000001
 21
37.1448492549696
 31
0.0
  0
LINE
  5
2B1
330
1E
100
AcDbEntity
  8
0
100
AcDbLine
 10
69.0861
 20
36.8052349044132
 30
0.0
 11
69.884
 21
37.1507236196694
 31
0.0
  0
LINE
  5
2B2
330
1E
100
AcDbEntity
  8
0
100
AcDbLine
 10
69.07219999999999
 20
36.3224804586186
 30
0.0
 11
69.0861
 21
36.8052349044132
 31
0.0
  0
LINE
  5
2B3
330
1E
100
AcDbEntity
  8
0
100
AcDbLine
 10
69.07219999999999
 20
36.3224804586186
 30
0.0
 11
69.88979999999999
 21
35.9852750202053
 31
0.0
  0
LINE
  5
2B4
330
1E
100
AcDbEntity
  8
0
100
AcDbLine
 10
69.07219999999999
 20
36.3224804586186
 30
0.0
 11
69.07219999999999
 21
36.4112232757659
 31
0.0
  0
LINE
  5
2B5
330
1E
100
AcDbEntity
  8
0
100
AcDbLine
 10
63.25
 20
37.92083844648439
 30
0.0
 11
63.9343
 21
38.3074054530223
 31
0.0
  0
LINE
  5
2B8
330
1E
100
AcDbEntity
  8
0
100
AcDbLine
 10
63.799
 20
38.7867789694933
 30
0.0
 11
63.9343
 21
38.3074054530223
 31
0.0
  0
LINE
  5
2BC
330
1E
100
AcDbEntity
  8
0
100
AcDbLine
 10
62.8843
 20
39.07601747312799
 30
0.0
 11
63.799
 21
38.7867789694933
 31
0.0
  0
LINE
  5
2BE
330
1E
100
AcDbEntity
  8
0
100
AcDbLine
 10
61.75
 20
39.01883750594249
 30
0.0
 11
62.8843
 21
39.07601747312799
 31
0.0
  0
LINE
  5
2C0
330
1E
100
AcDbEntity
  8
0
100
AcDbLine
 10
61.0657
 20
38.6322704994045
 30
0.0
 11
61.201
 21
38.15285472131689
 31
0.0
  0
LINE
  5
2C1
330
1E
100
AcDbEntity
  8
0
100
AcDbLine
 10
61.0657
 20
38.6322704994045
 30
0.0
 11
61.75
 21
39.01883750594249
 31
0.0
  0
LINE
  5
2C2
330
1E
100
AcDbEntity
  8
0
100
AcDbLine
 10
60.6
 20
41.27838856194439
 30
0.0
 11
72.40000000000001
 21
43.30694615610889
 31
0.0
  0
LINE
  5
2C3
330
1E
100
AcDbEntity
  8
0
100
AcDbLine
 10
57.7
 20
44.8354557691138
 30
0.0
 11
70.9
 21
47.11758306254889
 31
0.0
  0
LINE
  5
2C4
330
1E
100
AcDbEntity
  8
0
100
AcDbLine
 10
70.9
 20
47.11758306254889
 30
0.0
 11
85.0
 21
47.96281539345069
 31
0.0
  0
LINE
  5
2C5
330
1E
100
AcDbEntity
  8
0
100
AcDbLine
 10
57.7
 20
44.4729322632939
 30
0.0
 11
70.9
 21
46.755059556729
 31
0.0
  0
LINE
  5
2C6
330
1E
100
AcDbEntity
  8
0
100
AcDbLine
 10
70.9
 20
46.755059556729
 30
0.0
 11
85.0
 21
47.6002918876309
 31
0.0
  0
LINE
  5
2C7
330
1E
100
AcDbEntity
  8
0
100
AcDbLine
 10
57.7
 20
43.47599262228929
 30
0.0
 11
70.9
 21
45.7581199157244
 31
0.0
  0
LINE
  5
2C8
330
1E
100
AcDbEntity
  8
0
100
AcDbLine
 10
70.9
 20
45.7581199157244
 30
0.0
 11
85.0
 21
46.6033522466262
 31
0.0
  0
LINE
  5
2C9
330
1E
100
AcDbEntity
  8
0
100
AcDbLine
 10
60.4
 20
84.28442595297729
 30
0.0
 11
67.7
 21
78.7844259529773
 31
0.0
  0
LINE
  5
2CE
330
1E
100
AcDbEntity
  8
0
100
AcDbLine
 10
63.52109999999999
 20
96.56052595297721
 30
0.0
 11
67.4648
 21
91.34922595297728
 31
0.0
  0
LINE
  5
2CF
330
1E
100
AcDbEntity
  8
0
100
AcDbLine
 10
54.9
 20
91.5844259529773
 30
0.0
 11
60.4
 21
84.28442595297729
 31
0.0
  0
LINE
  5
2D2
330
1E
100
AcDbEntity
  8
0
100
AcDbLine
 10
51.5
 20
99.8844259529773
 30
0.0
 11
54.9
 21
91.5844259529773
 31
0.0
  0
LINE
  5
2DC
330
1E
100
AcDbEntity
  8
0
100
AcDbLine
 10
61.12680000000001
 20
102.475925952977
 30
0.0
 11
63.52109999999999
 21
96.56052595297721
 31
0.0
  0
LINE
  5
2DF
330
1E
100
AcDbEntity
  8
0
100
AcDbLine
 10
51.5
 20
117.884425952977
 30
0.0
 11
54.9
 21
126.184425952977
 31
0.0
  0
LINE
  5
2E1
330
1E
100
AcDbEntity
  8
0
100
AcDbLine
 10
54.9
 20
126.184425952977
 30
0.0
 11
60.4
 21
133.484425952977
 31
0.0
  0
LINE
  5
2E5
330
1E
100
AcDbEntity
  8
0
100
AcDbLine
 10
60.4
 20
133.484425952977
 30
0.0
 11
67.7
 21
138.9844259529769
 31
0.0
  0
LINE
  5
2E8
330
1E
100
AcDbEntity
  8
0
100
AcDbLine
 10
61.12680000000001
 20
115.292925952977
 30
0.0
 11
63.52109999999999
 21
121.208325952977
 31
0.0
  0
LINE
  5
2EB
330
1E
100
AcDbEntity
  8
0
100
AcDbLine
 10
63.52109999999999
 20
121.208325952977
 30
0.0
 11
67.4648
 21
126.419425952977
 31
0.0
  0
LINE
  5
2ED
330
1E
100
AcDbEntity
  8
0
100
AcDbLine
 10
60.2113
 20
108.884425952977
 30
0.0
 11
61.12680000000001
 21
102.475925952977
 31
0.0
  0
LINE
  5
2EE
330
1E
100
AcDbEntity
  8
0
100
AcDbLine
 10
60.2113
 20
108.884425952977
 30
0.0
 11
61.12680000000001
 21
115.292925952977
 31
0.0
  0
LINE
  5
2EF
330
1E
100
AcDbEntity
  8
0
100
AcDbLine
 10
50.2
 20
108.884425952977
 30
0.0
 11
51.5
 21
99.8844259529773
 31
0.0
  0
LINE
  5
2F0
330
1E
100
AcDbEntity
  8
0
100
AcDbLine
 10
50.2
 20
108.884425952977
 30
0.0
 11
51.5
 21
117.884425952977
 31
0.0
  0
LINE
  5
2F7
330
1E
100
AcDbEntity
  8
0
100
AcDbLine
 10
55.4
 20
57.6203119933643
 30
0.0
 11
64.1
 21
60.4941019184307
 31
0.0
  0
LINE
  5
2FA
330
1E
100
AcDbEntity
  8
0
100
AcDbLine
 10
67.4648
 20
126.419425952977
 30
0.0
 11
72.67610000000001
 21
130.363425952977
 31
0.0
  0
LINE
  5
2FB
330
1E
100
AcDbEntity
  8
0
100
AcDbLine
 10
67.4648
 20
91.34922595297728
 30
0.0
 11
72.67610000000001
 21
87.4055259529773
 31
0.0
  0
LINE
  5
2FD
330
1E
100
AcDbEntity
  8
0
100
AcDbLine
 10
67.7
 20
138.9844259529769
 30
0.0
 11
76.0
 21
142.384425952977
 31
0.0
  0
LINE
  5
301
330
1E
100
AcDbEntity
  8
0
100
AcDbLine
 10
67.7
 20
78.7844259529773
 30
0.0
 11
74.0
 21
76.20370306141101
 31
0.0
  0
LINE
  5
304
330
1E
100
AcDbEntity
  8
0
100
AcDbLine
 10
64.1
 20
60.4941019184307
 30
0.0
 11
74.2
 21
62.2268281967796
 31
0.0
  0
LINE
  5
305
330
1E
100
AcDbEntity
  8
0
100
AcDbLine
 10
51.79999999999999
 20
56.42280389533871
 30
0.0
 11
55.4
 21
57.6203119933643
 31
0.0
  0
LINE
  5
306
330
1E
100
AcDbEntity
  8
0
100
AcDbLine
 10
46.2
 20
6.961955927327849
 30
0.0
 11
57.7
 21
3.242933671359559
 31
0.0
  0
LINE
  5
307
330
1E
100
AcDbEntity
  8
0
100
AcDbLine
 10
57.7
 20
3.242933671359559
 30
0.0
 11
70.9
 21
0.9608063779244721
 31
0.0
  0
LINE
  5
308
330
1E
100
AcDbEntity
  8
0
100
AcDbLine
 10
57.7
 20
3.242933671359559
 30
0.0
 11
70.9
 21
0.9608063779244721
 31
0.0
  0
LINE
  5
30C
330
1E
100
AcDbEntity
  8
0
100
AcDbLine
 10
71.0276
 20
16.7712136772865
 30
0.0
 11
71.7119
 21
17.1577806838245
 31
0.0
  0
LINE
  5
30F
330
1E
100
AcDbEntity
  8
0
100
AcDbLine
 10
71.30289999999999
 20
13.6404545121397
 30
0.0
 11
71.8619
 21
13.2194020265009
 31
0.0
  0
LINE
  5
312
330
1E
100
AcDbEntity
  8
0
100
AcDbLine
 10
71.57659999999999
 20
17.6371542002955
 30
0.0
 11
71.7119
 21
17.1577806838245
 31
0.0
  0
LINE
  5
314
330
1E
100
AcDbEntity
  8
0
100
AcDbLine
 10
71.0321
 20
7.476814085764519
 30
0.0
 11
71.8299
 21
7.13128310889183
 31
0.0
  0
LINE
  5
316
330
1E
100
AcDbEntity
  8
0
100
AcDbLine
 10
71.02630000000001
 20
6.311365486300459
 30
0.0
 11
71.8438
 21
6.648570924713759
 31
0.0
  0
LINE
  5
317
330
1E
100
AcDbEntity
  8
0
100
AcDbLine
 10
71.57980000000001
 20
12.75160819296329
 30
0.0
 11
71.8619
 21
13.2194020265009
 31
0.0
  0
LINE
  5
31B
330
1E
100
AcDbEntity
  8
0
100
AcDbLine
 10
71.8299
 20
7.13128310889183
 30
0.0
 11
71.8438
 21
6.648570924713759
 31
0.0
  0
LINE
  5
31F
330
1E
100
AcDbEntity
  8
0
100
AcDbLine
 10
71.57659999999999
 20
24.1877047647851
 30
0.0
 11
71.7119
 21
24.6670782812561
 31
0.0
  0
LINE
  5
320
330
1E
100
AcDbEntity
  8
0
100
AcDbLine
 10
71.30289999999999
 20
28.72818971167069
 30
0.0
 11
71.8619
 21
29.14924219730949
 31
0.0
  0
LINE
  5
321
330
1E
100
AcDbEntity
  8
0
100
AcDbLine
 10
71.57980000000001
 20
29.6170360308471
 30
0.0
 11
71.8619
 21
29.14924219730949
 31
0.0
  0
LINE
  5
322
330
1E
100
AcDbEntity
  8
0
100
AcDbLine
 10
71.0276
 20
25.0536452877941
 30
0.0
 11
71.7119
 21
24.6670782812561
 31
0.0
  0
LINE
  5
324
330
1E
100
AcDbEntity
  8
0
100
AcDbLine
 10
71.0321
 20
35.9794006555055
 30
0.0
 11
71.8299
 21
36.3249316323782
 31
0.0
  0
LINE
  5
326
330
1E
100
AcDbEntity
  8
0
100
AcDbLine
 10
71.9043
 20
3.794371778238049
 30
0.0
 11
72.0672
 21
3.316519679962659
 31
0.0
  0
LINE
  5
327
330
1E
100
AcDbEntity
  8
0
100
AcDbLine
 10
71.9043
 20
3.794371778238049
 30
0.0
 11
72.6107
 21
4.173754309963359
 31
0.0
  0
LINE
  5
32B
330
1E
100
AcDbEntity
  8
0
100
AcDbLine
 10
71.8438
 20
36.8981777664857
 30
0.0
 11
71.8438
 21
36.80764381655629
 31
0.0
  0
LINE
  5
32C
330
1E
100
AcDbEntity
  8
0
100
AcDbLine
 10
71.8438
 20
36.80764381655629
 30
0.0
 11
71.8438
 21
36.8981777664857
 31
0.0
  0
LINE
  5
32D
330
1E
100
AcDbEntity
  8
0
100
AcDbLine
 10
71.8299
 20
36.3249316323782
 30
0.0
 11
71.8438
 21
36.80764381655629
 31
0.0
  0
LINE
  5
32F
330
1E
100
AcDbEntity
  8
0
100
AcDbLine
 10
71.02630000000001
 20
37.1448492549696
 30
0.0
 11
71.8438
 21
36.80764381655629
 31
0.0
  0
LINE
  5
331
330
1E
100
AcDbEntity
  8
0
100
AcDbLine
 10
72.0672
 20
3.316519679962659
 30
0.0
 11
72.9649
 21
3.01794135907157
 31
0.0
  0
LINE
  5
332
330
1E
100
AcDbEntity
  8
0
100
AcDbLine
 10
72.0672
 20
40.6834803200372
 30
0.0
 11
72.9649
 21
40.98205864092829
 31
0.0
  0
LINE
  5
333
330
1E
100
AcDbEntity
  8
0
100
AcDbLine
 10
71.9043
 20
40.2056282217618
 30
0.0
 11
72.0672
 21
40.6834803200372
 31
0.0
  0
LINE
  5
334
330
1E
100
AcDbEntity
  8
0
100
AcDbLine
 10
71.9043
 20
40.2056282217618
 30
0.0
 11
72.6107
 21
39.8262456900365
 31
0.0
  0
LINE
  5
335
330
1E
100
AcDbEntity
  8
0
100
AcDbLine
 10
72.40000000000001
 20
42.8537917738341
 30
0.0
 11
85.0
 21
43.6145008716458
 31
0.0
  0
LINE
  5
336
330
1E
100
AcDbEntity
  8
0
100
AcDbLine
 10
83.95000000000001
 20
2.538525580984019
 30
0.0
 11
85.0
 21
2.3483483065311
 31
0.0
  0
LINE
  5
337
330
1E
100
AcDbEntity
  8
0
100
AcDbLine
 10
72.6107
 20
4.173754309963359
 30
0.0
 11
73.7414
 21
4.242598483315309
 31
0.0
  0
LINE
  5
339
330
1E
100
AcDbEntity
  8
0
100
AcDbLine
 10
73.7414
 20
4.242598483315309
 30
0.0
 11
74.6391
 21
3.94406242404076
 31
0.0
  0
LINE
  5
33C
330
1E
100
AcDbEntity
  8
0
100
AcDbLine
 10
80.944
 20
5.308201494369559
 30
0.0
 11
81.5272
 21
5.723337353692018
 31
0.0
  0
LINE
  5
33D
330
1E
100
AcDbEntity
  8
0
100
AcDbLine
 10
79.8442
 20
5.177570837628669
 30
0.0
 11
80.944
 21
5.308201494369559
 31
0.0
  0
LINE
  5
33E
330
1E
100
AcDbEntity
  8
0
100
AcDbLine
 10
78.8619
 20
5.42404058531966
 30
0.0
 11
79.8442
 21
5.177570837628669
 31
0.0
  0
LINE
  5
33F
330
1E
100
AcDbEntity
  8
0
100
AcDbLine
 10
79.13600000000001
 20
6.303969703405059
 30
0.0
 11
80.2358
 21
6.43460036014595
 31
0.0
  0
LINE
  5
345
330
1E
100
AcDbEntity
  8
0
100
AcDbLine
 10
80.2358
 20
6.43460036014595
 30
0.0
 11
81.21810000000001
 21
6.18813061245496
 31
0.0
  0
LINE
  5
348
330
1E
100
AcDbEntity
  8
0
100
AcDbLine
 10
81.21810000000001
 20
6.18813061245496
 30
0.0
 11
81.5272
 21
5.723337353692018
 31
0.0
  0
LINE
  5
34A
330
1E
100
AcDbEntity
  8
0
100
AcDbLine
 10
78.5528
 20
5.8888338440826
 30
0.0
 11
78.8619
 21
5.42404058531966
 31
0.0
  0
LINE
  5
34B
330
1E
100
AcDbEntity
  8
0
100
AcDbLine
 10
78.5528
 20
5.8888338440826
 30
0.0
 11
79.13600000000001
 21
6.303969703405059
 31
0.0
  0
LINE
  5
34F
330
1E
100
AcDbEntity
  8
0
100
AcDbLine
 10
74.6391
 20
3.94406242404076
 30
0.0
 11
74.80199999999999
 21
3.46621032576539
 31
0.0
  0
LINE
  5
350
330
1E
100
AcDbEntity
  8
0
100
AcDbLine
 10
74.0956
 20
3.086827794040069
 30
0.0
 11
74.80199999999999
 21
3.46621032576539
 31
0.0
  0
LINE
  5
351
330
1E
100
AcDbEntity
  8
0
100
AcDbLine
 10
72.9649
 20
3.01794135907157
 30
0.0
 11
74.0956
 21
3.086827794040069
 31
0.0
  0
LINE
  5
352
330
1E
100
AcDbEntity
  8
0
100
AcDbLine
 10
77.7191
 20
8.348669555541789
 30
0.0
 11
78.4255
 21
8.728094348883638
 31
0.0
  0
LINE
  5
353
330
1E
100
AcDbEntity
  8
0
100
AcDbLine
 10
76.58839999999999
 20
8.27982538218983
 30
0.0
 11
77.7191
 21
8.348669555541789
 31
0.0
  0
LINE
  5
354
330
1E
100
AcDbEntity
  8
0
100
AcDbLine
 10
83.95000000000001
 20
3.426019528430999
 30
0.0
 11
85.0
 21
3.61619680288393
 31
0.0
  0
LINE
  5
355
330
1E
100
AcDbEntity
  8
0
100
AcDbLine
 10
83.49999999999999
 20
2.982272554707509
 30
0.0
 11
83.95000000000001
 21
2.538525580984019
 31
0.0
  0
LINE
  5
356
330
1E
100
AcDbEntity
  8
0
100
AcDbLine
 10
83.49999999999999
 20
2.982272554707509
 30
0.0
 11
83.95000000000001
 21
3.426019528430999
 31
0.0
  0
LINE
  5
357
330
1E
100
AcDbEntity
  8
0
100
AcDbLine
 10
83.95000000000001
 20
8.001997515022379
 30
0.0
 11
85.0
 21
7.81182024056946
 31
0.0
  0
LINE
  5
359
330
1E
100
AcDbEntity
  8
0
100
AcDbLine
 10
75.6906
 20
8.57836144146438
 30
0.0
 11
76.58839999999999
 21
8.27982538218983
 31
0.0
  0
LINE
  5
35A
330
1E
100
AcDbEntity
  8
0
100
AcDbLine
 10
76.23409999999999
 20
9.435638333081618
 30
0.0
 11
77.3648
 21
9.50448250643357
 31
0.0
  0
LINE
  5
35D
330
1E
100
AcDbEntity
  8
0
100
AcDbLine
 10
77.3648
 20
9.50448250643357
 30
0.0
 11
78.26260000000001
 21
9.205946447159019
 31
0.0
  0
LINE
  5
360
330
1E
100
AcDbEntity
  8
0
100
AcDbLine
 10
78.26260000000001
 20
9.205946447159019
 30
0.0
 11
78.4255
 21
8.728094348883638
 31
0.0
  0
LINE
  5
362
330
1E
100
AcDbEntity
  8
0
100
AcDbLine
 10
75.52769999999999
 20
9.05621353973976
 30
0.0
 11
75.6906
 21
8.57836144146438
 31
0.0
  0
LINE
  5
363
330
1E
100
AcDbEntity
  8
0
100
AcDbLine
 10
75.52769999999999
 20
9.05621353973976
 30
0.0
 11
76.23409999999999
 21
9.435638333081618
 31
0.0
  0
LINE
  5
364
330
1E
100
AcDbEntity
  8
0
100
AcDbLine
 10
82.77129999999999
 20
10.6304553969485
 30
0.0
 11
83.35449999999999
 21
11.04554899465439
 31
0.0
  0
LINE
  5
365
330
1E
100
AcDbEntity
  8
0
100
AcDbLine
 10
81.6716
 20
10.49982474020759
 30
0.0
 11
82.77129999999999
 21
10.6304553969485
 31
0.0
  0
LINE
  5
366
330
1E
100
AcDbEntity
  8
0
100
AcDbLine
 10
80.68929999999999
 20
10.74629448789859
 30
0.0
 11
81.6716
 21
10.49982474020759
 31
0.0
  0
LINE
  5
367
330
1E
100
AcDbEntity
  8
0
100
AcDbLine
 10
80.38020000000001
 20
11.21104548504499
 30
0.0
 11
80.68929999999999
 21
10.74629448789859
 31
0.0
  0
LINE
  5
368
330
1E
100
AcDbEntity
  8
0
100
AcDbLine
 10
80.38020000000001
 20
11.21104548504499
 30
0.0
 11
80.96339999999999
 21
11.62618134436739
 31
0.0
  0
LINE
  5
36B
330
1E
100
AcDbEntity
  8
0
100
AcDbLine
 10
80.96339999999999
 20
11.62618134436739
 30
0.0
 11
82.06319999999999
 21
11.7568120011083
 31
0.0
  0
LINE
  5
36E
330
1E
100
AcDbEntity
  8
0
100
AcDbLine
 10
82.06319999999999
 20
11.7568120011083
 30
0.0
 11
83.04540000000001
 21
11.5103422534173
 31
0.0
  0
LINE
  5
370
330
1E
100
AcDbEntity
  8
0
100
AcDbLine
 10
83.04540000000001
 20
11.5103422534173
 30
0.0
 11
83.35449999999999
 21
11.04554899465439
 31
0.0
  0
LINE
  5
371
330
1E
100
AcDbEntity
  8
0
100
AcDbLine
 10
77.1875
 20
12.0537421189542
 30
0.0
 11
77.2014
 21
11.5710299347761
 31
0.0
  0
LINE
  5
372
330
1E
100
AcDbEntity
  8
0
100
AcDbLine
 10
76.3839
 20
11.2338244963628
 30
0.0
 11
77.2014
 21
11.5710299347761
 31
0.0
  0
LINE
  5
373
330
1E
100
AcDbEntity
  8
0
100
AcDbLine
 10
75.24160000000001
 20
11.227950131663
 30
0.0
 11
76.3839
 21
11.2338244963628
 31
0.0
  0
LINE
  5
374
330
1E
100
AcDbEntity
  8
0
100
AcDbLine
 10
74.44370000000001
 20
11.57343884691919
 30
0.0
 11
75.24160000000001
 21
11.227950131663
 31
0.0
  0
LINE
  5
378
330
1E
100
AcDbEntity
  8
0
100
AcDbLine
 10
75.24729999999999
 20
12.3933987311271
 30
0.0
 11
76.3896
 21
12.3992730958268
 31
0.0
  0
LINE
  5
37B
330
1E
100
AcDbEntity
  8
0
100
AcDbLine
 10
76.3896
 20
12.3992730958268
 30
0.0
 11
77.1875
 21
12.0537421189542
 31
0.0
  0
LINE
  5
37D
330
1E
100
AcDbEntity
  8
0
100
AcDbLine
 10
74.4298
 20
12.0561932927138
 30
0.0
 11
74.44370000000001
 21
11.57343884691919
 31
0.0
  0
LINE
  5
37E
330
1E
100
AcDbEntity
  8
0
100
AcDbLine
 10
74.4298
 20
12.0561932927138
 30
0.0
 11
75.24729999999999
 21
12.3933987311271
 31
0.0
  0
LINE
  5
380
330
1E
100
AcDbEntity
  8
0
100
AcDbLine
 10
83.95000000000001
 20
8.88949146246936
 30
0.0
 11
85.0
 21
9.079668736922279
 31
0.0
  0
LINE
  5
381
330
1E
100
AcDbEntity
  8
0
100
AcDbLine
 10
83.49999999999999
 20
8.445744488745869
 30
0.0
 11
83.95000000000001
 21
8.001997515022379
 31
0.0
  0
LINE
  5
382
330
1E
100
AcDbEntity
  8
0
100
AcDbLine
 10
83.49999999999999
 20
8.445744488745869
 30
0.0
 11
83.95000000000001
 21
8.88949146246936
 31
0.0
  0
LINE
  5
383
330
1E
100
AcDbEntity
  8
0
100
AcDbLine
 10
85.0
 20
3.61619680288393
 30
0.0
 11
86.05
 21
3.426019528430999
 31
0.0
  0
LINE
  5
384
330
1E
100
AcDbEntity
  8
0
100
AcDbLine
 10
85.0
 20
2.3483483065311
 30
0.0
 11
86.05
 21
2.538525580984019
 31
0.0
  0
LINE
  5
385
330
1E
100
AcDbEntity
  8
0
100
AcDbLine
 10
85.0
 20
9.079668736922279
 30
0.0
 11
86.05
 21
8.88949146246936
 31
0.0
  0
LINE
  5
386
330
1E
100
AcDbEntity
  8
0
100
AcDbLine
 10
85.0
 20
7.81182024056946
 30
0.0
 11
86.05
 21
8.001997515022379
 31
0.0
  0
LINE
  5
387
330
1E
100
AcDbEntity
  8
0
100
AcDbLine
 10
85.0
 20
13.09403042169789
 30
0.0
 11
86.05
 21
13.2842076961508
 31
0.0
  0
LINE
  5
388
330
1E
100
AcDbEntity
  8
0
100
AcDbLine
 10
83.95000000000001
 20
13.2842076961508
 30
0.0
 11
85.0
 21
13.09403042169789
 31
0.0
  0
LINE
  5
389
330
1E
100
AcDbEntity
  8
0
100
AcDbLine
 10
76.8843
 20
14.08430462058249
 30
0.0
 11
77.79899999999999
 21
14.3735431242172
 31
0.0
  0
LINE
  5
38A
330
1E
100
AcDbEntity
  8
0
100
AcDbLine
 10
75.75
 20
14.141484587768
 30
0.0
 11
76.8843
 21
14.08430462058249
 31
0.0
  0
LINE
  5
38C
330
1E
100
AcDbEntity
  8
0
100
AcDbLine
 10
75.20100000000001
 20
15.00746737239359
 30
0.0
 11
76.1157
 21
15.2966636144117
 31
0.0
  0
LINE
  5
38F
330
1E
100
AcDbEntity
  8
0
100
AcDbLine
 10
77.25
 20
15.2394836472261
 30
0.0
 11
77.93429999999999
 21
14.8529166406882
 31
0.0
  0
LINE
  5
391
330
1E
100
AcDbEntity
  8
0
100
AcDbLine
 10
77.79899999999999
 20
14.3735431242172
 30
0.0
 11
77.93429999999999
 21
14.8529166406882
 31
0.0
  0
LINE
  5
392
330
1E
100
AcDbEntity
  8
0
100
AcDbLine
 10
75.0657
 20
14.52805159430599
 30
0.0
 11
75.20100000000001
 21
15.00746737239359
 31
0.0
  0
LINE
  5
393
330
1E
100
AcDbEntity
  8
0
100
AcDbLine
 10
75.0657
 20
14.52805159430599
 30
0.0
 11
75.75
 21
14.141484587768
 31
0.0
  0
LINE
  5
39A
330
1E
100
AcDbEntity
  8
0
100
AcDbLine
 10
76.1157
 20
15.2966636144117
 30
0.0
 11
77.25
 21
15.2394836472261
 31
0.0
  0
LINE
  5
39E
330
1E
100
AcDbEntity
  8
0
100
AcDbLine
 10
83.95000000000001
 20
14.1717016435978
 30
0.0
 11
85.0
 21
14.3618789180507
 31
0.0
  0
LINE
  5
3A0
330
1E
100
AcDbEntity
  8
0
100
AcDbLine
 10
85.0
 20
14.3618789180507
 30
0.0
 11
86.05
 21
14.1717016435978
 31
0.0
  0
LINE
  5
3A2
330
1E
100
AcDbEntity
  8
0
100
AcDbLine
 10
83.49999999999999
 20
13.7279546698743
 30
0.0
 11
83.95000000000001
 21
13.2842076961508
 31
0.0
  0
LINE
  5
3A3
330
1E
100
AcDbEntity
  8
0
100
AcDbLine
 10
83.49999999999999
 20
13.7279546698743
 30
0.0
 11
83.95000000000001
 21
14.1717016435978
 31
0.0
  0
LINE
  5
3A5
330
1E
100
AcDbEntity
  8
0
100
AcDbLine
 10
85.0
 20
18.7087177788306
 30
0.0
 11
86.28
 21
18.7847886886118
 31
0.0
  0
LINE
  5
3A7
330
1E
100
AcDbEntity
  8
0
100
AcDbLine
 10
72.6107
 20
39.8262456900365
 30
0.0
 11
73.7414
 21
39.75740151668449
 31
0.0
  0
LINE
  5
3AA
330
1E
100
AcDbEntity
  8
0
100
AcDbLine
 10
74.44370000000001
 20
30.7952053768913
 30
0.0
 11
75.24160000000001
 21
31.1406940921474
 31
0.0
  0
LINE
  5
3AC
330
1E
100
AcDbEntity
  8
0
100
AcDbLine
 10
74.4298
 20
30.31245093109669
 30
0.0
 11
74.44370000000001
 21
30.7952053768913
 31
0.0
  0
LINE
  5
3AD
330
1E
100
AcDbEntity
  8
0
100
AcDbLine
 10
74.4298
 20
30.31245093109669
 30
0.0
 11
75.24729999999999
 21
29.97524549268339
 31
0.0
  0
LINE
  5
3AF
330
1E
100
AcDbEntity
  8
0
100
AcDbLine
 10
73.7414
 20
39.75740151668449
 30
0.0
 11
74.6391
 21
40.05593757595909
 31
0.0
  0
LINE
  5
3B0
330
1E
100
AcDbEntity
  8
0
100
AcDbLine
 10
75.20100000000001
 20
26.8173915926871
 30
0.0
 11
76.1157
 21
26.528195350669
 31
0.0
  0
LINE
  5
3B2
330
1E
100
AcDbEntity
  8
0
100
AcDbLine
 10
75.0657
 20
27.2968073707746
 30
0.0
 11
75.20100000000001
 21
26.8173915926871
 31
0.0
  0
LINE
  5
3B3
330
1E
100
AcDbEntity
  8
0
100
AcDbLine
 10
75.0657
 20
27.2968073707746
 30
0.0
 11
75.75
 21
27.6833743773126
 31
0.0
  0
LINE
  5
3B5
330
1E
100
AcDbEntity
  8
0
100
AcDbLine
 10
75.24729999999999
 20
29.97524549268339
 30
0.0
 11
76.3896
 21
29.9693711279836
 31
0.0
  0
LINE
  5
3B6
330
1E
100
AcDbEntity
  8
0
100
AcDbLine
 10
75.24160000000001
 20
31.1406940921474
 30
0.0
 11
76.3839
 21
31.1348197274477
 31
0.0
  0
LINE
  5
3B7
330
1E
100
AcDbEntity
  8
0
100
AcDbLine
 10
76.1157
 20
26.528195350669
 30
0.0
 11
77.25
 21
26.5853753178545
 31
0.0
  0
LINE
  5
3B9
330
1E
100
AcDbEntity
  8
0
100
AcDbLine
 10
75.75
 20
27.6833743773126
 30
0.0
 11
76.8843
 21
27.7405543444981
 31
0.0
  0
LINE
  5
3BB
330
1E
100
AcDbEntity
  8
0
100
AcDbLine
 10
77.25
 20
26.5853753178545
 30
0.0
 11
77.93429999999999
 21
26.9719423243925
 31
0.0
  0
LINE
  5
3BC
330
1E
100
AcDbEntity
  8
0
100
AcDbLine
 10
77.93429999999999
 20
27.1275284744524
 30
0.0
 11
77.93429999999999
 21
26.9719423243925
 31
0.0
  0
LINE
  5
3BD
330
1E
100
AcDbEntity
  8
0
100
AcDbLine
 10
77.93429999999999
 20
26.9719423243925
 30
0.0
 11
77.93429999999999
 21
27.1275284744524
 31
0.0
  0
LINE
  5
3BE
330
1E
100
AcDbEntity
  8
0
100
AcDbLine
 10
77.79899999999999
 20
27.4513158408635
 30
0.0
 11
77.93429999999999
 21
26.9719423243925
 31
0.0
  0
LINE
  5
3BF
330
1E
100
AcDbEntity
  8
0
100
AcDbLine
 10
76.8843
 20
27.7405543444981
 30
0.0
 11
77.79899999999999
 21
27.4513158408635
 31
0.0
  0
LINE
  5
3C0
330
1E
100
AcDbEntity
  8
0
100
AcDbLine
 10
76.3896
 20
29.9693711279836
 30
0.0
 11
77.1875
 21
30.3149021048563
 31
0.0
  0
LINE
  5
3C1
330
1E
100
AcDbEntity
  8
0
100
AcDbLine
 10
77.1875
 20
30.3149021048563
 30
0.0
 11
77.2014
 21
30.7976142890344
 31
0.0
  0
LINE
  5
3C2
330
1E
100
AcDbEntity
  8
0
100
AcDbLine
 10
76.3839
 20
31.1348197274477
 30
0.0
 11
77.2014
 21
30.7976142890344
 31
0.0
  0
LINE
  5
3C3
330
1E
100
AcDbEntity
  8
0
100
AcDbLine
 10
76.23409999999999
 20
33.6580529023686
 30
0.0
 11
77.3648
 21
33.58920872901659
 31
0.0
  0
LINE
  5
3C4
330
1E
100
AcDbEntity
  8
0
100
AcDbLine
 10
77.3648
 20
33.58920872901659
 30
0.0
 11
78.26260000000001
 21
33.8877447882911
 31
0.0
  0
LINE
  5
3C6
330
1E
100
AcDbEntity
  8
0
100
AcDbLine
 10
78.26260000000001
 20
33.8877447882911
 30
0.0
 11
78.4255
 21
34.3655968865665
 31
0.0
  0
LINE
  5
3C9
330
1E
100
AcDbEntity
  8
0
100
AcDbLine
 10
79.13600000000001
 20
37.152245037865
 30
0.0
 11
80.2358
 21
37.0216143811241
 31
0.0
  0
LINE
  5
3CB
330
1E
100
AcDbEntity
  8
0
100
AcDbLine
 10
79.8442
 20
38.2786439036414
 30
0.0
 11
80.944
 21
38.1480132469005
 31
0.0
  0
LINE
  5
3CC
330
1E
100
AcDbEntity
  8
0
100
AcDbLine
 10
78.8619
 20
38.0321741559504
 30
0.0
 11
79.8442
 21
38.2786439036414
 31
0.0
  0
LINE
  5
3CD
330
1E
100
AcDbEntity
  8
0
100
AcDbLine
 10
78.5528
 20
37.56738089718739
 30
0.0
 11
78.8619
 21
38.0321741559504
 31
0.0
  0
LINE
  5
3CE
330
1E
100
AcDbEntity
  8
0
100
AcDbLine
 10
78.5528
 20
37.56738089718739
 30
0.0
 11
79.13600000000001
 21
37.152245037865
 31
0.0
  0
LINE
  5
3D1
330
1E
100
AcDbEntity
  8
0
100
AcDbLine
 10
77.7191
 20
34.7450216799084
 30
0.0
 11
78.4255
 21
34.3655968865665
 31
0.0
  0
LINE
  5
3D3
330
1E
100
AcDbEntity
  8
0
100
AcDbLine
 10
76.58839999999999
 20
34.8138658532603
 30
0.0
 11
77.7191
 21
34.7450216799084
 31
0.0
  0
LINE
  5
3D5
330
1E
100
AcDbEntity
  8
0
100
AcDbLine
 10
75.6906
 20
34.5153297939858
 30
0.0
 11
76.58839999999999
 21
34.8138658532603
 31
0.0
  0
LINE
  5
3D6
330
1E
100
AcDbEntity
  8
0
100
AcDbLine
 10
75.52769999999999
 20
34.03747769571039
 30
0.0
 11
75.6906
 21
34.5153297939858
 31
0.0
  0
LINE
  5
3D7
330
1E
100
AcDbEntity
  8
0
100
AcDbLine
 10
75.52769999999999
 20
34.03747769571039
 30
0.0
 11
76.23409999999999
 21
33.6580529023686
 31
0.0
  0
LINE
  5
3D9
330
1E
100
AcDbEntity
  8
0
100
AcDbLine
 10
74.6391
 20
40.05593757595909
 30
0.0
 11
74.80199999999999
 21
40.5337896742344
 31
0.0
  0
LINE
  5
3DC
330
1E
100
AcDbEntity
  8
0
100
AcDbLine
 10
74.0956
 20
40.91317220595979
 30
0.0
 11
74.80199999999999
 21
40.5337896742344
 31
0.0
  0
LINE
  5
3DE
330
1E
100
AcDbEntity
  8
0
100
AcDbLine
 10
72.9649
 20
40.98205864092829
 30
0.0
 11
74.0956
 21
40.91317220595979
 31
0.0
  0
LINE
  5
3E1
330
1E
100
AcDbEntity
  8
0
100
AcDbLine
 10
80.18
 20
21.3627472978626
 30
0.0
 11
80.66
 21
21.8698866964037
 31
0.0
  0
LINE
  5
3E3
330
1E
100
AcDbEntity
  8
0
100
AcDbLine
 10
80.38020000000001
 20
31.1575987387655
 30
0.0
 11
80.68929999999999
 21
31.6223497359119
 31
0.0
  0
LINE
  5
3E4
330
1E
100
AcDbEntity
  8
0
100
AcDbLine
 10
80.38020000000001
 20
31.1575987387655
 30
0.0
 11
80.96339999999999
 21
30.742462879443
 31
0.0
  0
LINE
  5
3E6
330
1E
100
AcDbEntity
  8
0
100
AcDbLine
 10
80.2358
 20
37.0216143811241
 30
0.0
 11
81.21810000000001
 21
37.2680841288151
 31
0.0
  0
LINE
  5
3E7
330
1E
100
AcDbEntity
  8
0
100
AcDbLine
 10
80.66
 20
21.8698866964037
 30
0.0
 11
81.45999999999999
 21
22.31785983178169
 31
0.0
  0
LINE
  5
3E8
330
1E
100
AcDbEntity
  8
0
100
AcDbLine
 10
80.0
 20
20.82179860608539
 30
0.0
 11
80.18
 21
20.2808499143081
 31
0.0
  0
LINE
  5
3E9
330
1E
100
AcDbEntity
  8
0
100
AcDbLine
 10
80.0
 20
20.82179860608539
 30
0.0
 11
80.18
 21
21.3627472978626
 31
0.0
  0
LINE
  5
3EB
330
1E
100
AcDbEntity
  8
0
100
AcDbLine
 10
80.18
 20
20.2808499143081
 30
0.0
 11
80.66
 21
19.773710515767
 31
0.0
  0
LINE
  5
3EC
330
1E
100
AcDbEntity
  8
0
100
AcDbLine
 10
81.45999999999999
 20
22.31785983178169
 30
0.0
 11
82.52
 21
22.65595276414239
 31
0.0
  0
LINE
  5
3EE
330
1E
100
AcDbEntity
  8
0
100
AcDbLine
 10
80.68929999999999
 20
31.6223497359119
 30
0.0
 11
81.6716
 21
31.8688194836029
 31
0.0
  0
LINE
  5
3F1
330
1E
100
AcDbEntity
  8
0
100
AcDbLine
 10
80.96339999999999
 20
30.742462879443
 30
0.0
 11
82.06319999999999
 21
30.6118322227021
 31
0.0
  0
LINE
  5
3F2
330
1E
100
AcDbEntity
  8
0
100
AcDbLine
 10
82.06319999999999
 20
30.6118322227021
 30
0.0
 11
83.04540000000001
 21
30.8583019703931
 31
0.0
  0
LINE
  5
3F3
330
1E
100
AcDbEntity
  8
0
100
AcDbLine
 10
81.6716
 20
31.8688194836029
 30
0.0
 11
82.77129999999999
 21
31.738188826862
 31
0.0
  0
LINE
  5
3F6
330
1E
100
AcDbEntity
  8
0
100
AcDbLine
 10
81.21810000000001
 20
37.2680841288151
 30
0.0
 11
81.5272
 21
37.732877387578
 31
0.0
  0
LINE
  5
3F7
330
1E
100
AcDbEntity
  8
0
100
AcDbLine
 10
80.944
 20
38.1480132469005
 30
0.0
 11
81.5272
 21
37.732877387578
 31
0.0
  0
LINE
  5
3F9
330
1E
100
AcDbEntity
  8
0
100
AcDbLine
 10
82.52
 20
22.65595276414239
 30
0.0
 11
83.71999999999999
 21
22.8588085235589
 31
0.0
  0
LINE
  5
3FA
330
1E
100
AcDbEntity
  8
0
100
AcDbLine
 10
80.66
 20
19.773710515767
 30
0.0
 11
81.45999999999999
 21
19.325737380389
 31
0.0
  0
LINE
  5
3FB
330
1E
100
AcDbEntity
  8
0
100
AcDbLine
 10
81.45999999999999
 20
19.325737380389
 30
0.0
 11
82.52
 21
18.9876444480283
 31
0.0
  0
LINE
  5
3FC
330
1E
100
AcDbEntity
  8
0
100
AcDbLine
 10
83.95000000000001
 20
27.65315732148289
 30
0.0
 11
85.0
 21
27.4629800470299
 31
0.0
  0
LINE
  5
3FD
330
1E
100
AcDbEntity
  8
0
100
AcDbLine
 10
85.0
 20
27.4629800470299
 30
0.0
 11
86.05
 21
27.65315732148289
 31
0.0
  0
LINE
  5
3FF
330
1E
100
AcDbEntity
  8
0
100
AcDbLine
 10
83.04540000000001
 20
30.8583019703931
 30
0.0
 11
83.35449999999999
 21
31.32309522915599
 31
0.0
  0
LINE
  5
400
330
1E
100
AcDbEntity
  8
0
100
AcDbLine
 10
82.77129999999999
 20
31.738188826862
 30
0.0
 11
83.35449999999999
 21
31.32309522915599
 31
0.0
  0
LINE
  5
401
330
1E
100
AcDbEntity
  8
0
100
AcDbLine
 10
83.49999999999999
 20
41.01772744529229
 30
0.0
 11
83.95000000000001
 21
41.4614744190158
 31
0.0
  0
LINE
  5
402
330
1E
100
AcDbEntity
  8
0
100
AcDbLine
 10
83.49999999999999
 20
41.01772744529229
 30
0.0
 11
83.95000000000001
 21
40.5739804715688
 31
0.0
  0
LINE
  5
403
330
1E
100
AcDbEntity
  8
0
100
AcDbLine
 10
83.95000000000001
 20
34.2041997729808
 30
0.0
 11
85.0
 21
34.0140224985279
 31
0.0
  0
LINE
  5
404
330
1E
100
AcDbEntity
  8
0
100
AcDbLine
 10
83.95000000000001
 20
40.5739804715688
 30
0.0
 11
85.0
 21
40.38380319711589
 31
0.0
  0
LINE
  5
405
330
1E
100
AcDbEntity
  8
0
100
AcDbLine
 10
83.95000000000001
 20
41.4614744190158
 30
0.0
 11
85.0
 21
41.6516516934687
 31
0.0
  0
LINE
  5
406
330
1E
100
AcDbEntity
  8
0
100
AcDbLine
 10
83.95000000000001
 20
35.0916937204278
 30
0.0
 11
85.0
 21
35.2818709948807
 31
0.0
  0
LINE
  5
407
330
1E
100
AcDbEntity
  8
0
100
AcDbLine
 10
83.49999999999999
 20
34.6479467467043
 30
0.0
 11
83.95000000000001
 21
35.0916937204278
 31
0.0
  0
LINE
  5
408
330
1E
100
AcDbEntity
  8
0
100
AcDbLine
 10
83.49999999999999
 20
34.6479467467043
 30
0.0
 11
83.95000000000001
 21
34.2041997729808
 31
0.0
  0
LINE
  5
40A
330
1E
100
AcDbEntity
  8
0
100
AcDbLine
 10
85.0
 20
40.38380319711589
 30
0.0
 11
86.05
 21
40.5739804715688
 31
0.0
  0
LINE
  5
40B
330
1E
100
AcDbEntity
  8
0
100
AcDbLine
 10
85.0
 20
41.6516516934687
 30
0.0
 11
86.05
 21
41.4614744190158
 31
0.0
  0
LINE
  5
40C
330
1E
100
AcDbEntity
  8
0
100
AcDbLine
 10
85.0
 20
34.0140224985279
 30
0.0
 11
86.05
 21
34.2041997729808
 31
0.0
  0
LINE
  5
40D
330
1E
100
AcDbEntity
  8
0
100
AcDbLine
 10
85.0
 20
35.2818709948807
 30
0.0
 11
86.05
 21
35.0916937204278
 31
0.0
  0
LINE
  5
40E
330
1E
100
AcDbEntity
  8
0
100
AcDbLine
 10
85.0
 20
28.7308285433828
 30
0.0
 11
86.05
 21
28.54065126892979
 31
0.0
  0
LINE
  5
40F
330
1E
100
AcDbEntity
  8
0
100
AcDbLine
 10
83.95000000000001
 20
28.54065126892979
 30
0.0
 11
85.0
 21
28.7308285433828
 31
0.0
  0
LINE
  5
411
330
1E
100
AcDbEntity
  8
0
100
AcDbLine
 10
83.49999999999999
 20
28.0969042952063
 30
0.0
 11
83.95000000000001
 21
28.54065126892979
 31
0.0
  0
LINE
  5
412
330
1E
100
AcDbEntity
  8
0
100
AcDbLine
 10
83.49999999999999
 20
28.0969042952063
 30
0.0
 11
83.95000000000001
 21
27.65315732148289
 31
0.0
  0
LINE
  5
414
330
1E
100
AcDbEntity
  8
0
100
AcDbLine
 10
85.0
 20
22.9348794333401
 30
0.0
 11
86.28
 21
22.8588085235589
 31
0.0
  0
LINE
  5
415
330
1E
100
AcDbEntity
  8
0
100
AcDbLine
 10
83.71999999999999
 20
22.8588085235589
 30
0.0
 11
85.0
 21
22.9348794333401
 31
0.0
  0
LINE
  5
416
330
1E
100
AcDbEntity
  8
0
100
AcDbLine
 10
82.52
 20
18.9876444480283
 30
0.0
 11
83.71999999999999
 21
18.7847886886118
 31
0.0
  0
LINE
  5
417
330
1E
100
AcDbEntity
  8
0
100
AcDbLine
 10
83.71999999999999
 20
18.7847886886118
 30
0.0
 11
85.0
 21
18.7087177788306
 31
0.0
  0
LINE
  5
418
330
1E
100
AcDbEntity
  8
0
100
AcDbLine
 10
86.05
 20
2.538525580984019
 30
0.0
 11
86.5
 21
2.982272554707509
 31
0.0
  0
LINE
  5
419
330
1E
100
AcDbEntity
  8
0
100
AcDbLine
 10
86.05
 20
3.426019528430999
 30
0.0
 11
86.5
 21
2.982272554707509
 31
0.0
  0
LINE
  5
41A
330
1E
100
AcDbEntity
  8
0
100
AcDbLine
 10
86.05
 20
8.88949146246936
 30
0.0
 11
86.5
 21
8.445744488745869
 31
0.0
  0
LINE
  5
41B
330
1E
100
AcDbEntity
  8
0
100
AcDbLine
 10
86.05
 20
8.001997515022379
 30
0.0
 11
86.5
 21
8.445744488745869
 31
0.0
  0
LINE
  5
41D
330
1E
100
AcDbEntity
  8
0
100
AcDbLine
 10
86.05
 20
14.1717016435978
 30
0.0
 11
86.5
 21
13.7279546698743
 31
0.0
  0
LINE
  5
41F
330
1E
100
AcDbEntity
  8
0
100
AcDbLine
 10
86.05
 20
13.2842076961508
 30
0.0
 11
86.5
 21
13.7279546698743
 31
0.0
  0
LINE
  5
420
330
1E
100
AcDbEntity
  8
0
100
AcDbLine
 10
86.05
 20
34.2041997729808
 30
0.0
 11
86.5
 21
34.6479467467043
 31
0.0
  0
LINE
  5
421
330
1E
100
AcDbEntity
  8
0
100
AcDbLine
 10
86.05
 20
40.5739804715688
 30
0.0
 11
86.5
 21
41.01772744529229
 31
0.0
  0
LINE
  5
422
330
1E
100
AcDbEntity
  8
0
100
AcDbLine
 10
86.05
 20
41.4614744190158
 30
0.0
 11
86.5
 21
41.01772744529229
 31
0.0
  0
LINE
  5
423
330
1E
100
AcDbEntity
  8
0
100
AcDbLine
 10
86.05
 20
35.0916937204278
 30
0.0
 11
86.5
 21
34.6479467467043
 31
0.0
  0
LINE
  5
425
330
1E
100
AcDbEntity
  8
0
100
AcDbLine
 10
86.05
 20
27.65315732148289
 30
0.0
 11
86.5
 21
28.0969042952063
 31
0.0
  0
LINE
  5
426
330
1E
100
AcDbEntity
  8
0
100
AcDbLine
 10
86.05
 20
28.54065126892979
 30
0.0
 11
86.5
 21
28.0969042952063
 31
0.0
  0
LINE
  5
428
330
1E
100
AcDbEntity
  8
0
100
AcDbLine
 10
86.28
 20
18.7847886886118
 30
0.0
 11
87.48000000000001
 21
18.9876444480283
 31
0.0
  0
LINE
  5
42B
330
1E
100
AcDbEntity
  8
0
100
AcDbLine
 10
88.47280000000001
 20
5.723337353692018
 30
0.0
 11
89.05599999999999
 21
5.308201494369559
 31
0.0
  0
LINE
  5
42C
330
1E
100
AcDbEntity
  8
0
100
AcDbLine
 10
88.47280000000001
 20
5.723337353692018
 30
0.0
 11
88.7819
 21
6.18813061245496
 31
0.0
  0
LINE
  5
42E
330
1E
100
AcDbEntity
  8
0
100
AcDbLine
 10
86.9546
 20
11.5103422534173
 30
0.0
 11
87.9368
 21
11.7568120011083
 31
0.0
  0
LINE
  5
42F
330
1E
100
AcDbEntity
  8
0
100
AcDbLine
 10
86.6455
 20
11.04554899465439
 30
0.0
 11
87.2287
 21
10.6304553969485
 31
0.0
  0
LINE
  5
430
330
1E
100
AcDbEntity
  8
0
100
AcDbLine
 10
86.6455
 20
11.04554899465439
 30
0.0
 11
86.9546
 21
11.5103422534173
 31
0.0
  0
LINE
  5
432
330
1E
100
AcDbEntity
  8
0
100
AcDbLine
 10
87.9368
 20
11.7568120011083
 30
0.0
 11
89.0366
 21
11.62618134436739
 31
0.0
  0
LINE
  5
434
330
1E
100
AcDbEntity
  8
0
100
AcDbLine
 10
87.2287
 20
10.6304553969485
 30
0.0
 11
88.3284
 21
10.49982474020759
 31
0.0
  0
LINE
  5
435
330
1E
100
AcDbEntity
  8
0
100
AcDbLine
 10
88.3284
 20
10.49982474020759
 30
0.0
 11
89.3107
 21
10.74629448789859
 31
0.0
  0
LINE
  5
437
330
1E
100
AcDbEntity
  8
0
100
AcDbLine
 10
88.54
 20
19.325737380389
 30
0.0
 11
89.34000000000001
 21
19.773710515767
 31
0.0
  0
LINE
  5
438
330
1E
100
AcDbEntity
  8
0
100
AcDbLine
 10
87.48000000000001
 20
18.9876444480283
 30
0.0
 11
88.54
 21
19.325737380389
 31
0.0
  0
LINE
  5
43A
330
1E
100
AcDbEntity
  8
0
100
AcDbLine
 10
88.7819
 20
6.18813061245496
 30
0.0
 11
89.7642
 21
6.43460036014595
 31
0.0
  0
LINE
  5
43C
330
1E
100
AcDbEntity
  8
0
100
AcDbLine
 10
89.05599999999999
 20
5.308201494369559
 30
0.0
 11
90.15579999999999
 21
5.177570837628669
 31
0.0
  0
LINE
  5
43E
330
1E
100
AcDbEntity
  8
0
100
AcDbLine
 10
89.0366
 20
11.62618134436739
 30
0.0
 11
89.6198
 21
11.21104548504499
 31
0.0
  0
LINE
  5
441
330
1E
100
AcDbEntity
  8
0
100
AcDbLine
 10
89.7642
 20
6.43460036014595
 30
0.0
 11
90.86399999999999
 21
6.303969703405059
 31
0.0
  0
LINE
  5
445
330
1E
100
AcDbEntity
  8
0
100
AcDbLine
 10
89.3107
 20
10.74629448789859
 30
0.0
 11
89.6198
 21
11.21104548504499
 31
0.0
  0
LINE
  5
446
330
1E
100
AcDbEntity
  8
0
100
AcDbLine
 10
89.81999999999999
 20
20.2808499143081
 30
0.0
 11
90.0
 21
20.82179860608539
 31
0.0
  0
LINE
  5
447
330
1E
100
AcDbEntity
  8
0
100
AcDbLine
 10
89.34000000000001
 20
19.773710515767
 30
0.0
 11
89.81999999999999
 21
20.2808499143081
 31
0.0
  0
LINE
  5
449
330
1E
100
AcDbEntity
  8
0
100
AcDbLine
 10
90.86399999999999
 20
6.303969703405059
 30
0.0
 11
91.44719999999999
 21
5.8888338440826
 31
0.0
  0
LINE
  5
44B
330
1E
100
AcDbEntity
  8
0
100
AcDbLine
 10
90.15579999999999
 20
5.177570837628669
 30
0.0
 11
91.13809999999999
 21
5.42404058531966
 31
0.0
  0
LINE
  5
44E
330
1E
100
AcDbEntity
  8
0
100
AcDbLine
 10
91.13809999999999
 20
5.42404058531966
 30
0.0
 11
91.44719999999999
 21
5.8888338440826
 31
0.0
  0
LINE
  5
452
330
1E
100
AcDbEntity
  8
0
100
AcDbLine
 10
92.63519999999999
 20
9.50448250643357
 30
0.0
 11
93.7659
 21
9.435638333081618
 31
0.0
  0
LINE
  5
454
330
1E
100
AcDbEntity
  8
0
100
AcDbLine
 10
91.7374
 20
9.205946447159019
 30
0.0
 11
92.63519999999999
 21
9.50448250643357
 31
0.0
  0
LINE
  5
456
330
1E
100
AcDbEntity
  8
0
100
AcDbLine
 10
91.5745
 20
8.728094348883638
 30
0.0
 11
92.28089999999999
 21
8.348669555541789
 31
0.0
  0
LINE
  5
457
330
1E
100
AcDbEntity
  8
0
100
AcDbLine
 10
91.5745
 20
8.728094348883638
 30
0.0
 11
91.7374
 21
9.205946447159019
 31
0.0
  0
LINE
  5
459
330
1E
100
AcDbEntity
  8
0
100
AcDbLine
 10
92.28089999999999
 20
8.348669555541789
 30
0.0
 11
93.4116
 21
8.27982538218983
 31
0.0
  0
LINE
  5
45A
330
1E
100
AcDbEntity
  8
0
100
AcDbLine
 10
93.4116
 20
8.27982538218983
 30
0.0
 11
94.30939999999999
 21
8.57836144146438
 31
0.0
  0
LINE
  5
45C
330
1E
100
AcDbEntity
  8
0
100
AcDbLine
 10
93.6104
 20
12.3992730958268
 30
0.0
 11
94.7527
 21
12.3933987311271
 31
0.0
  0
LINE
  5
45E
330
1E
100
AcDbEntity
  8
0
100
AcDbLine
 10
92.8125
 20
12.0537421189542
 30
0.0
 11
93.6104
 21
12.3992730958268
 31
0.0
  0
LINE
  5
45F
330
1E
100
AcDbEntity
  8
0
100
AcDbLine
 10
92.79859999999999
 20
11.5710299347761
 30
0.0
 11
93.6161
 21
11.2338244963628
 31
0.0
  0
LINE
  5
460
330
1E
100
AcDbEntity
  8
0
100
AcDbLine
 10
92.79859999999999
 20
11.5710299347761
 30
0.0
 11
92.8125
 21
12.0537421189542
 31
0.0
  0
LINE
  5
461
330
1E
100
AcDbEntity
  8
0
100
AcDbLine
 10
93.7659
 20
9.435638333081618
 30
0.0
 11
94.47230000000001
 21
9.05621353973976
 31
0.0
  0
LINE
  5
462
330
1E
100
AcDbEntity
  8
0
100
AcDbLine
 10
93.6161
 20
11.2338244963628
 30
0.0
 11
94.75839999999999
 21
11.227950131663
 31
0.0
  0
LINE
  5
463
330
1E
100
AcDbEntity
  8
0
100
AcDbLine
 10
92.06570000000001
 20
14.8529166406882
 30
0.0
 11
92.201
 21
14.3735431242172
 31
0.0
  0
LINE
  5
464
330
1E
100
AcDbEntity
  8
0
100
AcDbLine
 10
92.06570000000001
 20
14.8529166406882
 30
0.0
 11
92.75
 21
15.2394836472261
 31
0.0
  0
LINE
  5
466
330
1E
100
AcDbEntity
  8
0
100
AcDbLine
 10
92.201
 20
14.3735431242172
 30
0.0
 11
93.11570000000001
 21
14.08430462058249
 31
0.0
  0
LINE
  5
467
330
1E
100
AcDbEntity
  8
0
100
AcDbLine
 10
93.11570000000001
 20
14.08430462058249
 30
0.0
 11
94.25
 21
14.141484587768
 31
0.0
  0
LINE
  5
469
330
1E
100
AcDbEntity
  8
0
100
AcDbLine
 10
95.36089999999999
 20
3.94406242404076
 30
0.0
 11
96.25860000000001
 21
4.242598483315309
 31
0.0
  0
LINE
  5
46A
330
1E
100
AcDbEntity
  8
0
100
AcDbLine
 10
95.198
 20
3.46621032576539
 30
0.0
 11
95.90439999999999
 21
3.086827794040069
 31
0.0
  0
LINE
  5
46B
330
1E
100
AcDbEntity
  8
0
100
AcDbLine
 10
95.198
 20
3.46621032576539
 30
0.0
 11
95.36089999999999
 21
3.94406242404076
 31
0.0
  0
LINE
  5
46D
330
1E
100
AcDbEntity
  8
0
100
AcDbLine
 10
94.30939999999999
 20
8.57836144146438
 30
0.0
 11
94.47230000000001
 21
9.05621353973976
 31
0.0
  0
LINE
  5
46F
330
1E
100
AcDbEntity
  8
0
100
AcDbLine
 10
94.7527
 20
12.3933987311271
 30
0.0
 11
95.57019999999999
 21
12.0561932927138
 31
0.0
  0
LINE
  5
471
330
1E
100
AcDbEntity
  8
0
100
AcDbLine
 10
94.75839999999999
 20
11.227950131663
 30
0.0
 11
95.55629999999998
 21
11.57343884691919
 31
0.0
  0
LINE
  5
472
330
1E
100
AcDbEntity
  8
0
100
AcDbLine
 10
97.38930000000001
 20
4.173754309963359
 30
0.0
 11
98.0957
 21
3.794371778238049
 31
0.0
  0
LINE
  5
474
330
1E
100
AcDbEntity
  8
0
100
AcDbLine
 10
96.25860000000001
 20
4.242598483315309
 30
0.0
 11
97.38930000000001
 21
4.173754309963359
 31
0.0
  0
LINE
  5
476
330
1E
100
AcDbEntity
  8
0
100
AcDbLine
 10
95.90439999999999
 20
3.086827794040069
 30
0.0
 11
97.03510000000001
 21
3.01794135907157
 31
0.0
  0
LINE
  5
477
330
1E
100
AcDbEntity
  8
0
100
AcDbLine
 10
97.03510000000001
 20
3.01794135907157
 30
0.0
 11
97.93280000000001
 21
3.316519679962659
 31
0.0
  0
LINE
  5
47A
330
1E
100
AcDbEntity
  8
0
100
AcDbLine
 10
95.55629999999998
 20
11.57343884691919
 30
0.0
 11
95.57019999999999
 21
12.0561932927138
 31
0.0
  0
LINE
  5
47C
330
1E
100
AcDbEntity
  8
0
100
AcDbLine
 10
94.25
 20
14.141484587768
 30
0.0
 11
94.9343
 21
14.52805159430599
 31
0.0
  0
LINE
  5
482
330
1E
100
AcDbEntity
  8
0
100
AcDbLine
 10
93.88429999999999
 20
15.2966636144117
 30
0.0
 11
94.79899999999998
 21
15.00746737239359
 31
0.0
  0
LINE
  5
484
330
1E
100
AcDbEntity
  8
0
100
AcDbLine
 10
92.75
 20
15.2394836472261
 30
0.0
 11
93.88429999999999
 21
15.2966636144117
 31
0.0
  0
LINE
  5
486
330
1E
100
AcDbEntity
  8
0
100
AcDbLine
 10
94.79899999999998
 20
15.00746737239359
 30
0.0
 11
94.9343
 21
14.52805159430599
 31
0.0
  0
LINE
  5
48A
330
1E
100
AcDbEntity
  8
0
100
AcDbLine
 10
89.81999999999999
 20
21.3627472978626
 30
0.0
 11
90.0
 21
20.82179860608539
 31
0.0
  0
LINE
  5
48B
330
1E
100
AcDbEntity
  8
0
100
AcDbLine
 10
89.34000000000001
 20
21.8698866964037
 30
0.0
 11
89.81999999999999
 21
21.3627472978626
 31
0.0
  0
LINE
  5
48C
330
1E
100
AcDbEntity
  8
0
100
AcDbLine
 10
88.54
 20
22.31785983178169
 30
0.0
 11
89.34000000000001
 21
21.8698866964037
 31
0.0
  0
LINE
  5
48E
330
1E
100
AcDbEntity
  8
0
100
AcDbLine
 10
93.88429999999999
 20
26.528195350669
 30
0.0
 11
94.79899999999998
 21
26.8173915926871
 31
0.0
  0
LINE
  5
48F
330
1E
100
AcDbEntity
  8
0
100
AcDbLine
 10
92.75
 20
26.5853753178545
 30
0.0
 11
93.88429999999999
 21
26.528195350669
 31
0.0
  0
LINE
  5
490
330
1E
100
AcDbEntity
  8
0
100
AcDbLine
 10
92.06570000000001
 20
27.1275284744524
 30
0.0
 11
92.06570000000001
 21
26.9719423243925
 31
0.0
  0
LINE
  5
491
330
1E
100
AcDbEntity
  8
0
100
AcDbLine
 10
92.06570000000001
 20
26.9719423243925
 30
0.0
 11
92.201
 21
27.4513158408635
 31
0.0
  0
LINE
  5
492
330
1E
100
AcDbEntity
  8
0
100
AcDbLine
 10
92.06570000000001
 20
26.9719423243925
 30
0.0
 11
92.75
 21
26.5853753178545
 31
0.0
  0
LINE
  5
493
330
1E
100
AcDbEntity
  8
0
100
AcDbLine
 10
92.06570000000001
 20
26.9719423243925
 30
0.0
 11
92.06570000000001
 21
27.1275284744524
 31
0.0
  0
LINE
  5
494
330
1E
100
AcDbEntity
  8
0
100
AcDbLine
 10
92.201
 20
27.4513158408635
 30
0.0
 11
93.11570000000001
 21
27.7405543444981
 31
0.0
  0
LINE
  5
495
330
1E
100
AcDbEntity
  8
0
100
AcDbLine
 10
89.0366
 20
30.742462879443
 30
0.0
 11
89.6198
 21
31.1575987387655
 31
0.0
  0
LINE
  5
496
330
1E
100
AcDbEntity
  8
0
100
AcDbLine
 10
87.9368
 20
30.6118322227021
 30
0.0
 11
89.0366
 21
30.742462879443
 31
0.0
  0
LINE
  5
497
330
1E
100
AcDbEntity
  8
0
100
AcDbLine
 10
86.9546
 20
30.8583019703931
 30
0.0
 11
87.9368
 21
30.6118322227021
 31
0.0
  0
LINE
  5
498
330
1E
100
AcDbEntity
  8
0
100
AcDbLine
 10
93.6104
 20
29.9693711279836
 30
0.0
 11
94.7527
 21
29.97524549268339
 31
0.0
  0
LINE
  5
499
330
1E
100
AcDbEntity
  8
0
100
AcDbLine
 10
92.8125
 20
30.3149021048563
 30
0.0
 11
93.6104
 21
29.9693711279836
 31
0.0
  0
LINE
  5
49A
330
1E
100
AcDbEntity
  8
0
100
AcDbLine
 10
92.79859999999999
 20
30.7976142890344
 30
0.0
 11
93.6161
 21
31.1348197274477
 31
0.0
  0
LINE
  5
49B
330
1E
100
AcDbEntity
  8
0
100
AcDbLine
 10
92.79859999999999
 20
30.7976142890344
 30
0.0
 11
92.8125
 21
30.3149021048563
 31
0.0
  0
LINE
  5
49C
330
1E
100
AcDbEntity
  8
0
100
AcDbLine
 10
86.6455
 20
31.32309522915599
 30
0.0
 11
87.2287
 21
31.738188826862
 31
0.0
  0
LINE
  5
49D
330
1E
100
AcDbEntity
  8
0
100
AcDbLine
 10
86.6455
 20
31.32309522915599
 30
0.0
 11
86.9546
 21
30.8583019703931
 31
0.0
  0
LINE
  5
49E
330
1E
100
AcDbEntity
  8
0
100
AcDbLine
 10
87.2287
 20
31.738188826862
 30
0.0
 11
88.3284
 21
31.8688194836029
 31
0.0
  0
LINE
  5
4A0
330
1E
100
AcDbEntity
  8
0
100
AcDbLine
 10
88.7819
 20
37.2680841288151
 30
0.0
 11
89.7642
 21
37.0216143811241
 31
0.0
  0
LINE
  5
4A1
330
1E
100
AcDbEntity
  8
0
100
AcDbLine
 10
88.47280000000001
 20
37.732877387578
 30
0.0
 11
89.05599999999999
 21
38.1480132469005
 31
0.0
  0
LINE
  5
4A2
330
1E
100
AcDbEntity
  8
0
100
AcDbLine
 10
88.47280000000001
 20
37.732877387578
 30
0.0
 11
88.7819
 21
37.2680841288151
 31
0.0
  0
LINE
  5
4A5
330
1E
100
AcDbEntity
  8
0
100
AcDbLine
 10
89.05599999999999
 20
38.1480132469005
 30
0.0
 11
90.15579999999999
 21
38.2786439036414
 31
0.0
  0
LINE
  5
4A8
330
1E
100
AcDbEntity
  8
0
100
AcDbLine
 10
88.3284
 20
31.8688194836029
 30
0.0
 11
89.3107
 21
31.6223497359119
 31
0.0
  0
LINE
  5
4AB
330
1E
100
AcDbEntity
  8
0
100
AcDbLine
 10
92.63519999999999
 20
33.58920872901659
 30
0.0
 11
93.7659
 21
33.6580529023686
 31
0.0
  0
LINE
  5
4AC
330
1E
100
AcDbEntity
  8
0
100
AcDbLine
 10
91.7374
 20
33.8877447882911
 30
0.0
 11
92.63519999999999
 21
33.58920872901659
 31
0.0
  0
LINE
  5
4AD
330
1E
100
AcDbEntity
  8
0
100
AcDbLine
 10
91.5745
 20
34.3655968865665
 30
0.0
 11
92.28089999999999
 21
34.7450216799084
 31
0.0
  0
LINE
  5
4AE
330
1E
100
AcDbEntity
  8
0
100
AcDbLine
 10
91.5745
 20
34.3655968865665
 30
0.0
 11
91.7374
 21
33.8877447882911
 31
0.0
  0
LINE
  5
4B0
330
1E
100
AcDbEntity
  8
0
100
AcDbLine
 10
90.86399999999999
 20
37.152245037865
 30
0.0
 11
91.44719999999999
 21
37.56738089718739
 31
0.0
  0
LINE
  5
4B1
330
1E
100
AcDbEntity
  8
0
100
AcDbLine
 10
89.7642
 20
37.0216143811241
 30
0.0
 11
90.86399999999999
 21
37.152245037865
 31
0.0
  0
LINE
  5
4B2
330
1E
100
AcDbEntity
  8
0
100
AcDbLine
 10
90.15579999999999
 20
38.2786439036414
 30
0.0
 11
91.13809999999999
 21
38.0321741559504
 31
0.0
  0
LINE
  5
4B3
330
1E
100
AcDbEntity
  8
0
100
AcDbLine
 10
91.44719999999999
 20
37.56738089718739
 30
0.0
 11
91.44719999999999
 21
37.7171000592792
 31
0.0
  0
LINE
  5
4B4
330
1E
100
AcDbEntity
  8
0
100
AcDbLine
 10
91.44719999999999
 20
37.7171000592792
 30
0.0
 11
91.44719999999999
 21
37.56738089718739
 31
0.0
  0
LINE
  5
4B5
330
1E
100
AcDbEntity
  8
0
100
AcDbLine
 10
91.13809999999999
 20
38.0321741559504
 30
0.0
 11
91.44719999999999
 21
37.56738089718739
 31
0.0
  0
LINE
  5
4B8
330
1E
100
AcDbEntity
  8
0
100
AcDbLine
 10
92.28089999999999
 20
34.7450216799084
 30
0.0
 11
93.4116
 21
34.8138658532603
 31
0.0
  0
LINE
  5
4BA
330
1E
100
AcDbEntity
  8
0
100
AcDbLine
 10
93.7659
 20
33.6580529023686
 30
0.0
 11
94.47230000000001
 21
34.03747769571039
 31
0.0
  0
LINE
  5
4BB
330
1E
100
AcDbEntity
  8
0
100
AcDbLine
 10
93.4116
 20
34.8138658532603
 30
0.0
 11
94.30939999999999
 21
34.5153297939858
 31
0.0
  0
LINE
  5
4BE
330
1E
100
AcDbEntity
  8
0
100
AcDbLine
 10
89.3107
 20
31.6223497359119
 30
0.0
 11
89.6198
 21
31.1575987387655
 31
0.0
  0
LINE
  5
4C0
330
1E
100
AcDbEntity
  8
0
100
AcDbLine
 10
93.6161
 20
31.1348197274477
 30
0.0
 11
94.75839999999999
 21
31.1406940921474
 31
0.0
  0
LINE
  5
4C2
330
1E
100
AcDbEntity
  8
0
100
AcDbLine
 10
93.11570000000001
 20
27.7405543444981
 30
0.0
 11
94.25
 21
27.6833743773126
 31
0.0
  0
LINE
  5
4C3
330
1E
100
AcDbEntity
  8
0
100
AcDbLine
 10
94.7527
 20
29.97524549268339
 30
0.0
 11
95.57019999999999
 21
30.31245093109669
 31
0.0
  0
LINE
  5
4C4
330
1E
100
AcDbEntity
  8
0
100
AcDbLine
 10
94.30939999999999
 20
34.5153297939858
 30
0.0
 11
94.47230000000001
 21
34.03747769571039
 31
0.0
  0
LINE
  5
4C5
330
1E
100
AcDbEntity
  8
0
100
AcDbLine
 10
94.75839999999999
 20
31.1406940921474
 30
0.0
 11
95.55629999999998
 21
30.7952053768913
 31
0.0
  0
LINE
  5
4C8
330
1E
100
AcDbEntity
  8
0
100
AcDbLine
 10
95.36089999999999
 20
40.05593757595909
 30
0.0
 11
96.25860000000001
 21
39.75740151668449
 31
0.0
  0
LINE
  5
4C9
330
1E
100
AcDbEntity
  8
0
100
AcDbLine
 10
95.198
 20
40.5337896742344
 30
0.0
 11
95.90439999999999
 21
40.91317220595979
 31
0.0
  0
LINE
  5
4CA
330
1E
100
AcDbEntity
  8
0
100
AcDbLine
 10
95.198
 20
40.5337896742344
 30
0.0
 11
95.36089999999999
 21
40.05593757595909
 31
0.0
  0
LINE
  5
4CD
330
1E
100
AcDbEntity
  8
0
100
AcDbLine
 10
97.38930000000001
 20
39.8262456900365
 30
0.0
 11
98.0957
 21
40.2056282217618
 31
0.0
  0
LINE
  5
4CE
330
1E
100
AcDbEntity
  8
0
100
AcDbLine
 10
96.25860000000001
 20
39.75740151668449
 30
0.0
 11
97.38930000000001
 21
39.8262456900365
 31
0.0
  0
LINE
  5
4CF
330
1E
100
AcDbEntity
  8
0
100
AcDbLine
 10
95.90439999999999
 20
40.91317220595979
 30
0.0
 11
97.03510000000001
 21
40.98205864092829
 31
0.0
  0
LINE
  5
4D3
330
1E
100
AcDbEntity
  8
0
100
AcDbLine
 10
97.03510000000001
 20
40.98205864092829
 30
0.0
 11
97.93280000000001
 21
40.6834803200372
 31
0.0
  0
LINE
  5
4D6
330
1E
100
AcDbEntity
  8
0
100
AcDbLine
 10
95.55629999999998
 20
30.7952053768913
 30
0.0
 11
95.57019999999999
 21
30.31245093109669
 31
0.0
  0
LINE
  5
4DA
330
1E
100
AcDbEntity
  8
0
100
AcDbLine
 10
94.25
 20
27.6833743773126
 30
0.0
 11
94.9343
 21
27.2968073707746
 31
0.0
  0
LINE
  5
4DC
330
1E
100
AcDbEntity
  8
0
100
AcDbLine
 10
94.79899999999998
 20
26.8173915926871
 30
0.0
 11
94.9343
 21
27.2968073707746
 31
0.0
  0
LINE
  5
4DE
330
1E
100
AcDbEntity
  8
0
100
AcDbLine
 10
87.48000000000001
 20
22.65595276414239
 30
0.0
 11
88.54
 21
22.31785983178169
 31
0.0
  0
LINE
  5
4DF
330
1E
100
AcDbEntity
  8
0
100
AcDbLine
 10
86.28
 20
22.8588085235589
 30
0.0
 11
87.48000000000001
 21
22.65595276414239
 31
0.0
  0
LINE
  5
4E0
330
1E
100
AcDbEntity
  8
0
100
AcDbLine
 10
97.59999999999999
 20
2.958825755265099
 30
0.0
 11
109.4
 21
4.98738334942963
 31
0.0
  0
LINE
  5
4E1
330
1E
100
AcDbEntity
  8
0
100
AcDbLine
 10
85.0
 20
2.19811665745341
 30
0.0
 11
97.59999999999999
 21
2.958825755265099
 31
0.0
  0
LINE
  5
4E2
330
1E
100
AcDbEntity
  8
0
100
AcDbLine
 10
97.59999999999999
 20
42.8537917738341
 30
0.0
 11
109.4
 21
40.8252341796695
 31
0.0
  0
LINE
  5
4E3
330
1E
100
AcDbEntity
  8
0
100
AcDbLine
 10
72.40000000000001
 20
2.958825755265099
 30
0.0
 11
85.0
 21
2.19811665745341
 31
0.0
  0
LINE
  5
4E4
330
1E
100
AcDbEntity
  8
0
100
AcDbLine
 10
85.0
 20
0.115574047022587
 30
0.0
 11
99.1
 21
0.9608063779244721
 31
0.0
  0
LINE
  5
4E5
330
1E
100
AcDbEntity
  8
0
100
AcDbLine
 10
99.1
 20
0.9608063779244721
 30
0.0
 11
112.2999999999999
 21
3.242933671359559
 31
0.0
  0
LINE
  5
4E6
330
1E
100
AcDbEntity
  8
0
100
AcDbLine
 10
107.1157
 20
4.92398252687186
 30
0.0
 11
108.25
 21
4.98116249405738
 31
0.0
  0
LINE
  5
4E7
330
1E
100
AcDbEntity
  8
0
100
AcDbLine
 10
108.25
 20
4.98116249405738
 30
0.0
 11
108.9342999999999
 21
5.36772950059536
 31
0.0
  0
LINE
  5
4E8
330
1E
100
AcDbEntity
  8
0
100
AcDbLine
 10
97.93280000000001
 20
3.316519679962659
 30
0.0
 11
98.0957
 21
3.794371778238049
 31
0.0
  0
LINE
  5
4EC
330
1E
100
AcDbEntity
  8
0
100
AcDbLine
 10
98.96790000000001
 20
7.476814085764519
 30
0.0
 11
100.1102
 21
7.470939721064749
 31
0.0
  0
LINE
  5
4EE
330
1E
100
AcDbEntity
  8
0
100
AcDbLine
 10
98.17010000000001
 20
7.13128310889183
 30
0.0
 11
98.96790000000001
 21
7.476814085764519
 31
0.0
  0
LINE
  5
4F0
330
1E
100
AcDbEntity
  8
0
100
AcDbLine
 10
98.1562
 20
6.648570924713759
 30
0.0
 11
98.9737
 21
6.311365486300459
 31
0.0
  0
LINE
  5
4F1
330
1E
100
AcDbEntity
  8
0
100
AcDbLine
 10
98.1562
 20
6.648570924713759
 30
0.0
 11
98.17010000000001
 21
7.13128310889183
 31
0.0
  0
LINE
  5
4F5
330
1E
100
AcDbEntity
  8
0
100
AcDbLine
 10
99.75000000000001
 20
10.74993234601749
 30
0.0
 11
100.8842999999999
 21
10.807112313203
 31
0.0
  0
LINE
  5
4F7
330
1E
100
AcDbEntity
  8
0
100
AcDbLine
 10
99.06570000000002
 20
10.3633653394795
 30
0.0
 11
99.20100000000001
 21
9.883991823008519
 31
0.0
  0
LINE
  5
4F8
330
1E
100
AcDbEntity
  8
0
100
AcDbLine
 10
99.06570000000002
 20
10.3633653394795
 30
0.0
 11
99.75000000000001
 21
10.74993234601749
 31
0.0
  0
LINE
  5
4FA
330
1E
100
AcDbEntity
  8
0
100
AcDbLine
 10
99.20100000000001
 20
9.883991823008519
 30
0.0
 11
100.1157
 21
9.594795580990439
 31
0.0
  0
LINE
  5
4FB
330
1E
100
AcDbEntity
  8
0
100
AcDbLine
 10
100.8842999999999
 20
10.807112313203
 30
0.0
 11
101.7989999999999
 21
10.5179160711849
 31
0.0
  0
LINE
  5
4FC
330
1E
100
AcDbEntity
  8
0
100
AcDbLine
 10
100.1157
 20
9.594795580990439
 30
0.0
 11
101.2499999999999
 21
9.651975548175949
 31
0.0
  0
LINE
  5
4FE
330
1E
100
AcDbEntity
  8
0
100
AcDbLine
 10
100.1102
 20
7.470939721064749
 30
0.0
 11
100.9278
 21
7.13373428265145
 31
0.0
  0
LINE
  5
500
330
1E
100
AcDbEntity
  8
0
100
AcDbLine
 10
98.9737
 20
6.311365486300459
 30
0.0
 11
100.116
 21
6.305491121600678
 31
0.0
  0
LINE
  5
501
330
1E
100
AcDbEntity
  8
0
100
AcDbLine
 10
100.116
 20
6.305491121600678
 30
0.0
 11
100.9139
 21
6.650979836856839
 31
0.0
  0
LINE
  5
504
330
1E
100
AcDbEntity
  8
0
100
AcDbLine
 10
107.8842999999999
 20
6.136341520700989
 30
0.0
 11
108.799
 21
5.847145278682901
 31
0.0
  0
LINE
  5
505
330
1E
100
AcDbEntity
  8
0
100
AcDbLine
 10
106.75
 20
6.07916155351548
 30
0.0
 11
107.8842999999999
 21
6.136341520700989
 31
0.0
  0
LINE
  5
507
330
1E
100
AcDbEntity
  8
0
100
AcDbLine
 10
106.0657
 20
5.692594546977499
 30
0.0
 11
106.201
 21
5.21322103050649
 31
0.0
  0
LINE
  5
508
330
1E
100
AcDbEntity
  8
0
100
AcDbLine
 10
106.0657
 20
5.692594546977499
 30
0.0
 11
106.75
 21
6.07916155351548
 31
0.0
  0
LINE
  5
50A
330
1E
100
AcDbEntity
  8
0
100
AcDbLine
 10
106.201
 20
5.21322103050649
 30
0.0
 11
107.1157
 21
4.92398252687186
 31
0.0
  0
LINE
  5
50B
330
1E
100
AcDbEntity
  8
0
100
AcDbLine
 10
108.799
 20
5.847145278682901
 30
0.0
 11
108.9342999999999
 21
5.36772950059536
 31
0.0
  0
LINE
  5
50C
330
1E
100
AcDbEntity
  8
0
100
AcDbLine
 10
107.9390999999999
 20
8.365153265542399
 30
0.0
 11
109.0460999999999
 21
8.48437328581611
 31
0.0
  0
LINE
  5
50D
330
1E
100
AcDbEntity
  8
0
100
AcDbLine
 10
109.0460999999999
 20
8.48437328581611
 30
0.0
 11
109.6052
 21
8.905425771454881
 31
0.0
  0
LINE
  5
50F
330
1E
100
AcDbEntity
  8
0
100
AcDbLine
 10
101.2499999999999
 20
9.651975548175949
 30
0.0
 11
101.9342999999999
 21
10.0385425547139
 31
0.0
  0
LINE
  5
514
330
1E
100
AcDbEntity
  8
0
100
AcDbLine
 10
108.3268
 20
9.609504303096159
 30
0.0
 11
109.3229999999999
 21
9.373219604992529
 31
0.0
  0
LINE
  5
516
330
1E
100
AcDbEntity
  8
0
100
AcDbLine
 10
107.2197999999999
 20
9.490242021205901
 30
0.0
 11
108.3268
 21
9.609504303096159
 31
0.0
  0
LINE
  5
518
330
1E
100
AcDbEntity
  8
0
100
AcDbLine
 10
106.6607
 20
9.06923179718367
 30
0.0
 11
106.9428999999999
 21
8.601395702029469
 31
0.0
  0
LINE
  5
519
330
1E
100
AcDbEntity
  8
0
100
AcDbLine
 10
106.6607
 20
9.06923179718367
 30
0.0
 11
107.2197999999999
 21
9.490242021205901
 31
0.0
  0
LINE
  5
51B
330
1E
100
AcDbEntity
  8
0
100
AcDbLine
 10
106.9428999999999
 20
8.601395702029469
 30
0.0
 11
107.9390999999999
 21
8.365153265542399
 31
0.0
  0
LINE
  5
51C
330
1E
100
AcDbEntity
  8
0
100
AcDbLine
 10
109.3229999999999
 20
9.373219604992529
 30
0.0
 11
109.6052
 21
8.905425771454881
 31
0.0
  0
LINE
  5
51E
330
1E
100
AcDbEntity
  8
0
100
AcDbLine
 10
106.9202999999999
 20
11.65542974211269
 30
0.0
 11
107.981
 21
11.834703519497
 31
0.0
  0
LINE
  5
51F
330
1E
100
AcDbEntity
  8
0
100
AcDbLine
 10
101.7989999999999
 20
10.5179160711849
 30
0.0
 11
101.9342999999999
 21
10.0385425547139
 31
0.0
  0
LINE
  5
521
330
1E
100
AcDbEntity
  8
0
100
AcDbLine
 10
100.9139
 20
6.650979836856839
 30
0.0
 11
100.9278
 21
7.13373428265145
 31
0.0
  0
LINE
  5
522
330
1E
100
AcDbEntity
  8
0
100
AcDbLine
 10
109.4
 20
4.98738334942963
 30
0.0
 11
119.5999999999999
 21
8.28378943994698
 31
0.0
  0
LINE
  5
523
330
1E
100
AcDbEntity
  8
0
100
AcDbLine
 10
115.7591
 20
8.104169171890209
 30
0.0
 11
116.8198
 21
7.92489539450592
 31
0.0
  0
LINE
  5
524
330
1E
100
AcDbEntity
  8
0
100
AcDbLine
 10
116.8198
 20
7.92489539450592
 30
0.0
 11
117.8805
 21
8.104169171890209
 31
0.0
  0
LINE
  5
525
330
1E
100
AcDbEntity
  8
0
100
AcDbLine
 10
117.8805
 20
8.104169171890209
 30
0.0
 11
118.3046999999999
 21
8.552438138584019
 31
0.0
  0
LINE
  5
528
330
1E
100
AcDbEntity
  8
0
100
AcDbLine
 10
115.7591
 20
9.00070710527784
 30
0.0
 11
116.8198
 21
9.17998088266213
 31
0.0
  0
LINE
  5
52A
330
1E
100
AcDbEntity
  8
0
100
AcDbLine
 10
115.3349
 20
8.552438138584019
 30
0.0
 11
115.7591
 21
8.104169171890209
 31
0.0
  0
LINE
  5
52B
330
1E
100
AcDbEntity
  8
0
100
AcDbLine
 10
115.3349
 20
8.552438138584019
 30
0.0
 11
115.7591
 21
9.00070710527784
 31
0.0
  0
LINE
  5
52D
330
1E
100
AcDbEntity
  8
0
100
AcDbLine
 10
114.2343
 20
11.4488143783718
 30
0.0
 11
115.3412
 21
11.3295520964815
 31
0.0
  0
LINE
  5
52E
330
1E
100
AcDbEntity
  8
0
100
AcDbLine
 10
115.3412
 20
11.3295520964815
 30
0.0
 11
116.3375
 21
11.5658367945851
 31
0.0
  0
LINE
  5
52F
330
1E
100
AcDbEntity
  8
0
100
AcDbLine
 10
118.3046999999999
 20
8.762148762424919
 30
0.0
 11
118.3046999999999
 21
8.552438138584019
 31
0.0
  0
LINE
  5
530
330
1E
100
AcDbEntity
  8
0
100
AcDbLine
 10
118.3046999999999
 20
8.552438138584019
 30
0.0
 11
118.3046999999999
 21
8.762148762424919
 31
0.0
  0
LINE
  5
532
330
1E
100
AcDbEntity
  8
0
100
AcDbLine
 10
116.8198
 20
9.17998088266213
 30
0.0
 11
117.8805
 21
9.00070710527784
 31
0.0
  0
LINE
  5
534
330
1E
100
AcDbEntity
  8
0
100
AcDbLine
 10
117.8805
 20
9.00070710527784
 30
0.0
 11
118.3046999999999
 21
8.552438138584019
 31
0.0
  0
LINE
  5
535
330
1E
100
AcDbEntity
  8
0
100
AcDbLine
 10
116.3375
 20
11.5658367945851
 30
0.0
 11
116.6196
 21
12.0336728897393
 31
0.0
  0
LINE
  5
536
330
1E
100
AcDbEntity
  8
0
100
AcDbLine
 10
119.5999999999999
 20
8.28378943994698
 30
0.0
 11
127.4
 21
12.5944743275466
 31
0.0
  0
LINE
  5
537
330
1E
100
AcDbEntity
  8
0
100
AcDbLine
 10
112.2999999999999
 20
3.242933671359559
 30
0.0
 11
123.7999999999999
 21
6.961955927327849
 31
0.0
  0
LINE
  5
538
330
1E
100
AcDbEntity
  8
0
100
AcDbLine
 10
99.1
 20
0.9608063779244721
 30
0.0
 11
112.2999999999999
 21
3.242933671359559
 31
0.0
  0
LINE
  5
539
330
1E
100
AcDbEntity
  8
0
100
AcDbLine
 10
123.7999999999999
 20
6.961955927327849
 30
0.0
 11
132.6
 21
11.82204183001369
 31
0.0
  0
LINE
  5
53A
330
1E
100
AcDbEntity
  8
0
100
AcDbLine
 10
99.4165
 20
12.5153234948597
 30
0.0
 11
100.5233999999999
 21
12.6345857767499
 31
0.0
  0
LINE
  5
53B
330
1E
100
AcDbEntity
  8
0
100
AcDbLine
 10
98.1381
 20
13.2194020265009
 30
0.0
 11
98.42019999999999
 21
12.75160819296329
 31
0.0
  0
LINE
  5
53C
330
1E
100
AcDbEntity
  8
0
100
AcDbLine
 10
98.1381
 20
13.2194020265009
 30
0.0
 11
98.69710000000001
 21
13.6404545121397
 31
0.0
  0
LINE
  5
540
330
1E
100
AcDbEntity
  8
0
100
AcDbLine
 10
99.8041
 20
13.75967453241339
 30
0.0
 11
100.8002999999999
 21
13.52343209592639
 31
0.0
  0
LINE
  5
542
330
1E
100
AcDbEntity
  8
0
100
AcDbLine
 10
98.69710000000001
 20
13.6404545121397
 30
0.0
 11
99.8041
 21
13.75967453241339
 31
0.0
  0
LINE
  5
544
330
1E
100
AcDbEntity
  8
0
100
AcDbLine
 10
98.42019999999999
 20
12.75160819296329
 30
0.0
 11
99.4165
 21
12.5153234948597
 31
0.0
  0
LINE
  5
545
330
1E
100
AcDbEntity
  8
0
100
AcDbLine
 10
100.5233999999999
 20
12.6345857767499
 30
0.0
 11
101.0825
 21
13.0555960007722
 31
0.0
  0
LINE
  5
548
330
1E
100
AcDbEntity
  8
0
100
AcDbLine
 10
100.8002999999999
 20
13.52343209592639
 30
0.0
 11
101.0825
 21
13.0555960007722
 31
0.0
  0
LINE
  5
54B
330
1E
100
AcDbEntity
  8
0
100
AcDbLine
 10
103.1273
 20
14.50685991293069
 30
0.0
 11
104.2343
 21
14.3875976310404
 31
0.0
  0
LINE
  5
54C
330
1E
100
AcDbEntity
  8
0
100
AcDbLine
 10
105.8596
 20
11.834703519497
 30
0.0
 11
106.9202999999999
 21
11.65542974211269
 31
0.0
  0
LINE
  5
54F
330
1E
100
AcDbEntity
  8
0
100
AcDbLine
 10
106.9202999999999
 20
12.9105152302689
 30
0.0
 11
107.981
 21
12.7312414528846
 31
0.0
  0
LINE
  5
550
330
1E
100
AcDbEntity
  8
0
100
AcDbLine
 10
105.8596
 20
12.7312414528846
 30
0.0
 11
106.9202999999999
 21
12.9105152302689
 31
0.0
  0
LINE
  5
552
330
1E
100
AcDbEntity
  8
0
100
AcDbLine
 10
105.4354
 20
12.2829724861908
 30
0.0
 11
105.8596
 21
11.834703519497
 31
0.0
  0
LINE
  5
553
330
1E
100
AcDbEntity
  8
0
100
AcDbLine
 10
105.4354
 20
12.2829724861908
 30
0.0
 11
105.8596
 21
12.7312414528846
 31
0.0
  0
LINE
  5
555
330
1E
100
AcDbEntity
  8
0
100
AcDbLine
 10
107.981
 20
11.834703519497
 30
0.0
 11
108.4052
 21
12.2829724861908
 31
0.0
  0
LINE
  5
556
330
1E
100
AcDbEntity
  8
0
100
AcDbLine
 10
113.6751999999999
 20
11.86982460239399
 30
0.0
 11
114.2343
 21
11.4488143783718
 31
0.0
  0
LINE
  5
557
330
1E
100
AcDbEntity
  8
0
100
AcDbLine
 10
113.6751999999999
 20
11.86982460239399
 30
0.0
 11
113.9574
 21
12.33766069754819
 31
0.0
  0
LINE
  5
559
330
1E
100
AcDbEntity
  8
0
100
AcDbLine
 10
113.9574
 20
12.33766069754819
 30
0.0
 11
114.9535999999999
 21
12.5739453956518
 31
0.0
  0
LINE
  5
55E
330
1E
100
AcDbEntity
  8
0
100
AcDbLine
 10
114.9535999999999
 20
12.5739453956518
 30
0.0
 11
116.0606
 21
12.45468311376149
 31
0.0
  0
LINE
  5
560
330
1E
100
AcDbEntity
  8
0
100
AcDbLine
 10
116.0606
 20
12.45468311376149
 30
0.0
 11
116.6196
 21
12.0336728897393
 31
0.0
  0
LINE
  5
561
330
1E
100
AcDbEntity
  8
0
100
AcDbLine
 10
108.4052
 20
12.40416941900369
 30
0.0
 11
108.4052
 21
12.2829724861908
 31
0.0
  0
LINE
  5
562
330
1E
100
AcDbEntity
  8
0
100
AcDbLine
 10
108.4052
 20
12.2829724861908
 30
0.0
 11
108.4052
 21
12.40416941900369
 31
0.0
  0
LINE
  5
563
330
1E
100
AcDbEntity
  8
0
100
AcDbLine
 10
107.981
 20
12.7312414528846
 30
0.0
 11
108.4052
 21
12.2829724861908
 31
0.0
  0
LINE
  5
564
330
1E
100
AcDbEntity
  8
0
100
AcDbLine
 10
111.0967999999999
 20
14.44731665431469
 30
0.0
 11
112.2311
 21
14.39013668712919
 31
0.0
  0
LINE
  5
565
330
1E
100
AcDbEntity
  8
0
100
AcDbLine
 10
112.2311
 20
14.39013668712919
 30
0.0
 11
113.1458
 21
14.6793329291473
 31
0.0
  0
LINE
  5
566
330
1E
100
AcDbEntity
  8
0
100
AcDbLine
 10
104.2343
 20
14.3875976310404
 30
0.0
 11
105.2305
 21
14.6238823291441
 31
0.0
  0
LINE
  5
568
330
1E
100
AcDbEntity
  8
0
100
AcDbLine
 10
110.4125
 20
14.8338836608527
 30
0.0
 11
111.0967999999999
 21
14.44731665431469
 31
0.0
  0
LINE
  5
569
330
1E
100
AcDbEntity
  8
0
100
AcDbLine
 10
110.4125
 20
14.8338836608527
 30
0.0
 11
110.5477999999999
 21
15.3132571773237
 31
0.0
  0
LINE
  5
56B
330
1E
100
AcDbEntity
  8
0
100
AcDbLine
 10
113.1458
 20
14.6793329291473
 30
0.0
 11
113.2811
 21
15.1587064456183
 31
0.0
  0
LINE
  5
56C
330
1E
100
AcDbEntity
  8
0
100
AcDbLine
 10
102.5682999999999
 20
14.9278701369529
 30
0.0
 11
103.1273
 21
14.50685991293069
 31
0.0
  0
LINE
  5
56D
330
1E
100
AcDbEntity
  8
0
100
AcDbLine
 10
102.5682999999999
 20
14.9278701369529
 30
0.0
 11
102.8503999999999
 21
15.3957062321071
 31
0.0
  0
LINE
  5
56F
330
1E
100
AcDbEntity
  8
0
100
AcDbLine
 10
105.2305
 20
14.6238823291441
 30
0.0
 11
105.5126999999999
 21
15.09167616268169
 31
0.0
  0
LINE
  5
570
330
1E
100
AcDbEntity
  8
0
100
AcDbLine
 10
119.5334
 20
14.9967616105655
 30
0.0
 11
120.6757
 21
15.0026359752653
 31
0.0
  0
LINE
  5
571
330
1E
100
AcDbEntity
  8
0
100
AcDbLine
 10
103.8467
 20
15.63194866859419
 30
0.0
 11
104.9536
 21
15.5127286483205
 31
0.0
  0
LINE
  5
573
330
1E
100
AcDbEntity
  8
0
100
AcDbLine
 10
102.8503999999999
 20
15.3957062321071
 30
0.0
 11
103.8467
 21
15.63194866859419
 31
0.0
  0
LINE
  5
577
330
1E
100
AcDbEntity
  8
0
100
AcDbLine
 10
111.4624999999999
 20
15.6024534193418
 30
0.0
 11
112.5968
 21
15.5452734521562
 31
0.0
  0
LINE
  5
579
330
1E
100
AcDbEntity
  8
0
100
AcDbLine
 10
110.5477999999999
 20
15.3132571773237
 30
0.0
 11
111.4624999999999
 21
15.6024534193418
 31
0.0
  0
LINE
  5
57D
330
1E
100
AcDbEntity
  8
0
100
AcDbLine
 10
112.5968
 20
15.5452734521562
 30
0.0
 11
113.2811
 21
15.1587064456183
 31
0.0
  0
LINE
  5
57F
330
1E
100
AcDbEntity
  8
0
100
AcDbLine
 10
104.9536
 20
15.5127286483205
 30
0.0
 11
105.5126999999999
 21
15.09167616268169
 31
0.0
  0
LINE
  5
585
330
1E
100
AcDbEntity
  8
0
100
AcDbLine
 10
118.7216
 20
15.8250470332328
 30
0.0
 11
118.7354999999999
 21
15.34229258743819
 31
0.0
  0
LINE
  5
586
330
1E
100
AcDbEntity
  8
0
100
AcDbLine
 10
118.7216
 20
15.8250470332328
 30
0.0
 11
119.5392
 21
16.16221021002959
 31
0.0
  0
LINE
  5
588
330
1E
100
AcDbEntity
  8
0
100
AcDbLine
 10
119.5392
 20
16.16221021002959
 30
0.0
 11
120.6814
 21
16.1680845747293
 31
0.0
  0
LINE
  5
58A
330
1E
100
AcDbEntity
  8
0
100
AcDbLine
 10
118.7354999999999
 20
15.34229258743819
 30
0.0
 11
119.5334
 21
14.9967616105655
 31
0.0
  0
LINE
  5
58B
330
1E
100
AcDbEntity
  8
0
100
AcDbLine
 10
120.6757
 20
15.0026359752653
 30
0.0
 11
121.4932
 21
15.3398414136786
 31
0.0
  0
LINE
  5
58E
330
1E
100
AcDbEntity
  8
0
100
AcDbLine
 10
122.6720999999999
 20
12.8080984014419
 30
0.0
 11
123.5867999999999
 21
13.09729464346
 31
0.0
  0
LINE
  5
590
330
1E
100
AcDbEntity
  8
0
100
AcDbLine
 10
122.5368
 20
12.3287248849709
 30
0.0
 11
123.2211
 21
11.9421578784329
 31
0.0
  0
LINE
  5
591
330
1E
100
AcDbEntity
  8
0
100
AcDbLine
 10
122.5368
 20
12.3287248849709
 30
0.0
 11
122.6720999999999
 21
12.8080984014419
 31
0.0
  0
LINE
  5
595
330
1E
100
AcDbEntity
  8
0
100
AcDbLine
 10
123.5867999999999
 20
13.09729464346
 30
0.0
 11
124.7211
 21
13.0401146762745
 31
0.0
  0
LINE
  5
597
330
1E
100
AcDbEntity
  8
0
100
AcDbLine
 10
123.2211
 20
11.9421578784329
 30
0.0
 11
124.3555
 21
11.8849779112474
 31
0.0
  0
LINE
  5
598
330
1E
100
AcDbEntity
  8
0
100
AcDbLine
 10
124.3555
 20
11.8849779112474
 30
0.0
 11
125.2701999999999
 21
12.1741741532655
 31
0.0
  0
LINE
  5
59B
330
1E
100
AcDbEntity
  8
0
100
AcDbLine
 10
125.2701999999999
 20
12.1741741532655
 30
0.0
 11
125.4055
 21
12.6535476697365
 31
0.0
  0
LINE
  5
59C
330
1E
100
AcDbEntity
  8
0
100
AcDbLine
 10
124.7211
 20
13.0401146762745
 30
0.0
 11
125.4055
 21
12.6535476697365
 31
0.0
  0
LINE
  5
59E
330
1E
100
AcDbEntity
  8
0
100
AcDbLine
 10
121.4932
 20
15.53555162265779
 30
0.0
 11
121.4932
 21
15.3398414136786
 31
0.0
  0
LINE
  5
59F
330
1E
100
AcDbEntity
  8
0
100
AcDbLine
 10
121.4932
 20
15.3398414136786
 30
0.0
 11
121.4932
 21
15.53555162265779
 31
0.0
  0
LINE
  5
5A0
330
1E
100
AcDbEntity
  8
0
100
AcDbLine
 10
121.4793
 20
15.8225958594732
 30
0.0
 11
121.4932
 21
15.3398414136786
 31
0.0
  0
LINE
  5
5A1
330
1E
100
AcDbEntity
  8
0
100
AcDbLine
 10
98.9724
 20
16.7712136772865
 30
0.0
 11
100.1068
 21
16.71403371010099
 31
0.0
  0
LINE
  5
5A4
330
1E
100
AcDbEntity
  8
0
100
AcDbLine
 10
106.5991
 20
16.71718471985569
 30
0.0
 11
107.7414
 21
16.72305908455539
 31
0.0
  0
LINE
  5
5A5
330
1E
100
AcDbEntity
  8
0
100
AcDbLine
 10
107.7414
 20
16.72305908455539
 30
0.0
 11
108.5588999999999
 21
17.0602645229687
 31
0.0
  0
LINE
  5
5A6
330
1E
100
AcDbEntity
  8
0
100
AcDbLine
 10
100.1068
 20
16.71403371010099
 30
0.0
 11
101.0215
 21
17.0032299521191
 31
0.0
  0
LINE
  5
5A8
330
1E
100
AcDbEntity
  8
0
100
AcDbLine
 10
105.8011999999999
 20
17.0626734351118
 30
0.0
 11
106.5991
 21
16.71718471985569
 31
0.0
  0
LINE
  5
5A9
330
1E
100
AcDbEntity
  8
0
100
AcDbLine
 10
105.7873
 20
17.5454278809064
 30
0.0
 11
105.8011999999999
 21
17.0626734351118
 31
0.0
  0
LINE
  5
5AA
330
1E
100
AcDbEntity
  8
0
100
AcDbLine
 10
105.7873
 20
17.5454278809064
 30
0.0
 11
106.6049
 21
17.88263331931969
 31
0.0
  0
LINE
  5
5AC
330
1E
100
AcDbEntity
  8
0
100
AcDbLine
 10
114.5554999999999
 20
17.54369851372409
 30
0.0
 11
115.6862
 21
17.6125426870761
 31
0.0
  0
LINE
  5
5AD
330
1E
100
AcDbEntity
  8
0
100
AcDbLine
 10
108.545
 20
17.5430189687634
 30
0.0
 11
108.5588999999999
 21
17.0602645229687
 31
0.0
  0
LINE
  5
5B0
330
1E
100
AcDbEntity
  8
0
100
AcDbLine
 10
98.2881
 20
17.1577806838245
 30
0.0
 11
98.9724
 21
16.7712136772865
 31
0.0
  0
LINE
  5
5B1
330
1E
100
AcDbEntity
  8
0
100
AcDbLine
 10
98.2881
 20
17.1577806838245
 30
0.0
 11
98.4234
 21
17.6371542002955
 31
0.0
  0
LINE
  5
5B3
330
1E
100
AcDbEntity
  8
0
100
AcDbLine
 10
101.0215
 20
17.0032299521191
 30
0.0
 11
101.1568
 21
17.4826034685901
 31
0.0
  0
LINE
  5
5B4
330
1E
100
AcDbEntity
  8
0
100
AcDbLine
 10
127.0178
 20
17.2419336396539
 30
0.0
 11
127.1807
 21
16.7640815413786
 31
0.0
  0
LINE
  5
5B5
330
1E
100
AcDbEntity
  8
0
100
AcDbLine
 10
127.0178
 20
17.2419336396539
 30
0.0
 11
127.7241999999999
 21
17.62131617137919
 31
0.0
  0
LINE
  5
5B7
330
1E
100
AcDbEntity
  8
0
100
AcDbLine
 10
127.1807
 20
16.7640815413786
 30
0.0
 11
128.0783999999999
 21
16.465545482104
 31
0.0
  0
LINE
  5
5BA
330
1E
100
AcDbEntity
  8
0
100
AcDbLine
 10
120.6814
 20
16.1680845747293
 30
0.0
 11
121.4793
 21
15.8225958594732
 31
0.0
  0
LINE
  5
5BB
330
1E
100
AcDbEntity
  8
0
100
AcDbLine
 10
128.0783999999999
 20
16.465545482104
 30
0.0
 11
129.2091
 21
16.534389655456
 31
0.0
  0
LINE
  5
5BD
330
1E
100
AcDbEntity
  8
0
100
AcDbLine
 10
129.2091
 20
16.534389655456
 30
0.0
 11
129.9156
 21
16.9137721871813
 31
0.0
  0
LINE
  5
5BE
330
1E
100
AcDbEntity
  8
0
100
AcDbLine
 10
129.7525999999999
 20
17.3916242854567
 30
0.0
 11
129.9156
 21
16.9137721871813
 31
0.0
  0
LINE
  5
5C0
330
1E
100
AcDbEntity
  8
0
100
AcDbLine
 10
127.4
 20
12.5944743275466
 30
0.0
 11
132.1999999999999
 21
17.5813450798677
 31
0.0
  0
LINE
  5
5C5
330
1E
100
AcDbEntity
  8
0
100
AcDbLine
 10
99.33810000000001
 20
17.9263504423136
 30
0.0
 11
100.4723999999999
 21
17.8691704751281
 31
0.0
  0
LINE
  5
5C7
330
1E
100
AcDbEntity
  8
0
100
AcDbLine
 10
98.4234
 20
17.6371542002955
 30
0.0
 11
99.33810000000001
 21
17.9263504423136
 31
0.0
  0
LINE
  5
5C9
330
1E
100
AcDbEntity
  8
0
100
AcDbLine
 10
106.6049
 20
17.88263331931969
 30
0.0
 11
107.7471
 21
17.88850768401949
 31
0.0
  0
LINE
  5
5CB
330
1E
100
AcDbEntity
  8
0
100
AcDbLine
 10
113.4948
 20
18.32008667127399
 30
0.0
 11
113.6577
 21
17.84223457299869
 31
0.0
  0
LINE
  5
5CC
330
1E
100
AcDbEntity
  8
0
100
AcDbLine
 10
113.4948
 20
18.32008667127399
 30
0.0
 11
114.2012
 21
18.69951146461589
 31
0.0
  0
LINE
  5
5CE
330
1E
100
AcDbEntity
  8
0
100
AcDbLine
 10
113.6577
 20
17.84223457299869
 30
0.0
 11
114.5554999999999
 21
17.54369851372409
 31
0.0
  0
LINE
  5
5CF
330
1E
100
AcDbEntity
  8
0
100
AcDbLine
 10
107.7471
 20
17.88850768401949
 30
0.0
 11
108.545
 21
17.5430189687634
 31
0.0
  0
LINE
  5
5D1
330
1E
100
AcDbEntity
  8
0
100
AcDbLine
 10
107.3075
 20
19.94318295720889
 30
0.0
 11
107.6166
 21
19.47838969844589
 31
0.0
  0
LINE
  5
5D2
330
1E
100
AcDbEntity
  8
0
100
AcDbLine
 10
107.3075
 20
19.94318295720889
 30
0.0
 11
107.8907
 21
20.3582765549148
 31
0.0
  0
LINE
  5
5D4
330
1E
100
AcDbEntity
  8
0
100
AcDbLine
 10
107.6166
 20
19.47838969844589
 30
0.0
 11
108.5989
 21
19.231919950755
 31
0.0
  0
LINE
  5
5D7
330
1E
100
AcDbEntity
  8
0
100
AcDbLine
 10
108.5989
 20
19.231919950755
 30
0.0
 11
109.6986
 21
19.3625506074958
 31
0.0
  0
LINE
  5
5DA
330
1E
100
AcDbEntity
  8
0
100
AcDbLine
 10
114.2012
 20
18.69951146461589
 30
0.0
 11
115.3318999999999
 21
18.7683556379679
 31
0.0
  0
LINE
  5
5DD
330
1E
100
AcDbEntity
  8
0
100
AcDbLine
 10
109.6986
 20
19.3625506074958
 30
0.0
 11
110.2818
 21
19.7776864668183
 31
0.0
  0
LINE
  5
5DE
330
1E
100
AcDbEntity
  8
0
100
AcDbLine
 10
109.9727
 20
20.24243746396469
 30
0.0
 11
110.2818
 21
19.7776864668183
 31
0.0
  0
LINE
  5
5E4
330
1E
100
AcDbEntity
  8
0
100
AcDbLine
 10
100.4723999999999
 20
17.8691704751281
 30
0.0
 11
101.1568
 21
17.4826034685901
 31
0.0
  0
LINE
  5
5E6
330
1E
100
AcDbEntity
  8
0
100
AcDbLine
 10
100.95
 20
20.4686825088168
 30
0.0
 11
102.0
 21
20.27850523436389
 31
0.0
  0
LINE
  5
5E7
330
1E
100
AcDbEntity
  8
0
100
AcDbLine
 10
100.5
 20
20.9124294825403
 30
0.0
 11
100.95
 21
21.3561764562638
 31
0.0
  0
LINE
  5
5E8
330
1E
100
AcDbEntity
  8
0
100
AcDbLine
 10
100.5
 20
20.9124294825403
 30
0.0
 11
100.95
 21
20.4686825088168
 31
0.0
  0
LINE
  5
5EA
330
1E
100
AcDbEntity
  8
0
100
AcDbLine
 10
100.95
 20
21.3561764562638
 30
0.0
 11
102.0
 21
21.54635373071669
 31
0.0
  0
LINE
  5
5EC
330
1E
100
AcDbEntity
  8
0
100
AcDbLine
 10
102.0
 20
21.54635373071669
 30
0.0
 11
103.0499999999999
 21
21.3561764562638
 31
0.0
  0
LINE
  5
5EE
330
1E
100
AcDbEntity
  8
0
100
AcDbLine
 10
103.0499999999999
 20
21.3561764562638
 30
0.0
 11
103.4999999999999
 21
20.9124294825403
 31
0.0
  0
LINE
  5
5F2
330
1E
100
AcDbEntity
  8
0
100
AcDbLine
 10
107.8907
 20
20.3582765549148
 30
0.0
 11
108.9904999999999
 21
20.4889072116557
 31
0.0
  0
LINE
  5
5F4
330
1E
100
AcDbEntity
  8
0
100
AcDbLine
 10
108.9904999999999
 20
20.4889072116557
 30
0.0
 11
109.9727
 21
20.24243746396469
 31
0.0
  0
LINE
  5
5FA
330
1E
100
AcDbEntity
  8
0
100
AcDbLine
 10
103.0499999999999
 20
20.4686825088168
 30
0.0
 11
103.4999999999999
 21
20.9124294825403
 31
0.0
  0
LINE
  5
5FB
330
1E
100
AcDbEntity
  8
0
100
AcDbLine
 10
102.0
 20
20.27850523436389
 30
0.0
 11
103.0499999999999
 21
20.4686825088168
 31
0.0
  0
LINE
  5
5FC
330
1E
100
AcDbEntity
  8
0
100
AcDbLine
 10
114.9499999999999
 20
21.1030986440016
 30
0.0
 11
116.0
 21
20.91292136954869
 31
0.0
  0
LINE
  5
601
330
1E
100
AcDbEntity
  8
0
100
AcDbLine
 10
107.8907
 20
22.0103676688956
 30
0.0
 11
108.9904999999999
 21
21.8797370121547
 31
0.0
  0
LINE
  5
602
330
1E
100
AcDbEntity
  8
0
100
AcDbLine
 10
109.9727
 20
22.1262067598457
 30
0.0
 11
110.2818
 21
22.5909577569921
 31
0.0
  0
LINE
  5
603
330
1E
100
AcDbEntity
  8
0
100
AcDbLine
 10
108.9904999999999
 20
21.8797370121547
 30
0.0
 11
109.9727
 21
22.1262067598457
 31
0.0
  0
LINE
  5
606
330
1E
100
AcDbEntity
  8
0
100
AcDbLine
 10
114.5
 20
21.5468456177251
 30
0.0
 11
114.9499999999999
 21
21.9905925914486
 31
0.0
  0
LINE
  5
607
330
1E
100
AcDbEntity
  8
0
100
AcDbLine
 10
114.5
 20
21.5468456177251
 30
0.0
 11
114.9499999999999
 21
21.1030986440016
 31
0.0
  0
LINE
  5
609
330
1E
100
AcDbEntity
  8
0
100
AcDbLine
 10
115.6862
 20
17.6125426870761
 30
0.0
 11
116.3926
 21
17.99196748041789
 31
0.0
  0
LINE
  5
60A
330
1E
100
AcDbEntity
  8
0
100
AcDbLine
 10
115.3318999999999
 20
18.7683556379679
 30
0.0
 11
116.2296999999999
 21
18.4698195786933
 31
0.0
  0
LINE
  5
60B
330
1E
100
AcDbEntity
  8
0
100
AcDbLine
 10
114.9499999999999
 20
21.9905925914486
 30
0.0
 11
116.0
 21
22.18076986590149
 31
0.0
  0
LINE
  5
60E
330
1E
100
AcDbEntity
  8
0
100
AcDbLine
 10
107.3075
 20
22.4254612666015
 30
0.0
 11
107.6166
 21
22.89025452536449
 31
0.0
  0
LINE
  5
60F
330
1E
100
AcDbEntity
  8
0
100
AcDbLine
 10
107.3075
 20
22.4254612666015
 30
0.0
 11
107.8907
 21
22.0103676688956
 31
0.0
  0
LINE
  5
611
330
1E
100
AcDbEntity
  8
0
100
AcDbLine
 10
99.33810000000001
 20
23.89850852276699
 30
0.0
 11
100.4723999999999
 21
23.9556884899526
 31
0.0
  0
LINE
  5
612
330
1E
100
AcDbEntity
  8
0
100
AcDbLine
 10
98.4234
 20
24.1877047647851
 30
0.0
 11
99.33810000000001
 21
23.89850852276699
 31
0.0
  0
LINE
  5
614
330
1E
100
AcDbEntity
  8
0
100
AcDbLine
 10
98.2881
 20
24.6670782812561
 30
0.0
 11
98.9724
 21
25.0536452877941
 31
0.0
  0
LINE
  5
615
330
1E
100
AcDbEntity
  8
0
100
AcDbLine
 10
98.2881
 20
24.6670782812561
 30
0.0
 11
98.4234
 21
24.1877047647851
 31
0.0
  0
LINE
  5
618
330
1E
100
AcDbEntity
  8
0
100
AcDbLine
 10
101.0215
 20
24.8216290129615
 30
0.0
 11
101.1568
 21
24.3422554964905
 31
0.0
  0
LINE
  5
61A
330
1E
100
AcDbEntity
  8
0
100
AcDbLine
 10
100.4723999999999
 20
23.9556884899526
 30
0.0
 11
101.1568
 21
24.3422554964905
 31
0.0
  0
LINE
  5
61B
330
1E
100
AcDbEntity
  8
0
100
AcDbLine
 10
98.9724
 20
25.0536452877941
 30
0.0
 11
100.1068
 21
25.1108252549796
 31
0.0
  0
LINE
  5
61D
330
1E
100
AcDbEntity
  8
0
100
AcDbLine
 10
100.1068
 20
25.1108252549796
 30
0.0
 11
101.0215
 21
24.8216290129615
 31
0.0
  0
LINE
  5
621
330
1E
100
AcDbEntity
  8
0
100
AcDbLine
 10
105.7873
 20
25.3173380468279
 30
0.0
 11
105.7873
 21
24.823216342904
 31
0.0
  0
LINE
  5
622
330
1E
100
AcDbEntity
  8
0
100
AcDbLine
 10
105.7873
 20
24.823216342904
 30
0.0
 11
105.8011999999999
 21
25.3059707886986
 31
0.0
  0
LINE
  5
623
330
1E
100
AcDbEntity
  8
0
100
AcDbLine
 10
105.7873
 20
24.823216342904
 30
0.0
 11
106.6049
 21
24.4860109044907
 31
0.0
  0
LINE
  5
624
330
1E
100
AcDbEntity
  8
0
100
AcDbLine
 10
105.7873
 20
24.823216342904
 30
0.0
 11
105.7873
 21
25.3173380468279
 31
0.0
  0
LINE
  5
626
330
1E
100
AcDbEntity
  8
0
100
AcDbLine
 10
107.6166
 20
22.89025452536449
 30
0.0
 11
108.5989
 21
23.1367242730555
 31
0.0
  0
LINE
  5
627
330
1E
100
AcDbEntity
  8
0
100
AcDbLine
 10
106.6049
 20
24.4860109044907
 30
0.0
 11
107.7471
 21
24.48013653979089
 31
0.0
  0
LINE
  5
628
330
1E
100
AcDbEntity
  8
0
100
AcDbLine
 10
105.8011999999999
 20
25.3059707886986
 30
0.0
 11
106.5991
 21
25.6514595039548
 31
0.0
  0
LINE
  5
629
330
1E
100
AcDbEntity
  8
0
100
AcDbLine
 10
103.8467
 20
26.7366955552162
 30
0.0
 11
104.9536
 21
26.85591557548999
 31
0.0
  0
LINE
  5
62A
330
1E
100
AcDbEntity
  8
0
100
AcDbLine
 10
102.8503999999999
 20
26.9729379917033
 30
0.0
 11
103.8467
 21
26.7366955552162
 31
0.0
  0
LINE
  5
62B
330
1E
100
AcDbEntity
  8
0
100
AcDbLine
 10
102.5682999999999
 20
27.4407740868575
 30
0.0
 11
103.1273
 21
27.8617843108797
 31
0.0
  0
LINE
  5
62C
330
1E
100
AcDbEntity
  8
0
100
AcDbLine
 10
102.5682999999999
 20
27.4407740868575
 30
0.0
 11
102.8503999999999
 21
26.9729379917033
 31
0.0
  0
LINE
  5
62E
330
1E
100
AcDbEntity
  8
0
100
AcDbLine
 10
103.1273
 20
27.8617843108797
 30
0.0
 11
104.2343
 21
27.98104659277
 31
0.0
  0
LINE
  5
62F
330
1E
100
AcDbEntity
  8
0
100
AcDbLine
 10
99.8041
 20
28.608969691397
 30
0.0
 11
100.8002999999999
 21
28.8452121278841
 31
0.0
  0
LINE
  5
630
330
1E
100
AcDbEntity
  8
0
100
AcDbLine
 10
104.2343
 20
27.98104659277
 30
0.0
 11
105.2305
 21
27.7447618946664
 31
0.0
  0
LINE
  5
633
330
1E
100
AcDbEntity
  8
0
100
AcDbLine
 10
105.2305
 20
27.7447618946664
 30
0.0
 11
105.5126999999999
 21
27.2769680611287
 31
0.0
  0
LINE
  5
635
330
1E
100
AcDbEntity
  8
0
100
AcDbLine
 10
104.9536
 20
26.85591557548999
 30
0.0
 11
105.5126999999999
 21
27.2769680611287
 31
0.0
  0
LINE
  5
636
330
1E
100
AcDbEntity
  8
0
100
AcDbLine
 10
106.5991
 20
25.6514595039548
 30
0.0
 11
107.7414
 21
25.64558513925499
 31
0.0
  0
LINE
  5
637
330
1E
100
AcDbEntity
  8
0
100
AcDbLine
 10
107.7414
 20
25.64558513925499
 30
0.0
 11
108.5588999999999
 21
25.30837970084169
 31
0.0
  0
LINE
  5
639
330
1E
100
AcDbEntity
  8
0
100
AcDbLine
 10
108.5989
 20
23.1367242730555
 30
0.0
 11
109.6986
 21
23.0060936163146
 31
0.0
  0
LINE
  5
63B
330
1E
100
AcDbEntity
  8
0
100
AcDbLine
 10
114.2012
 20
24.3941797708343
 30
0.0
 11
115.3318999999999
 21
24.3253355974823
 31
0.0
  0
LINE
  5
63C
330
1E
100
AcDbEntity
  8
0
100
AcDbLine
 10
113.4948
 20
24.7736045641761
 30
0.0
 11
113.6577
 21
25.2514566624515
 31
0.0
  0
LINE
  5
63D
330
1E
100
AcDbEntity
  8
0
100
AcDbLine
 10
113.4948
 20
24.7736045641761
 30
0.0
 11
114.2012
 21
24.3941797708343
 31
0.0
  0
LINE
  5
63F
330
1E
100
AcDbEntity
  8
0
100
AcDbLine
 10
115.3318999999999
 20
24.3253355974823
 30
0.0
 11
116.2296999999999
 21
24.62387165675689
 31
0.0
  0
LINE
  5
641
330
1E
100
AcDbEntity
  8
0
100
AcDbLine
 10
109.6986
 20
23.0060936163146
 30
0.0
 11
110.2818
 21
22.5909577569921
 31
0.0
  0
LINE
  5
644
330
1E
100
AcDbEntity
  8
0
100
AcDbLine
 10
113.6577
 20
25.2514566624515
 30
0.0
 11
114.5554999999999
 21
25.549992721726
 31
0.0
  0
LINE
  5
647
330
1E
100
AcDbEntity
  8
0
100
AcDbLine
 10
111.4624999999999
 20
27.4912378161084
 30
0.0
 11
112.5968
 21
27.5484177832939
 31
0.0
  0
LINE
  5
648
330
1E
100
AcDbEntity
  8
0
100
AcDbLine
 10
110.5477999999999
 20
27.7804340581265
 30
0.0
 11
111.4624999999999
 21
27.4912378161084
 31
0.0
  0
LINE
  5
649
330
1E
100
AcDbEntity
  8
0
100
AcDbLine
 10
110.4125
 20
28.2598075745975
 30
0.0
 11
111.0967999999999
 21
28.6463745811355
 31
0.0
  0
LINE
  5
64A
330
1E
100
AcDbEntity
  8
0
100
AcDbLine
 10
110.4125
 20
28.2598075745975
 30
0.0
 11
110.5477999999999
 21
27.7804340581265
 31
0.0
  0
LINE
  5
64C
330
1E
100
AcDbEntity
  8
0
100
AcDbLine
 10
111.0967999999999
 20
28.6463745811355
 30
0.0
 11
112.2311
 21
28.70355454832099
 31
0.0
  0
LINE
  5
64F
330
1E
100
AcDbEntity
  8
0
100
AcDbLine
 10
113.1458
 20
28.4143583063029
 30
0.0
 11
113.2811
 21
27.9349847898319
 31
0.0
  0
LINE
  5
651
330
1E
100
AcDbEntity
  8
0
100
AcDbLine
 10
112.5968
 20
27.5484177832939
 30
0.0
 11
113.2811
 21
27.9349847898319
 31
0.0
  0
LINE
  5
654
330
1E
100
AcDbEntity
  8
0
100
AcDbLine
 10
114.5554999999999
 20
25.549992721726
 30
0.0
 11
115.6862
 21
25.4811485483741
 31
0.0
  0
LINE
  5
656
330
1E
100
AcDbEntity
  8
0
100
AcDbLine
 10
115.6862
 20
25.4811485483741
 30
0.0
 11
116.3926
 21
25.1017237550322
 31
0.0
  0
LINE
  5
659
330
1E
100
AcDbEntity
  8
0
100
AcDbLine
 10
108.545
 20
24.8256252550471
 30
0.0
 11
108.5588999999999
 21
25.30837970084169
 31
0.0
  0
LINE
  5
65A
330
1E
100
AcDbEntity
  8
0
100
AcDbLine
 10
107.7471
 20
24.48013653979089
 30
0.0
 11
108.545
 21
24.8256252550471
 31
0.0
  0
LINE
  5
65D
330
1E
100
AcDbEntity
  8
0
100
AcDbLine
 10
116.0
 20
22.18076986590149
 30
0.0
 11
117.05
 21
21.9905925914486
 31
0.0
  0
LINE
  5
663
330
1E
100
AcDbEntity
  8
0
100
AcDbLine
 10
127.7241999999999
 20
17.62131617137919
 30
0.0
 11
128.8548999999999
 21
17.6901603447312
 31
0.0
  0
LINE
  5
667
330
1E
100
AcDbEntity
  8
0
100
AcDbLine
 10
128.8548999999999
 20
17.6901603447312
 30
0.0
 11
129.7525999999999
 21
17.3916242854567
 31
0.0
  0
LINE
  5
669
330
1E
100
AcDbEntity
  8
0
100
AcDbLine
 10
122.4790999999999
 20
19.0034164287397
 30
0.0
 11
123.5789
 21
19.1340470854806
 31
0.0
  0
LINE
  5
66B
330
1E
100
AcDbEntity
  8
0
100
AcDbLine
 10
121.1877
 20
19.7146794351936
 30
0.0
 11
121.4968
 21
19.24988617643069
 31
0.0
  0
LINE
  5
66C
330
1E
100
AcDbEntity
  8
0
100
AcDbLine
 10
121.1877
 20
19.7146794351936
 30
0.0
 11
121.7708999999999
 21
20.1298152945161
 31
0.0
  0
LINE
  5
66E
330
1E
100
AcDbEntity
  8
0
100
AcDbLine
 10
121.7708999999999
 20
20.1298152945161
 30
0.0
 11
122.8706999999999
 21
20.260445951257
 31
0.0
  0
LINE
  5
66F
330
1E
100
AcDbEntity
  8
0
100
AcDbLine
 10
121.4968
 20
19.24988617643069
 30
0.0
 11
122.4790999999999
 21
19.0034164287397
 31
0.0
  0
LINE
  5
670
330
1E
100
AcDbEntity
  8
0
100
AcDbLine
 10
123.5789
 20
19.1340470854806
 30
0.0
 11
124.1621
 21
19.5491829448031
 31
0.0
  0
LINE
  5
671
330
1E
100
AcDbEntity
  8
0
100
AcDbLine
 10
124.1621
 20
19.60136023438149
 30
0.0
 11
124.1621
 21
19.5491829448031
 31
0.0
  0
LINE
  5
672
330
1E
100
AcDbEntity
  8
0
100
AcDbLine
 10
124.1621
 20
19.5491829448031
 30
0.0
 11
124.1621
 21
19.60136023438149
 31
0.0
  0
LINE
  5
673
330
1E
100
AcDbEntity
  8
0
100
AcDbLine
 10
123.8529999999999
 20
20.013976203566
 30
0.0
 11
124.1621
 21
19.5491829448031
 31
0.0
  0
LINE
  5
674
330
1E
100
AcDbEntity
  8
0
100
AcDbLine
 10
122.8706999999999
 20
20.260445951257
 30
0.0
 11
123.8529999999999
 21
20.013976203566
 31
0.0
  0
LINE
  5
677
330
1E
100
AcDbEntity
  8
0
100
AcDbLine
 10
116.2296999999999
 20
18.4698195786933
 30
0.0
 11
116.3926
 21
17.99196748041789
 31
0.0
  0
LINE
  5
67B
330
1E
100
AcDbEntity
  8
0
100
AcDbLine
 10
116.2296999999999
 20
24.62387165675689
 30
0.0
 11
116.3926
 21
25.1017237550322
 31
0.0
  0
LINE
  5
67D
330
1E
100
AcDbEntity
  8
0
100
AcDbLine
 10
130.0
 20
21.36607575182349
 30
0.0
 11
131.05
 21
21.55625302627639
 31
0.0
  0
LINE
  5
67E
330
1E
100
AcDbEntity
  8
0
100
AcDbLine
 10
128.9499999999999
 20
21.55625302627639
 30
0.0
 11
130.0
 21
21.36607575182349
 31
0.0
  0
LINE
  5
67F
330
1E
100
AcDbEntity
  8
0
100
AcDbLine
 10
128.4999999999999
 20
21.99999999999989
 30
0.0
 11
128.9499999999999
 21
22.44374697372339
 31
0.0
  0
LINE
  5
680
330
1E
100
AcDbEntity
  8
0
100
AcDbLine
 10
128.4999999999999
 20
21.99999999999989
 30
0.0
 11
128.9499999999999
 21
21.55625302627639
 31
0.0
  0
LINE
  5
682
330
1E
100
AcDbEntity
  8
0
100
AcDbLine
 10
128.9499999999999
 20
22.44374697372339
 30
0.0
 11
130.0
 21
22.6339242481763
 31
0.0
  0
LINE
  5
684
330
1E
100
AcDbEntity
  8
0
100
AcDbLine
 10
121.7708999999999
 20
23.32639944675389
 30
0.0
 11
122.8706999999999
 21
23.1957687900131
 31
0.0
  0
LINE
  5
685
330
1E
100
AcDbEntity
  8
0
100
AcDbLine
 10
121.1877
 20
23.74153530607639
 30
0.0
 11
121.4968
 21
24.2063285648393
 31
0.0
  0
LINE
  5
686
330
1E
100
AcDbEntity
  8
0
100
AcDbLine
 10
121.1877
 20
23.74153530607639
 30
0.0
 11
121.7708999999999
 21
23.32639944675389
 31
0.0
  0
LINE
  5
689
330
1E
100
AcDbEntity
  8
0
100
AcDbLine
 10
123.8529999999999
 20
23.442238537704
 30
0.0
 11
124.1621
 21
23.90703179646699
 31
0.0
  0
LINE
  5
68A
330
1E
100
AcDbEntity
  8
0
100
AcDbLine
 10
122.8706999999999
 20
23.1957687900131
 30
0.0
 11
123.8529999999999
 21
23.442238537704
 31
0.0
  0
LINE
  5
68D
330
1E
100
AcDbEntity
  8
0
100
AcDbLine
 10
118.7216
 20
27.6311677080372
 30
0.0
 11
118.7354999999999
 21
28.1139221538319
 31
0.0
  0
LINE
  5
68E
330
1E
100
AcDbEntity
  8
0
100
AcDbLine
 10
118.7216
 20
27.6311677080372
 30
0.0
 11
119.5392
 21
27.2940045312405
 31
0.0
  0
LINE
  5
690
330
1E
100
AcDbEntity
  8
0
100
AcDbLine
 10
119.5392
 20
27.2940045312405
 30
0.0
 11
120.6814
 21
27.2881301665407
 31
0.0
  0
LINE
  5
691
330
1E
100
AcDbEntity
  8
0
100
AcDbLine
 10
118.7354999999999
 20
28.1139221538319
 30
0.0
 11
119.5334
 21
28.45945313070449
 31
0.0
  0
LINE
  5
695
330
1E
100
AcDbEntity
  8
0
100
AcDbLine
 10
119.5334
 20
28.45945313070449
 30
0.0
 11
120.6757
 21
28.4535787660048
 31
0.0
  0
LINE
  5
697
330
1E
100
AcDbEntity
  8
0
100
AcDbLine
 10
120.6757
 20
28.4535787660048
 30
0.0
 11
121.4932
 21
28.1163733275915
 31
0.0
  0
LINE
  5
699
330
1E
100
AcDbEntity
  8
0
100
AcDbLine
 10
121.4968
 20
24.2063285648393
 30
0.0
 11
122.4790999999999
 21
24.4527983125303
 31
0.0
  0
LINE
  5
69D
330
1E
100
AcDbEntity
  8
0
100
AcDbLine
 10
122.4790999999999
 20
24.4527983125303
 30
0.0
 11
123.5789
 21
24.32216765578949
 31
0.0
  0
LINE
  5
6A1
330
1E
100
AcDbEntity
  8
0
100
AcDbLine
 10
127.0178
 20
26.7580663603459
 30
0.0
 11
127.1807
 21
27.2359184586213
 31
0.0
  0
LINE
  5
6A2
330
1E
100
AcDbEntity
  8
0
100
AcDbLine
 10
127.0178
 20
26.7580663603459
 30
0.0
 11
127.7241999999999
 21
26.3786838286206
 31
0.0
  0
LINE
  5
6A4
330
1E
100
AcDbEntity
  8
0
100
AcDbLine
 10
127.7241999999999
 20
26.3786838286206
 30
0.0
 11
128.8548999999999
 21
26.3098396552686
 31
0.0
  0
LINE
  5
6A5
330
1E
100
AcDbEntity
  8
0
100
AcDbLine
 10
127.1807
 20
27.2359184586213
 30
0.0
 11
128.0783999999999
 21
27.5344545178958
 31
0.0
  0
LINE
  5
6A7
330
1E
100
AcDbEntity
  8
0
100
AcDbLine
 10
128.0783999999999
 20
27.5344545178958
 30
0.0
 11
129.2091
 21
27.4656103445439
 31
0.0
  0
LINE
  5
6AA
330
1E
100
AcDbEntity
  8
0
100
AcDbLine
 10
129.2091
 20
27.4656103445439
 30
0.0
 11
129.9156
 21
27.0862278128186
 31
0.0
  0
LINE
  5
6AC
330
1E
100
AcDbEntity
  8
0
100
AcDbLine
 10
129.7525999999999
 20
26.6083757145432
 30
0.0
 11
129.9156
 21
27.0862278128186
 31
0.0
  0
LINE
  5
6AD
330
1E
100
AcDbEntity
  8
0
100
AcDbLine
 10
128.8548999999999
 20
26.3098396552686
 30
0.0
 11
129.7525999999999
 21
26.6083757145432
 31
0.0
  0
LINE
  5
6AF
330
1E
100
AcDbEntity
  8
0
100
AcDbLine
 10
123.5789
 20
24.32216765578949
 30
0.0
 11
124.1621
 21
23.90703179646699
 31
0.0
  0
LINE
  5
6B4
330
1E
100
AcDbEntity
  8
0
100
AcDbLine
 10
121.4793
 20
27.6336188817968
 30
0.0
 11
121.4932
 21
28.1163733275915
 31
0.0
  0
LINE
  5
6B5
330
1E
100
AcDbEntity
  8
0
100
AcDbLine
 10
120.6814
 20
27.2881301665407
 30
0.0
 11
121.4793
 21
27.6336188817968
 31
0.0
  0
LINE
  5
6B8
330
1E
100
AcDbEntity
  8
0
100
AcDbLine
 10
130.0
 20
22.6339242481763
 30
0.0
 11
131.05
 21
22.44374697372339
 31
0.0
  0
LINE
  5
6BC
330
1E
100
AcDbEntity
  8
0
100
AcDbLine
 10
131.05
 20
22.44374697372339
 30
0.0
 11
131.4999999999999
 21
21.99999999999989
 31
0.0
  0
LINE
  5
6BE
330
1E
100
AcDbEntity
  8
0
100
AcDbLine
 10
131.05
 20
21.55625302627639
 30
0.0
 11
131.4999999999999
 21
21.99999999999989
 31
0.0
  0
LINE
  5
6C1
330
1E
100
AcDbEntity
  8
0
100
AcDbLine
 10
117.05
 20
21.9905925914486
 30
0.0
 11
117.5
 21
21.5468456177251
 31
0.0
  0
LINE
  5
6C3
330
1E
100
AcDbEntity
  8
0
100
AcDbLine
 10
117.05
 20
21.1030986440016
 30
0.0
 11
117.5
 21
21.5468456177251
 31
0.0
  0
LINE
  5
6C4
330
1E
100
AcDbEntity
  8
0
100
AcDbLine
 10
116.0
 20
20.91292136954869
 30
0.0
 11
117.05
 21
21.1030986440016
 31
0.0
  0
LINE
  5
6C5
330
1E
100
AcDbEntity
  8
0
100
AcDbLine
 10
132.1999999999999
 20
17.5813450798677
 30
0.0
 11
134.0
 21
22.9063087645496
 31
0.0
  0
LINE
  5
6C6
330
1E
100
AcDbEntity
  8
0
100
AcDbLine
 10
134.0
 20
23.35946314682439
 30
0.0
 11
134.0
 21
22.9063087645496
 31
0.0
  0
LINE
  5
6C7
330
1E
100
AcDbEntity
  8
0
100
AcDbLine
 10
134.0
 20
22.9063087645496
 30
0.0
 11
134.0
 21
23.35946314682439
 31
0.0
  0
LINE
  5
6C8
330
1E
100
AcDbEntity
  8
0
100
AcDbLine
 10
132.1999999999999
 20
28.2312724492315
 30
0.0
 11
134.0
 21
22.9063087645496
 31
0.0
  0
LINE
  5
6C9
330
1E
100
AcDbEntity
  8
0
100
AcDbLine
 10
132.6
 20
11.82204183001369
 30
0.0
 11
138.0
 21
17.4005752139661
 31
0.0
  0
LINE
  5
6CA
330
1E
100
AcDbEntity
  8
0
100
AcDbLine
 10
138.0
 20
17.4005752139661
 30
0.0
 11
140.0
 21
23.35946314682439
 31
0.0
  0
LINE
  5
6CB
330
1E
100
AcDbEntity
  8
0
100
AcDbLine
 10
98.69710000000001
 20
28.72818971167069
 30
0.0
 11
99.8041
 21
28.608969691397
 31
0.0
  0
LINE
  5
6CC
330
1E
100
AcDbEntity
  8
0
100
AcDbLine
 10
100.8002999999999
 20
28.8452121278841
 30
0.0
 11
101.0825
 21
29.3130482230383
 31
0.0
  0
LINE
  5
6CD
330
1E
100
AcDbEntity
  8
0
100
AcDbLine
 10
98.1381
 20
29.14924219730949
 30
0.0
 11
98.42019999999999
 21
29.6170360308471
 31
0.0
  0
LINE
  5
6CE
330
1E
100
AcDbEntity
  8
0
100
AcDbLine
 10
98.1381
 20
29.14924219730949
 30
0.0
 11
98.69710000000001
 21
28.72818971167069
 31
0.0
  0
LINE
  5
6D2
330
1E
100
AcDbEntity
  8
0
100
AcDbLine
 10
98.42019999999999
 20
29.6170360308471
 30
0.0
 11
99.4165
 21
29.8533207289508
 31
0.0
  0
LINE
  5
6D6
330
1E
100
AcDbEntity
  8
0
100
AcDbLine
 10
112.2311
 20
28.70355454832099
 30
0.0
 11
113.1458
 21
28.4143583063029
 31
0.0
  0
LINE
  5
6D9
330
1E
100
AcDbEntity
  8
0
100
AcDbLine
 10
99.4165
 20
29.8533207289508
 30
0.0
 11
100.5233999999999
 21
29.7340584470605
 31
0.0
  0
LINE
  5
6DA
330
1E
100
AcDbEntity
  8
0
100
AcDbLine
 10
100.5233999999999
 20
29.7340584470605
 30
0.0
 11
101.0825
 21
29.3130482230383
 31
0.0
  0
LINE
  5
6DD
330
1E
100
AcDbEntity
  8
0
100
AcDbLine
 10
106.9202999999999
 20
30.1831760051813
 30
0.0
 11
107.981
 21
30.3624497825656
 31
0.0
  0
LINE
  5
6DE
330
1E
100
AcDbEntity
  8
0
100
AcDbLine
 10
105.8596
 20
30.3624497825656
 30
0.0
 11
106.9202999999999
 21
30.1831760051813
 31
0.0
  0
LINE
  5
6DF
330
1E
100
AcDbEntity
  8
0
100
AcDbLine
 10
105.4354
 20
30.8107187492594
 30
0.0
 11
105.8596
 21
31.25898771595319
 31
0.0
  0
LINE
  5
6E0
330
1E
100
AcDbEntity
  8
0
100
AcDbLine
 10
105.4354
 20
30.8107187492594
 30
0.0
 11
105.8596
 21
30.3624497825656
 31
0.0
  0
LINE
  5
6E2
330
1E
100
AcDbEntity
  8
0
100
AcDbLine
 10
105.8596
 20
31.25898771595319
 30
0.0
 11
106.9202999999999
 21
31.43826149333749
 31
0.0
  0
LINE
  5
6E5
330
1E
100
AcDbEntity
  8
0
100
AcDbLine
 10
106.9202999999999
 20
31.43826149333749
 30
0.0
 11
107.981
 21
31.25898771595319
 31
0.0
  0
LINE
  5
6E8
330
1E
100
AcDbEntity
  8
0
100
AcDbLine
 10
107.981
 20
31.25898771595319
 30
0.0
 11
108.4052
 21
30.8107187492594
 31
0.0
  0
LINE
  5
6EA
330
1E
100
AcDbEntity
  8
0
100
AcDbLine
 10
107.981
 20
30.3624497825656
 30
0.0
 11
108.4052
 21
30.8107187492594
 31
0.0
  0
LINE
  5
6EB
330
1E
100
AcDbEntity
  8
0
100
AcDbLine
 10
113.9574
 20
31.1185540437219
 30
0.0
 11
114.9535999999999
 21
30.8822693456182
 31
0.0
  0
LINE
  5
6F0
330
1E
100
AcDbEntity
  8
0
100
AcDbLine
 10
113.6751999999999
 20
31.5863901388761
 30
0.0
 11
114.2343
 21
32.0074003628983
 31
0.0
  0
LINE
  5
6F1
330
1E
100
AcDbEntity
  8
0
100
AcDbLine
 10
113.6751999999999
 20
31.5863901388761
 30
0.0
 11
113.9574
 21
31.1185540437219
 31
0.0
  0
LINE
  5
6F3
330
1E
100
AcDbEntity
  8
0
100
AcDbLine
 10
114.9535999999999
 20
30.8822693456182
 30
0.0
 11
116.0606
 21
31.0015316275085
 31
0.0
  0
LINE
  5
6F4
330
1E
100
AcDbEntity
  8
0
100
AcDbLine
 10
114.2343
 20
32.0074003628983
 30
0.0
 11
115.3412
 21
32.12666264478849
 31
0.0
  0
LINE
  5
6F6
330
1E
100
AcDbEntity
  8
0
100
AcDbLine
 10
100.8842999999999
 20
32.2865789222472
 30
0.0
 11
101.7989999999999
 21
32.57577516426519
 31
0.0
  0
LINE
  5
6F7
330
1E
100
AcDbEntity
  8
0
100
AcDbLine
 10
99.75000000000001
 20
32.3437166278161
 30
0.0
 11
100.8842999999999
 21
32.2865789222472
 31
0.0
  0
LINE
  5
6F8
330
1E
100
AcDbEntity
  8
0
100
AcDbLine
 10
99.06570000000002
 20
32.7303258959706
 30
0.0
 11
99.20100000000001
 21
33.20969941244169
 31
0.0
  0
LINE
  5
6F9
330
1E
100
AcDbEntity
  8
0
100
AcDbLine
 10
99.06570000000002
 20
32.7303258959706
 30
0.0
 11
99.75000000000001
 21
32.3437166278161
 31
0.0
  0
LINE
  5
6FB
330
1E
100
AcDbEntity
  8
0
100
AcDbLine
 10
99.20100000000001
 20
33.20969941244169
 30
0.0
 11
100.1157
 21
33.4988956544597
 31
0.0
  0
LINE
  5
6FD
330
1E
100
AcDbEntity
  8
0
100
AcDbLine
 10
101.7989999999999
 20
32.57577516426519
 30
0.0
 11
101.9342999999999
 21
33.05514868073619
 31
0.0
  0
LINE
  5
701
330
1E
100
AcDbEntity
  8
0
100
AcDbLine
 10
100.1157
 20
33.4988956544597
 30
0.0
 11
101.2499999999999
 21
33.4417156872742
 31
0.0
  0
LINE
  5
703
330
1E
100
AcDbEntity
  8
0
100
AcDbLine
 10
101.2499999999999
 20
33.4417156872742
 30
0.0
 11
101.9342999999999
 21
33.05514868073619
 31
0.0
  0
LINE
  5
707
330
1E
100
AcDbEntity
  8
0
100
AcDbLine
 10
115.3412
 20
32.12666264478849
 30
0.0
 11
116.3375
 21
31.8903779466849
 31
0.0
  0
LINE
  5
70A
330
1E
100
AcDbEntity
  8
0
100
AcDbLine
 10
116.3375
 20
31.8903779466849
 30
0.0
 11
116.6196
 21
31.4225418515307
 31
0.0
  0
LINE
  5
70C
330
1E
100
AcDbEntity
  8
0
100
AcDbLine
 10
116.0606
 20
31.0015316275085
 30
0.0
 11
116.6196
 21
31.4225418515307
 31
0.0
  0
LINE
  5
70E
330
1E
100
AcDbEntity
  8
0
100
AcDbLine
 10
123.5867999999999
 20
30.9027053565398
 30
0.0
 11
124.7211
 21
30.9598853237253
 31
0.0
  0
LINE
  5
70F
330
1E
100
AcDbEntity
  8
0
100
AcDbLine
 10
122.6720999999999
 20
31.1919015985579
 30
0.0
 11
123.5867999999999
 21
30.9027053565398
 31
0.0
  0
LINE
  5
711
330
1E
100
AcDbEntity
  8
0
100
AcDbLine
 10
122.5368
 20
31.6712751150289
 30
0.0
 11
123.2211
 21
32.05784212156689
 31
0.0
  0
LINE
  5
712
330
1E
100
AcDbEntity
  8
0
100
AcDbLine
 10
122.5368
 20
31.6712751150289
 30
0.0
 11
122.6720999999999
 21
31.1919015985579
 31
0.0
  0
LINE
  5
714
330
1E
100
AcDbEntity
  8
0
100
AcDbLine
 10
123.2211
 20
32.05784212156689
 30
0.0
 11
124.3555
 21
32.1150220887524
 31
0.0
  0
LINE
  5
719
330
1E
100
AcDbEntity
  8
0
100
AcDbLine
 10
124.3555
 20
32.1150220887524
 30
0.0
 11
125.2701999999999
 21
31.8258258467343
 31
0.0
  0
LINE
  5
71D
330
1E
100
AcDbEntity
  8
0
100
AcDbLine
 10
125.2701999999999
 20
31.8258258467343
 30
0.0
 11
125.4055
 21
31.3464523302633
 31
0.0
  0
LINE
  5
71F
330
1E
100
AcDbEntity
  8
0
100
AcDbLine
 10
124.7211
 20
30.9598853237253
 30
0.0
 11
125.4055
 21
31.3464523302633
 31
0.0
  0
LINE
  5
723
330
1E
100
AcDbEntity
  8
0
100
AcDbLine
 10
127.4
 20
33.2181432015526
 30
0.0
 11
132.1999999999999
 21
28.2312724492315
 31
0.0
  0
LINE
  5
724
330
1E
100
AcDbEntity
  8
0
100
AcDbLine
 10
108.3268
 20
33.8467104381739
 30
0.0
 11
109.3229999999999
 21
34.08299513627749
 31
0.0
  0
LINE
  5
725
330
1E
100
AcDbEntity
  8
0
100
AcDbLine
 10
107.2197999999999
 20
33.9659727200641
 30
0.0
 11
108.3268
 21
33.8467104381739
 31
0.0
  0
LINE
  5
729
330
1E
100
AcDbEntity
  8
0
100
AcDbLine
 10
106.6607
 20
34.3869829440864
 30
0.0
 11
106.9428999999999
 21
34.8548190392406
 31
0.0
  0
LINE
  5
72A
330
1E
100
AcDbEntity
  8
0
100
AcDbLine
 10
106.6607
 20
34.3869829440864
 30
0.0
 11
107.2197999999999
 21
33.9659727200641
 31
0.0
  0
LINE
  5
72C
330
1E
100
AcDbEntity
  8
0
100
AcDbLine
 10
106.9428999999999
 20
34.8548190392406
 30
0.0
 11
107.9390999999999
 21
35.0910614757276
 31
0.0
  0
LINE
  5
72E
330
1E
100
AcDbEntity
  8
0
100
AcDbLine
 10
107.9390999999999
 20
35.0910614757276
 30
0.0
 11
109.0460999999999
 21
34.97184145545389
 31
0.0
  0
LINE
  5
730
330
1E
100
AcDbEntity
  8
0
100
AcDbLine
 10
109.0460999999999
 20
34.97184145545389
 30
0.0
 11
109.6052
 21
34.55078896981519
 31
0.0
  0
LINE
  5
732
330
1E
100
AcDbEntity
  8
0
100
AcDbLine
 10
109.3229999999999
 20
34.08299513627749
 30
0.0
 11
109.6052
 21
34.55078896981519
 31
0.0
  0
LINE
  5
733
330
1E
100
AcDbEntity
  8
0
100
AcDbLine
 10
115.7591
 20
34.99929289472199
 30
0.0
 11
116.8198
 21
34.8200191173377
 31
0.0
  0
LINE
  5
734
330
1E
100
AcDbEntity
  8
0
100
AcDbLine
 10
115.3349
 20
35.4989456753179
 30
0.0
 11
115.3349
 21
35.44756186141579
 31
0.0
  0
LINE
  5
735
330
1E
100
AcDbEntity
  8
0
100
AcDbLine
 10
115.3349
 20
35.44756186141579
 30
0.0
 11
115.7591
 21
35.8958308281096
 31
0.0
  0
LINE
  5
736
330
1E
100
AcDbEntity
  8
0
100
AcDbLine
 10
115.3349
 20
35.44756186141579
 30
0.0
 11
115.7591
 21
34.99929289472199
 31
0.0
  0
LINE
  5
737
330
1E
100
AcDbEntity
  8
0
100
AcDbLine
 10
115.3349
 20
35.44756186141579
 30
0.0
 11
115.3349
 21
35.4989456753179
 31
0.0
  0
LINE
  5
738
330
1E
100
AcDbEntity
  8
0
100
AcDbLine
 10
116.8198
 20
34.8200191173377
 30
0.0
 11
117.8805
 21
34.99929289472199
 31
0.0
  0
LINE
  5
739
330
1E
100
AcDbEntity
  8
0
100
AcDbLine
 10
115.7591
 20
35.8958308281096
 30
0.0
 11
116.8198
 21
36.0751046054939
 31
0.0
  0
LINE
  5
73B
330
1E
100
AcDbEntity
  8
0
100
AcDbLine
 10
117.8805
 20
35.8958308281096
 30
0.0
 11
118.3046999999999
 21
35.44756186141579
 31
0.0
  0
LINE
  5
73E
330
1E
100
AcDbEntity
  8
0
100
AcDbLine
 10
117.8805
 20
34.99929289472199
 30
0.0
 11
118.3046999999999
 21
35.44756186141579
 31
0.0
  0
LINE
  5
740
330
1E
100
AcDbEntity
  8
0
100
AcDbLine
 10
116.8198
 20
36.0751046054939
 30
0.0
 11
117.8805
 21
35.8958308281096
 31
0.0
  0
LINE
  5
742
330
1E
100
AcDbEntity
  8
0
100
AcDbLine
 10
100.9278
 20
36.3224804586186
 30
0.0
 11
100.9278
 21
36.4112232757659
 31
0.0
  0
LINE
  5
746
330
1E
100
AcDbEntity
  8
0
100
AcDbLine
 10
100.9278
 20
36.4112232757659
 30
0.0
 11
100.9278
 21
36.3224804586186
 31
0.0
  0
LINE
  5
747
330
1E
100
AcDbEntity
  8
0
100
AcDbLine
 10
100.1102
 20
35.9852750202053
 30
0.0
 11
100.9278
 21
36.3224804586186
 31
0.0
  0
LINE
  5
748
330
1E
100
AcDbEntity
  8
0
100
AcDbLine
 10
98.96790000000001
 20
35.9794006555055
 30
0.0
 11
100.1102
 21
35.9852750202053
 31
0.0
  0
LINE
  5
749
330
1E
100
AcDbEntity
  8
0
100
AcDbLine
 10
98.17010000000001
 20
36.3249316323782
 30
0.0
 11
98.96790000000001
 21
35.9794006555055
 31
0.0
  0
LINE
  5
74B
330
1E
100
AcDbEntity
  8
0
100
AcDbLine
 10
98.1562
 20
36.80764381655629
 30
0.0
 11
98.9737
 21
37.1448492549696
 31
0.0
  0
LINE
  5
74C
330
1E
100
AcDbEntity
  8
0
100
AcDbLine
 10
98.1562
 20
36.80764381655629
 30
0.0
 11
98.17010000000001
 21
36.3249316323782
 31
0.0
  0
LINE
  5
74E
330
1E
100
AcDbEntity
  8
0
100
AcDbLine
 10
98.9737
 20
37.1448492549696
 30
0.0
 11
100.116
 21
37.1507236196694
 31
0.0
  0
LINE
  5
750
330
1E
100
AcDbEntity
  8
0
100
AcDbLine
 10
107.8842999999999
 20
37.86365847929889
 30
0.0
 11
108.799
 21
38.15285472131689
 31
0.0
  0
LINE
  5
751
330
1E
100
AcDbEntity
  8
0
100
AcDbLine
 10
106.75
 20
37.92083844648439
 30
0.0
 11
107.8842999999999
 21
37.86365847929889
 31
0.0
  0
LINE
  5
755
330
1E
100
AcDbEntity
  8
0
100
AcDbLine
 10
100.116
 20
37.1507236196694
 30
0.0
 11
100.9139
 21
36.8052349044132
 31
0.0
  0
LINE
  5
757
330
1E
100
AcDbEntity
  8
0
100
AcDbLine
 10
100.9139
 20
36.8052349044132
 30
0.0
 11
100.9278
 21
36.3224804586186
 31
0.0
  0
LINE
  5
758
330
1E
100
AcDbEntity
  8
0
100
AcDbLine
 10
119.5999999999999
 20
37.5288280891522
 30
0.0
 11
127.4
 21
33.2181432015526
 31
0.0
  0
LINE
  5
759
330
1E
100
AcDbEntity
  8
0
100
AcDbLine
 10
106.0657
 20
38.3074054530223
 30
0.0
 11
106.201
 21
38.7867789694933
 31
0.0
  0
LINE
  5
75A
330
1E
100
AcDbEntity
  8
0
100
AcDbLine
 10
106.0657
 20
38.3074054530223
 30
0.0
 11
106.75
 21
37.92083844648439
 31
0.0
  0
LINE
  5
75B
330
1E
100
AcDbEntity
  8
0
100
AcDbLine
 10
108.799
 20
38.15285472131689
 30
0.0
 11
108.9342999999999
 21
38.6322704994045
 31
0.0
  0
LINE
  5
75D
330
1E
100
AcDbEntity
  8
0
100
AcDbLine
 10
106.201
 20
38.7867789694933
 30
0.0
 11
107.1157
 21
39.07601747312799
 31
0.0
  0
LINE
  5
760
330
1E
100
AcDbEntity
  8
0
100
AcDbLine
 10
97.93280000000001
 20
40.6834803200372
 30
0.0
 11
98.0957
 21
40.2056282217618
 31
0.0
  0
LINE
  5
763
330
1E
100
AcDbEntity
  8
0
100
AcDbLine
 10
107.1157
 20
39.07601747312799
 30
0.0
 11
108.25
 21
39.01883750594249
 31
0.0
  0
LINE
  5
765
330
1E
100
AcDbEntity
  8
0
100
AcDbLine
 10
108.25
 20
39.01883750594249
 30
0.0
 11
108.9342999999999
 21
38.6322704994045
 31
0.0
  0
LINE
  5
768
330
1E
100
AcDbEntity
  8
0
100
AcDbLine
 10
109.4
 20
40.8252341796695
 30
0.0
 11
119.5999999999999
 21
37.5288280891522
 31
0.0
  0
LINE
  5
769
330
1E
100
AcDbEntity
  8
0
100
AcDbLine
 10
123.7999999999999
 20
41.1164335131455
 30
0.0
 11
132.6
 21
36.2563476104596
 31
0.0
  0
LINE
  5
76A
330
1E
100
AcDbEntity
  8
0
100
AcDbLine
 10
123.7999999999999
 20
40.7539100073256
 30
0.0
 11
132.6
 21
35.89382410463979
 31
0.0
  0
LINE
  5
76B
330
1E
100
AcDbEntity
  8
0
100
AcDbLine
 10
119.5999999999999
 20
37.981982471427
 30
0.0
 11
127.4
 21
33.6712975838274
 31
0.0
  0
LINE
  5
76C
330
1E
100
AcDbEntity
  8
0
100
AcDbLine
 10
132.6
 20
36.2563476104596
 30
0.0
 11
138.0
 21
30.6778142265072
 31
0.0
  0
LINE
  5
76D
330
1E
100
AcDbEntity
  8
0
100
AcDbLine
 10
132.6
 20
35.89382410463979
 30
0.0
 11
138.0
 21
30.3152907206873
 31
0.0
  0
LINE
  5
76E
330
1E
100
AcDbEntity
  8
0
100
AcDbLine
 10
123.7999999999999
 20
39.756970366321
 30
0.0
 11
132.6
 21
34.8968844636351
 31
0.0
  0
LINE
  5
76F
330
1E
100
AcDbEntity
  8
0
100
AcDbLine
 10
127.4
 20
33.6712975838274
 30
0.0
 11
132.1999999999999
 21
28.6844268315063
 31
0.0
  0
LINE
  5
770
330
1E
100
AcDbEntity
  8
0
100
AcDbLine
 10
136.5999999999999
 20
40.93131855264799
 30
0.0
 11
138.0
 21
38.3814387251794
 31
0.0
  0
LINE
  5
771
330
1E
100
AcDbEntity
  8
0
100
AcDbLine
 10
138.0
 20
38.3814387251794
 30
0.0
 11
140.0
 21
32.42255079232109
 31
0.0
  0
LINE
  5
772
330
1E
100
AcDbEntity
  8
0
100
AcDbLine
 10
138.0
 20
30.6778142265072
 30
0.0
 11
140.0
 21
24.71892629364889
 31
0.0
  0
LINE
  5
773
330
1E
100
AcDbEntity
  8
0
100
AcDbLine
 10
138.0
 20
30.3152907206873
 30
0.0
 11
140.0
 21
24.356402787829
 31
0.0
  0
LINE
  5
774
330
1E
100
AcDbEntity
  8
0
100
AcDbLine
 10
132.6
 20
34.8968844636351
 30
0.0
 11
138.0
 21
29.3183510796827
 31
0.0
  0
LINE
  5
775
330
1E
100
AcDbEntity
  8
0
100
AcDbLine
 10
132.1999999999999
 20
28.6844268315063
 30
0.0
 11
134.0
 21
23.35946314682439
 31
0.0
  0
LINE
  5
776
330
1E
100
AcDbEntity
  8
0
100
AcDbLine
 10
140.0
 20
24.18442595297729
 30
0.0
 11
158.0
 21
24.18442595297729
 31
0.0
  0
LINE
  5
777
330
1E
100
AcDbEntity
  8
0
100
AcDbLine
 10
140.0
 20
23.8844259529773
 30
0.0
 11
158.0
 21
23.8844259529773
 31
0.0
  0
LINE
  5
778
330
1E
100
AcDbEntity
  8
0
100
AcDbLine
 10
139.9391625568549
 20
24.537664540739
 30
0.0
 11
140.0
 21
24.71892629364889
 31
0.0
  0
LINE
  5
779
330
1E
100
AcDbEntity
  8
0
100
AcDbLine
 10
140.0
 20
32.42255079232109
 30
0.0
 11
140.0
 21
24.71892629364889
 31
0.0
  0
LINE
  5
77A
330
1E
100
AcDbEntity
  8
0
100
AcDbLine
 10
139.9391625568549
 20
24.537664540739
 30
0.0
 11
140.0
 21
24.71892629364889
 31
0.0
  0
LINE
  5
77B
330
1E
100
AcDbEntity
  8
0
100
AcDbLine
 10
140.0
 20
24.356402787829
 30
0.0
 11
140.0
 21
23.35946314682439
 31
0.0
  0
LINE
  5
77C
330
1E
100
AcDbEntity
  8
0
100
AcDbLine
 10
158.0
 20
24.18442595297729
 30
0.0
 11
161.023
 21
24.6255299529773
 31
0.0
  0
LINE
  5
77D
330
1E
100
AcDbEntity
  8
0
100
AcDbLine
 10
166.3
 20
27.58442595297729
 30
0.0
 11
168.1409999999999
 21
30.0436659529773
 31
0.0
  0
LINE
  5
77E
330
1E
100
AcDbEntity
  8
0
100
AcDbLine
 10
168.1409999999999
 20
30.0436659529773
 30
0.0
 11
169.259
 21
32.8612059529773
 31
0.0
  0
LINE
  5
77F
330
1E
100
AcDbEntity
  8
0
100
AcDbLine
 10
169.6999999999999
 20
35.88442595297729
 30
0.0
 11
169.6999999999999
 21
108.884425952977
 31
0.0
  0
LINE
  5
780
330
1E
100
AcDbEntity
  8
0
100
AcDbLine
 10
169.259
 20
32.8612059529773
 30
0.0
 11
169.6999999999999
 21
35.88442595297729
 31
0.0
  0
LINE
  5
781
330
1E
100
AcDbEntity
  8
0
100
AcDbLine
 10
170.0
 20
35.88442595297729
 30
0.0
 11
170.0
 21
108.884425952977
 31
0.0
  0
LINE
  5
782
330
1E
100
AcDbEntity
  8
0
100
AcDbLine
 10
168.4
 20
29.8844259529773
 30
0.0
 11
169.5999999999999
 21
32.7844259529773
 31
0.0
  0
LINE
  5
783
330
1E
100
AcDbEntity
  8
0
100
AcDbLine
 10
163.8409999999999
 20
25.7438259529773
 30
0.0
 11
166.3
 21
27.58442595297729
 31
0.0
  0
LINE
  5
784
330
1E
100
AcDbEntity
  8
0
100
AcDbLine
 10
161.023
 20
24.6255299529773
 30
0.0
 11
163.8409999999999
 21
25.7438259529773
 31
0.0
  0
LINE
  5
785
330
1E
100
AcDbEntity
  8
0
100
AcDbLine
 10
161.0999999999999
 20
24.2844259529773
 30
0.0
 11
164.0
 21
25.4844259529773
 31
0.0
  0
LINE
  5
786
330
1E
100
AcDbEntity
  8
0
100
AcDbLine
 10
140.0
 20
24.71892629364889
 30
0.0
 11
140.0
 21
32.42255079232109
 31
0.0
  0
LINE
  5
787
330
1E
100
AcDbEntity
  8
0
100
AcDbLine
 10
140.0
 20
23.35946314682439
 30
0.0
 11
140.0
 21
24.356402787829
 31
0.0
  0
LINE
  5
788
330
1E
100
AcDbEntity
  8
0
100
AcDbLine
 10
138.0
 20
29.3183510796827
 30
0.0
 11
140.0
 21
23.35946314682439
 31
0.0
  0
LINE
  5
789
330
1E
100
AcDbEntity
  8
0
100
AcDbLine
 10
109.4
 20
41.27838856194439
 30
0.0
 11
119.5999999999999
 21
37.981982471427
 31
0.0
  0
LINE
  5
78A
330
1E
100
AcDbEntity
  8
0
100
AcDbLine
 10
97.59999999999999
 20
43.30694615610889
 30
0.0
 11
109.4
 21
41.27838856194439
 31
0.0
  0
LINE
  5
78B
330
1E
100
AcDbEntity
  8
0
100
AcDbLine
 10
73.8571
 20
62.16800128184431
 30
0.0
 11
73.8571
 21
70.67415554083059
 31
0.0
  0
LINE
  5
78C
330
1E
100
AcDbEntity
  8
0
100
AcDbLine
 10
72.67610000000001
 20
130.363425952977
 30
0.0
 11
78.59149999999999
 21
132.757425952977
 31
0.0
  0
LINE
  5
78D
330
1E
100
AcDbEntity
  8
0
100
AcDbLine
 10
74.0
 20
84.68482595297729
 30
0.0
 11
74.0
 21
71.10355183054271
 31
0.0
  0
LINE
  5
78E
330
1E
100
AcDbEntity
  8
0
100
AcDbLine
 10
74.0
 20
84.68482595297729
 30
0.0
 11
74.0
 21
89.92782595297731
 31
0.0
  0
LINE
  5
78F
330
1E
100
AcDbEntity
  8
0
100
AcDbLine
 10
74.0
 20
71.10355183054271
 30
0.0
 11
74.0
 21
84.68482595297729
 31
0.0
  0
LINE
  5
792
330
1E
100
AcDbEntity
  8
0
100
AcDbLine
 10
74.0
 20
89.92782595297731
 30
0.0
 11
74.0
 21
94.70632595297729
 31
0.0
  0
LINE
  5
793
330
1E
100
AcDbEntity
  8
0
100
AcDbLine
 10
74.0
 20
89.92782595297731
 30
0.0
 11
74.0
 21
84.68482595297729
 31
0.0
  0
LINE
  5
794
330
1E
100
AcDbEntity
  8
0
100
AcDbLine
 10
74.0
 20
108.408525952977
 30
0.0
 11
74.0
 21
107.181025952977
 31
0.0
  0
LINE
  5
795
330
1E
100
AcDbEntity
  8
0
100
AcDbLine
 10
74.0
 20
108.408525952977
 30
0.0
 11
74.0
 21
108.819925952977
 31
0.0
  0
LINE
  5
796
330
1E
100
AcDbEntity
  8
0
100
AcDbLine
 10
74.0
 20
107.181025952977
 30
0.0
 11
74.0
 21
105.158625952977
 31
0.0
  0
LINE
  5
797
330
1E
100
AcDbEntity
  8
0
100
AcDbLine
 10
74.0
 20
107.181025952977
 30
0.0
 11
74.0
 21
108.408525952977
 31
0.0
  0
LINE
  5
798
330
1E
100
AcDbEntity
  8
0
100
AcDbLine
 10
74.0
 20
105.158625952977
 30
0.0
 11
74.0
 21
102.375925952977
 31
0.0
  0
LINE
  5
799
330
1E
100
AcDbEntity
  8
0
100
AcDbLine
 10
74.0
 20
105.158625952977
 30
0.0
 11
74.0
 21
107.181025952977
 31
0.0
  0
LINE
  5
79A
330
1E
100
AcDbEntity
  8
0
100
AcDbLine
 10
74.0
 20
102.375925952977
 30
0.0
 11
74.0
 21
105.158625952977
 31
0.0
  0
LINE
  5
79B
330
1E
100
AcDbEntity
  8
0
100
AcDbLine
 10
74.0
 20
102.375925952977
 30
0.0
 11
74.0
 21
98.8803259529773
 31
0.0
  0
LINE
  5
79C
330
1E
100
AcDbEntity
  8
0
100
AcDbLine
 10
74.0
 20
98.8803259529773
 30
0.0
 11
74.0
 21
94.70632595297729
 31
0.0
  0
LINE
  5
79D
330
1E
100
AcDbEntity
  8
0
100
AcDbLine
 10
74.0
 20
98.8803259529773
 30
0.0
 11
74.0
 21
102.375925952977
 31
0.0
  0
LINE
  5
79E
330
1E
100
AcDbEntity
  8
0
100
AcDbLine
 10
74.0
 20
94.70632595297729
 30
0.0
 11
74.0
 21
98.8803259529773
 31
0.0
  0
LINE
  5
79F
330
1E
100
AcDbEntity
  8
0
100
AcDbLine
 10
74.0
 20
94.70632595297729
 30
0.0
 11
74.0
 21
89.92782595297731
 31
0.0
  0
LINE
  5
7A0
330
1E
100
AcDbEntity
  8
0
100
AcDbLine
 10
74.0
 20
108.819925952977
 30
0.0
 11
74.396
 21
111.641925952977
 31
0.0
  0
LINE
  5
7A1
330
1E
100
AcDbEntity
  8
0
100
AcDbLine
 10
74.0
 20
108.819925952977
 30
0.0
 11
74.0
 21
108.408525952977
 31
0.0
  0
LINE
  5
7A6
330
1E
100
AcDbEntity
  8
0
100
AcDbLine
 10
72.67610000000001
 20
87.4055259529773
 30
0.0
 11
74.0
 21
86.86966806171041
 31
0.0
  0
LINE
  5
7A7
330
1E
100
AcDbEntity
  8
0
100
AcDbLine
 10
73.8571
 20
70.67415554083059
 30
0.0
 11
74.0
 21
71.10355183054271
 31
0.0
  0
LINE
  5
7A8
330
1E
100
AcDbEntity
  8
0
100
AcDbLine
 10
73.8571
 20
70.67415554083059
 30
0.0
 11
73.8571
 21
62.16800128184431
 31
0.0
  0
LINE
  5
7A9
330
1E
100
AcDbEntity
  8
0
100
AcDbLine
 10
85.0
 20
43.6145008716458
 30
0.0
 11
97.59999999999999
 21
42.8537917738341
 31
0.0
  0
LINE
  5
7AA
330
1E
100
AcDbEntity
  8
0
100
AcDbLine
 10
112.2999999999999
 20
44.8354557691138
 30
0.0
 11
123.7999999999999
 21
41.1164335131455
 31
0.0
  0
LINE
  5
7AB
330
1E
100
AcDbEntity
  8
0
100
AcDbLine
 10
112.2999999999999
 20
44.4729322632939
 30
0.0
 11
123.7999999999999
 21
40.7539100073256
 31
0.0
  0
LINE
  5
7AC
330
1E
100
AcDbEntity
  8
0
100
AcDbLine
 10
134.1999999999999
 20
44.30298391157609
 30
0.0
 11
136.5999999999999
 21
40.93131855264799
 31
0.0
  0
LINE
  5
7AD
330
1E
100
AcDbEntity
  8
0
100
AcDbLine
 10
112.2999999999999
 20
43.47599262228929
 30
0.0
 11
123.7999999999999
 21
39.756970366321
 31
0.0
  0
LINE
  5
7AE
330
1E
100
AcDbEntity
  8
0
100
AcDbLine
 10
99.1
 20
45.7581199157244
 30
0.0
 11
112.2999999999999
 21
43.47599262228929
 31
0.0
  0
LINE
  5
7AF
330
1E
100
AcDbEntity
  8
0
100
AcDbLine
 10
85.0
 20
44.0676552539206
 30
0.0
 11
97.59999999999999
 21
43.30694615610889
 31
0.0
  0
LINE
  5
7B1
330
1E
100
AcDbEntity
  8
0
100
AcDbLine
 10
76.0631905329826
 20
62.33619131324529
 30
0.0
 11
77.33369999999999
 21
63.0383526754311
 31
0.0
  0
LINE
  5
7B3
330
1E
100
AcDbEntity
  8
0
100
AcDbLine
 10
77.33369999999999
 20
63.0383526754311
 30
0.0
 11
79.60689999999999
 21
63.7729863558345
 31
0.0
  0
LINE
  5
7B6
330
1E
100
AcDbEntity
  8
0
100
AcDbLine
 10
79.60689999999999
 20
63.7729863558345
 30
0.0
 11
82.192
 21
64.2250588680174
 31
0.0
  0
LINE
  5
7B7
330
1E
100
AcDbEntity
  8
0
100
AcDbLine
 10
85.0
 20
64.3945702119798
 30
0.0
 11
87.80799999999999
 21
64.2250588680174
 31
0.0
  0
LINE
  5
7B8
330
1E
100
AcDbEntity
  8
0
100
AcDbLine
 10
82.192
 20
64.2250588680174
 30
0.0
 11
85.0
 21
64.3945702119798
 31
0.0
  0
LINE
  5
7BA
330
1E
100
AcDbEntity
  8
0
100
AcDbLine
 10
77.212
 20
116.624225952977
 30
0.0
 11
79.54399999999999
 21
118.387825952977
 31
0.0
  0
LINE
  5
7BB
330
1E
100
AcDbEntity
  8
0
100
AcDbLine
 10
75.452
 20
114.287325952977
 30
0.0
 11
77.212
 21
116.624225952977
 31
0.0
  0
LINE
  5
7BC
330
1E
100
AcDbEntity
  8
0
100
AcDbLine
 10
74.396
 20
111.641925952977
 30
0.0
 11
75.452
 21
114.287325952977
 31
0.0
  0
LINE
  5
7BF
330
1E
100
AcDbEntity
  8
0
100
AcDbLine
 10
78.59149999999999
 20
132.757425952977
 30
0.0
 11
85.0
 21
133.6734259529769
 31
0.0
  0
LINE
  5
7C0
330
1E
100
AcDbEntity
  8
0
100
AcDbLine
 10
85.0
 20
119.842925952977
 30
0.0
 11
87.816
 21
119.446025952977
 31
0.0
  0
LINE
  5
7C1
330
1E
100
AcDbEntity
  8
0
100
AcDbLine
 10
82.184
 20
119.446025952977
 30
0.0
 11
85.0
 21
119.842925952977
 31
0.0
  0
LINE
  5
7C2
330
1E
100
AcDbEntity
  8
0
100
AcDbLine
 10
79.54399999999999
 20
118.387825952977
 30
0.0
 11
82.184
 21
119.446025952977
 31
0.0
  0
LINE
  5
7C6
330
1E
100
AcDbEntity
  8
0
100
AcDbLine
 10
76.0
 20
142.384425952977
 30
0.0
 11
85.0
 21
143.684425952977
 31
0.0
  0
LINE
  5
7CA
330
1E
100
AcDbEntity
  8
0
100
AcDbLine
 10
85.0
 20
133.6734259529769
 30
0.0
 11
91.4085
 21
132.757425952977
 31
0.0
  0
LINE
  5
7CB
330
1E
100
AcDbEntity
  8
0
100
AcDbLine
 10
85.0
 20
143.684425952977
 30
0.0
 11
94.0
 21
142.384425952977
 31
0.0
  0
LINE
  5
7CE
330
1E
100
AcDbEntity
  8
0
100
AcDbLine
 10
85.0
 20
193.5844259529769
 30
0.0
 11
158.0
 21
193.5844259529769
 31
0.0
  0
LINE
  5
7CF
330
1E
100
AcDbEntity
  8
0
100
AcDbLine
 10
85.0
 20
193.8844259529769
 30
0.0
 11
158.0
 21
193.8844259529769
 31
0.0
  0
LINE
  5
7D2
330
1E
100
AcDbEntity
  8
0
100
AcDbLine
 10
85.0
 20
62.860752444956
 30
0.0
 11
95.8
 21
62.2268281967796
 31
0.0
  0
LINE
  5
7D3
330
1E
100
AcDbEntity
  8
0
100
AcDbLine
 10
85.0
 20
47.96281539345069
 30
0.0
 11
99.1
 21
47.11758306254889
 31
0.0
  0
LINE
  5
7D4
330
1E
100
AcDbEntity
  8
0
100
AcDbLine
 10
96.1429
 20
62.16800128184431
 30
0.0
 11
96.1429
 21
70.67415554083059
 31
0.0
  0
LINE
  5
7D9
330
1E
100
AcDbEntity
  8
0
100
AcDbLine
 10
92.66630000000001
 20
63.0383526754311
 30
0.0
 11
93.9368094670174
 21
62.33619131324529
 31
0.0
  0
LINE
  5
7DA
330
1E
100
AcDbEntity
  8
0
100
AcDbLine
 10
90.3931
 20
63.7729863558345
 30
0.0
 11
92.66630000000001
 21
63.0383526754311
 31
0.0
  0
LINE
  5
7DB
330
1E
100
AcDbEntity
  8
0
100
AcDbLine
 10
90.456
 20
118.387825952977
 30
0.0
 11
92.788
 21
116.624225952977
 31
0.0
  0
LINE
  5
7DC
330
1E
100
AcDbEntity
  8
0
100
AcDbLine
 10
87.816
 20
119.446025952977
 30
0.0
 11
90.456
 21
118.387825952977
 31
0.0
  0
LINE
  5
7DF
330
1E
100
AcDbEntity
  8
0
100
AcDbLine
 10
92.788
 20
116.624225952977
 30
0.0
 11
94.54799999999998
 21
114.287325952977
 31
0.0
  0
LINE
  5
7E1
330
1E
100
AcDbEntity
  8
0
100
AcDbLine
 10
91.4085
 20
132.757425952977
 30
0.0
 11
97.3239
 21
130.363425952977
 31
0.0
  0
LINE
  5
7E2
330
1E
100
AcDbEntity
  8
0
100
AcDbLine
 10
94.0
 20
142.384425952977
 30
0.0
 11
102.2999999999999
 21
138.9844259529769
 31
0.0
  0
LINE
  5
7E4
330
1E
100
AcDbEntity
  8
0
100
AcDbLine
 10
95.60399999999999
 20
111.641925952977
 30
0.0
 11
96.0
 21
108.819925952977
 31
0.0
  0
LINE
  5
7E5
330
1E
100
AcDbEntity
  8
0
100
AcDbLine
 10
94.54799999999998
 20
114.287325952977
 30
0.0
 11
95.60399999999999
 21
111.641925952977
 31
0.0
  0
LINE
  5
7E7
330
1E
100
AcDbEntity
  8
0
100
AcDbLine
 10
87.80799999999999
 20
64.2250588680174
 30
0.0
 11
90.3931
 21
63.7729863558345
 31
0.0
  0
LINE
  5
7E8
330
1E
100
AcDbEntity
  8
0
100
AcDbLine
 10
96.0
 20
71.10355183054271
 30
0.0
 11
96.0
 21
84.68482595297729
 31
0.0
  0
LINE
  5
7E9
330
1E
100
AcDbEntity
  8
0
100
AcDbLine
 10
96.1429
 20
70.67415554083059
 30
0.0
 11
96.1429
 21
62.16800128184431
 31
0.0
  0
LINE
  5
7EA
330
1E
100
AcDbEntity
  8
0
100
AcDbLine
 10
96.0
 20
84.68482595297729
 30
0.0
 11
96.0
 21
71.10355183054271
 31
0.0
  0
LINE
  5
7EB
330
1E
100
AcDbEntity
  8
0
100
AcDbLine
 10
96.0
 20
84.68482595297729
 30
0.0
 11
96.0
 21
89.92782595297731
 31
0.0
  0
LINE
  5
7EC
330
1E
100
AcDbEntity
  8
0
100
AcDbLine
 10
96.0
 20
76.20370306141101
 30
0.0
 11
102.2999999999999
 21
78.7844259529773
 31
0.0
  0
LINE
  5
7F0
330
1E
100
AcDbEntity
  8
0
100
AcDbLine
 10
96.0
 20
89.92782595297731
 30
0.0
 11
96.0
 21
84.68482595297729
 31
0.0
  0
LINE
  5
7F1
330
1E
100
AcDbEntity
  8
0
100
AcDbLine
 10
96.0
 20
89.92782595297731
 30
0.0
 11
96.0
 21
94.70632595297729
 31
0.0
  0
LINE
  5
7F2
330
1E
100
AcDbEntity
  8
0
100
AcDbLine
 10
96.0
 20
107.181025952977
 30
0.0
 11
96.0
 21
105.158625952977
 31
0.0
  0
LINE
  5
7F3
330
1E
100
AcDbEntity
  8
0
100
AcDbLine
 10
96.0
 20
107.181025952977
 30
0.0
 11
96.0
 21
108.408525952977
 31
0.0
  0
LINE
  5
7F4
330
1E
100
AcDbEntity
  8
0
100
AcDbLine
 10
96.0
 20
105.158625952977
 30
0.0
 11
96.0
 21
102.375925952977
 31
0.0
  0
LINE
  5
7F5
330
1E
100
AcDbEntity
  8
0
100
AcDbLine
 10
96.0
 20
105.158625952977
 30
0.0
 11
96.0
 21
107.181025952977
 31
0.0
  0
LINE
  5
7F6
330
1E
100
AcDbEntity
  8
0
100
AcDbLine
 10
96.0
 20
108.819925952977
 30
0.0
 11
96.0
 21
108.408525952977
 31
0.0
  0
LINE
  5
7F7
330
1E
100
AcDbEntity
  8
0
100
AcDbLine
 10
96.0
 20
108.408525952977
 30
0.0
 11
96.0
 21
108.819925952977
 31
0.0
  0
LINE
  5
7F8
330
1E
100
AcDbEntity
  8
0
100
AcDbLine
 10
96.0
 20
108.408525952977
 30
0.0
 11
96.0
 21
107.181025952977
 31
0.0
  0
LINE
  5
7F9
330
1E
100
AcDbEntity
  8
0
100
AcDbLine
 10
96.0
 20
102.375925952977
 30
0.0
 11
96.0
 21
98.8803259529773
 31
0.0
  0
LINE
  5
7FA
330
1E
100
AcDbEntity
  8
0
100
AcDbLine
 10
96.0
 20
102.375925952977
 30
0.0
 11
96.0
 21
105.158625952977
 31
0.0
  0
LINE
  5
7FB
330
1E
100
AcDbEntity
  8
0
100
AcDbLine
 10
96.0
 20
98.8803259529773
 30
0.0
 11
96.0
 21
94.70632595297729
 31
0.0
  0
LINE
  5
7FC
330
1E
100
AcDbEntity
  8
0
100
AcDbLine
 10
96.0
 20
98.8803259529773
 30
0.0
 11
96.0
 21
102.375925952977
 31
0.0
  0
LINE
  5
7FD
330
1E
100
AcDbEntity
  8
0
100
AcDbLine
 10
96.0
 20
94.70632595297729
 30
0.0
 11
96.0
 21
98.8803259529773
 31
0.0
  0
LINE
  5
7FE
330
1E
100
AcDbEntity
  8
0
100
AcDbLine
 10
96.0
 20
94.70632595297729
 30
0.0
 11
96.0
 21
89.92782595297731
 31
0.0
  0
LINE
  5
801
330
1E
100
AcDbEntity
  8
0
100
AcDbLine
 10
96.0
 20
86.86966806171041
 30
0.0
 11
97.3239
 21
87.4055259529773
 31
0.0
  0
LINE
  5
805
330
1E
100
AcDbEntity
  8
0
100
AcDbLine
 10
97.3239
 20
130.363425952977
 30
0.0
 11
102.5349999999999
 21
126.419425952977
 31
0.0
  0
LINE
  5
807
330
1E
100
AcDbEntity
  8
0
100
AcDbLine
 10
97.3239
 20
87.4055259529773
 30
0.0
 11
102.5349999999999
 21
91.34922595297728
 31
0.0
  0
LINE
  5
809
330
1E
100
AcDbEntity
  8
0
100
AcDbLine
 10
96.0
 20
71.10355183054271
 30
0.0
 11
96.1429
 21
70.67415554083059
 31
0.0
  0
LINE
  5
80A
330
1E
100
AcDbEntity
  8
0
100
AcDbLine
 10
96.0
 20
71.10355183054271
 30
0.0
 11
96.0
 21
71.10355183054271
 31
0.0
  0
LINE
  5
80B
330
1E
100
AcDbEntity
  8
0
100
AcDbLine
 10
95.8
 20
62.2268281967796
 30
0.0
 11
105.9
 21
60.4941019184307
 31
0.0
  0
LINE
  5
80C
330
1E
100
AcDbEntity
  8
0
100
AcDbLine
 10
118.2
 20
56.42280389533871
 30
0.0
 11
125.7
 21
52.28116547391949
 31
0.0
  0
LINE
  5
80D
330
1E
100
AcDbEntity
  8
0
100
AcDbLine
 10
125.7
 20
52.28116547391949
 30
0.0
 11
129.1999999999999
 21
49.50116274662271
 31
0.0
  0
LINE
  5
80E
330
1E
100
AcDbEntity
  8
0
100
AcDbLine
 10
129.1999999999999
 20
49.50116274662271
 30
0.0
 11
134.1999999999999
 21
44.30298391157609
 31
0.0
  0
LINE
  5
80F
330
1E
100
AcDbEntity
  8
0
100
AcDbLine
 10
114.5999999999999
 20
57.6203119933643
 30
0.0
 11
118.2
 21
56.42280389533871
 31
0.0
  0
LINE
  5
810
330
1E
100
AcDbEntity
  8
0
100
AcDbLine
 10
102.2999999999999
 20
78.7844259529773
 30
0.0
 11
109.5999999999999
 21
84.28442595297729
 31
0.0
  0
LINE
  5
817
330
1E
100
AcDbEntity
  8
0
100
AcDbLine
 10
102.5349999999999
 20
91.34922595297728
 30
0.0
 11
106.4789999999999
 21
96.56052595297721
 31
0.0
  0
LINE
  5
818
330
1E
100
AcDbEntity
  8
0
100
AcDbLine
 10
106.4789999999999
 20
96.56052595297721
 30
0.0
 11
108.8729999999999
 21
102.475925952977
 31
0.0
  0
LINE
  5
81A
330
1E
100
AcDbEntity
  8
0
100
AcDbLine
 10
109.5999999999999
 20
84.28442595297729
 30
0.0
 11
115.1
 21
91.5844259529773
 31
0.0
  0
LINE
  5
81D
330
1E
100
AcDbEntity
  8
0
100
AcDbLine
 10
115.1
 20
91.5844259529773
 30
0.0
 11
118.5
 21
99.8844259529773
 31
0.0
  0
LINE
  5
81E
330
1E
100
AcDbEntity
  8
0
100
AcDbLine
 10
118.5
 20
99.8844259529773
 30
0.0
 11
119.7999999999999
 21
108.884425952977
 31
0.0
  0
LINE
  5
825
330
1E
100
AcDbEntity
  8
0
100
AcDbLine
 10
108.8729999999999
 20
102.475925952977
 30
0.0
 11
109.789
 21
108.884425952977
 31
0.0
  0
LINE
  5
829
330
1E
100
AcDbEntity
  8
0
100
AcDbLine
 10
102.2999999999999
 20
138.9844259529769
 30
0.0
 11
109.5999999999999
 21
133.484425952977
 31
0.0
  0
LINE
  5
831
330
1E
100
AcDbEntity
  8
0
100
AcDbLine
 10
102.5349999999999
 20
126.419425952977
 30
0.0
 11
106.4789999999999
 21
121.208325952977
 31
0.0
  0
LINE
  5
832
330
1E
100
AcDbEntity
  8
0
100
AcDbLine
 10
118.5
 20
117.884425952977
 30
0.0
 11
119.7999999999999
 21
108.884425952977
 31
0.0
  0
LINE
  5
834
330
1E
100
AcDbEntity
  8
0
100
AcDbLine
 10
109.5999999999999
 20
133.484425952977
 30
0.0
 11
115.1
 21
126.184425952977
 31
0.0
  0
LINE
  5
835
330
1E
100
AcDbEntity
  8
0
100
AcDbLine
 10
115.1
 20
126.184425952977
 30
0.0
 11
118.5
 21
117.884425952977
 31
0.0
  0
LINE
  5
83B
330
1E
100
AcDbEntity
  8
0
100
AcDbLine
 10
106.4789999999999
 20
121.208325952977
 30
0.0
 11
108.8729999999999
 21
115.292925952977
 31
0.0
  0
LINE
  5
83C
330
1E
100
AcDbEntity
  8
0
100
AcDbLine
 10
108.8729999999999
 20
115.292925952977
 30
0.0
 11
109.789
 21
108.884425952977
 31
0.0
  0
LINE
  5
83E
330
1E
100
AcDbEntity
  8
0
100
AcDbLine
 10
169.259
 20
184.9074259529769
 30
0.0
 11
169.6999999999999
 21
181.8844259529769
 31
0.0
  0
LINE
  5
83F
330
1E
100
AcDbEntity
  8
0
100
AcDbLine
 10
169.6999999999999
 20
181.8844259529769
 30
0.0
 11
169.6999999999999
 21
108.884425952977
 31
0.0
  0
LINE
  5
840
330
1E
100
AcDbEntity
  8
0
100
AcDbLine
 10
166.3
 20
190.1844259529769
 30
0.0
 11
168.1409999999999
 21
187.7254259529769
 31
0.0
  0
LINE
  5
841
330
1E
100
AcDbEntity
  8
0
100
AcDbLine
 10
168.1409999999999
 20
187.7254259529769
 30
0.0
 11
169.259
 21
184.9074259529769
 31
0.0
  0
LINE
  5
842
330
1E
100
AcDbEntity
  8
0
100
AcDbLine
 10
158.0
 20
193.5844259529769
 30
0.0
 11
161.023
 21
193.1434259529769
 31
0.0
  0
LINE
  5
843
330
1E
100
AcDbEntity
  8
0
100
AcDbLine
 10
163.8409999999999
 20
192.025425952977
 30
0.0
 11
166.3
 21
190.1844259529769
 31
0.0
  0
LINE
  5
844
330
1E
100
AcDbEntity
  8
0
100
AcDbLine
 10
161.023
 20
193.1434259529769
 30
0.0
 11
163.8409999999999
 21
192.025425952977
 31
0.0
  0
LINE
  5
845
330
1E
100
AcDbEntity
  8
0
100
AcDbLine
 10
164.0
 20
192.2844259529769
 30
0.0
 11
166.5
 21
190.3844259529769
 31
0.0
  0
LINE
  5
846
330
1E
100
AcDbEntity
  8
0
100
AcDbLine
 10
161.0999999999999
 20
193.4844259529769
 30
0.0
 11
164.0
 21
192.2844259529769
 31
0.0
  0
LINE
  5
847
330
1E
100
AcDbEntity
  8
0
100
AcDbLine
 10
158.0
 20
193.8844259529769
 30
0.0
 11
161.0999999999999
 21
193.4844259529769
 31
0.0
  0
LINE
  5
848
330
1E
100
AcDbEntity
  8
0
100
AcDbLine
 10
166.5
 20
190.3844259529769
 30
0.0
 11
168.4
 21
187.8844259529769
 31
0.0
  0
LINE
  5
849
330
1E
100
AcDbEntity
  8
0
100
AcDbLine
 10
168.4
 20
187.8844259529769
 30
0.0
 11
169.5999999999999
 21
184.9844259529769
 31
0.0
  0
LINE
  5
84A
330
1E
100
AcDbEntity
  8
0
100
AcDbLine
 10
169.5999999999999
 20
184.9844259529769
 30
0.0
 11
170.0
 21
181.8844259529769
 31
0.0
  0
LINE
  5
84B
330
1E
100
AcDbEntity
  8
0
100
AcDbLine
 10
170.0
 20
181.8844259529769
 30
0.0
 11
170.0
 21
108.884425952977
 31
0.0
  0
LINE
  5
84C
330
1E
100
AcDbEntity
  8
0
100
AcDbLine
 10
169.6999999999999
 20
108.884425952977
 30
0.0
 11
169.6999999999999
 21
35.88442595297729
 31
0.0
  0
LINE
  5
84D
330
1E
100
AcDbEntity
  8
0
100
AcDbLine
 10
169.6999999999999
 20
108.884425952977
 30
0.0
 11
169.6999999999999
 21
181.8844259529769
 31
0.0
  0
LINE
  5
84E
330
1E
100
AcDbEntity
  8
0
100
AcDbLine
 10
170.0
 20
108.884425952977
 30
0.0
 11
170.0
 21
35.88442595297729
 31
0.0
  0
LINE
  5
84F
330
1E
100
AcDbEntity
  8
0
100
AcDbLine
 10
170.0
 20
108.884425952977
 30
0.0
 11
170.0
 21
181.8844259529769
 31
0.0
  0
LINE
  5
850
330
1E
100
AcDbEntity
  8
0
100
AcDbLine
 10
105.9
 20
60.4941019184307
 30
0.0
 11
114.5999999999999
 21
57.6203119933643
 31
0.0
  0
LINE
  5
851
330
1E
100
AcDbEntity
  8
0
100
AcDbLine
 10
99.1
 20
47.11758306254889
 30
0.0
 11
112.2999999999999
 21
44.8354557691138
 31
0.0
  0
LINE
  5
852
330
1E
100
AcDbEntity
  8
0
100
AcDbLine
 10
99.1
 20
46.755059556729
 30
0.0
 11
112.2999999999999
 21
44.4729322632939
 31
0.0
  0
LINE
  5
853
330
1E
100
AcDbEntity
  8
0
100
AcDbLine
 10
85.0
 20
47.6002918876309
 30
0.0
 11
99.1
 21
46.755059556729
 31
0.0
  0
LINE
  5
854
330
1E
100
AcDbEntity
  8
0
100
AcDbLine
 10
85.0
 20
46.6033522466262
 30
0.0
 11
99.1
 21
45.7581199157244
 31
0.0
  0
LINE
  5
855
330
1E
100
AcDbEntity
  8
0
100
AcDbLine
 10
74.2
 20
62.2268281967796
 30
0.0
 11
85.0
 21
62.860752444956
 31
0.0
  0
LINE
  5
856
330
1E
100
AcDbEntity
  8
0
100
AcDbLine
 10
72.40000000000001
 20
43.30694615610889
 30
0.0
 11
85.0
 21
44.0676552539206
 31
0.0
  0
LINE
  5
857
330
1E
100
AcDbEntity
  8
0
100
AcDbLine
 10
70.9
 20
0.9608063779244721
 30
0.0
 11
85.0
 21
0.115574047022587
 31
0.0
  0
LINE
  5
85C
330
1E
100
AcDbEntity
  8
0
100
AcDbLine
 10
3.5
 20
27.3844259529772
 30
0.0
 11
6.0
 21
25.4844259529773
 31
0.0
  0
LINE
  5
85D
330
1E
100
AcDbEntity
  8
0
100
AcDbLine
 10
8.9
 20
24.2844259529773
 30
0.0
 11
12.0
 21
23.8844259529773
 31
0.0
  0
LINE
  5
85E
330
1E
100
AcDbEntity
  8
0
100
AcDbLine
 10
158.0
 20
23.8844259529773
 30
0.0
 11
161.0999999999999
 21
24.2844259529773
 31
0.0
  0
LINE
  5
85F
330
1E
100
AcDbEntity
  8
0
100
AcDbLine
 10
164.0
 20
25.4844259529773
 30
0.0
 11
166.4838797222648
 21
27.30463919848307
 31
0.0
  0
LINE
  5
860
330
1E
100
AcDbEntity
  8
0
100
AcDbLine
 10
166.4838797222648
 20
27.30463919848307
 30
0.0
 11
168.4
 21
29.8844259529773
 31
0.0
  0
LINE
  5
861
330
1E
100
AcDbEntity
  8
0
100
AcDbLine
 10
169.5999999999999
 20
32.7844259529773
 30
0.0
 11
170.0
 21
35.88442595297729
 31
0.0
  0
LINE
  5
862
330
1E
100
AcDbEntity
  8
0
100
AcDbLine
 10
74.0
 20
71.10355183054271
 30
0.0
 11
96.0
 21
71.10355183054271
 31
0.0
  0
ENDSEC
  0
SECTION
  2
OBJECTS
  0
DICTIONARY
  5
C
330
0
100
AcDbDictionary
281
     1
  3
ACAD_GROUP
350
D
  3
ACAD_LAYOUT
350
19
  3
ACAD_MLINESTYLE
350
16
  3
ACAD_PLOTSETTINGS
350
18
  3
ACAD_PLOTSTYLENAME
350
E
  3
AcDbVariableDictionary
350
863
  0
DICTIONARY
  5
D
102
{ACAD_REACTORS
330
C
102
}
330
C
100
AcDbDictionary
281
     1
  0
DICTIONARY
  5
19
102
{ACAD_REACTORS
330
C
102
}
330
C
100
AcDbDictionary
281
     1
  3
Layout1
350
1D
  3
Model
350
21
  0
DICTIONARY
  5
16
102
{ACAD_REACTORS
330
C
102
}
330
C
100
AcDbDictionary
281
     1
  3
Standard
350
17
  0
DICTIONARY
  5
18
102
{ACAD_REACTORS
330
C
102
}
330
C
100
AcDbDictionary
281
     1
  0
ACDBDICTIONARYWDFLT
  5
E
102
{ACAD_REACTORS
330
C
102
}
330
C
100
AcDbDictionary
281
     1
  3
Normal
350
F
100
AcDbDictionaryWithDefault
340
F
  0
DICTIONARY
  5
863
102
{ACAD_REACTORS
330
C
102
}
330
C
100
AcDbDictionary
281
     1
  3
DIMASSOC
350
864
  0
LAYOUT
  5
1D
102
{ACAD_REACTORS
330
19
102
}
330
19
100
AcDbPlotSettings
  1

  2
hp deskjet 980c series
  4

  6

 40
0.0
 41
0.0
 42
0.0
 43
0.0
 44
0.0
 45
0.0
 46
0.0
 47
0.0
 48
0.0
 49
0.0
140
0.0
141
0.0
142
1.0
143
1.0
 70
   688
 72
     0
 73
     0
 74
     5
  7

 75
    16
147
1.0
148
0.0
149
0.0
100
AcDbLayout
  1
Layout1
 70
     1
 71
     1
 10
0.0
 20
0.0
 11
12.0
 21
9.0
 12
0.0
 22
0.0
 32
0.0
 14
1.000000000000000E+20
 24
1.000000000000000E+20
 34
1.000000000000000E+20
 15
-1.000000000000000E+20
 25
-1.000000000000000E+20
 35
-1.000000000000000E+20
146
0.0
 13
0.0
 23
0.0
 33
0.0
 16
1.0
 26
0.0
 36
0.0
 17
0.0
 27
1.0
 37
0.0
 76
     0
330
1A
  0
LAYOUT
  5
21
102
{ACAD_REACTORS
330
19
102
}
330
19
100
AcDbPlotSettings
  1

  2
hp deskjet 980c series
  4

  6

 40
0.0
 41
0.0
 42
0.0
 43
0.0
 44
0.0
 45
0.0
 46
0.0
 47
0.0
 48
0.0
 49
0.0
140
0.0
141
0.0
142
1.0
143
1.0
 70
  1712
 72
     0
 73
     0
 74
     0
  7

 75
     0
147
1.0
148
0.0
149
0.0
100
AcDbLayout
  1
Model
 70
     1
 71
     0
 10
0.0
 20
0.0
 11
12.0
 21
9.0
 12
0.0
 22
0.0
 32
0.0
 14
0.0
 24
0.0
 34
0.0
 15
0.0
 25
0.0
 35
0.0
146
0.0
 13
0.0
 23
0.0
 33
0.0
 16
1.0
 26
0.0
 36
0.0
 17
0.0
 27
1.0
 37
0.0
 76
     0
330
1E
  0
MLINESTYLE
  5
17
102
{ACAD_REACTORS
330
16
102
}
330
16
100
AcDbMlineStyle
  2
STANDARD
 70
     0
  3

 62
   256
 51
90.0
 52
90.0
 71
     2
 49
0.5
 62
   256
  6
BYLAYER
 49
-0.5
 62
   256
  6
BYLAYER
  0
ACDBPLACEHOLDER
  5
F
102
{ACAD_REACTORS
330
E
102
}
330
E
  0
DICTIONARYVAR
  5
864
102
{ACAD_REACTORS
330
863
102
}
330
863
100
DictionaryVariables
280
     0
  1
1
  0
ENDSEC
  0
EOF
