  0
SECTION
  2
HEADER
  9
$ACADVER
  1
AC1014
  9
$ACADMAINTVER
 70
     9
  9
$DWGCODEPAGE
  3
ANSI_1252
  9
$INSBASE
 10
0.0
 20
0.0
 30
0.0
  9
$EXTMIN
 10
0.0943780000000026
 20
-0.0000000000000579
 30
0.0
  9
$EXTMAX
 10
299.9056219999999
 20
884.0
 30
0.0
  9
$LIMMIN
 10
0.0
 20
0.0
  9
$LIMMAX
 10
12.0
 20
9.0
  9
$ORTHOMODE
 70
     0
  9
$REGENMODE
 70
     1
  9
$FILLMODE
 70
     1
  9
$QTEXTMODE
 70
     0
  9
$MIRRTEXT
 70
     1
  9
$DRAGMODE
 70
     2
  9
$LTSCALE
 40
1.0
  9
$OSMODE
 70
    37
  9
$ATTMODE
 70
     1
  9
$TEXTSIZE
 40
0.2
  9
$TRACEWID
 40
0.05
  9
$TEXTSTYLE
  7
STANDARD
  9
$CLAYER
  8
0
  9
$CELTYPE
  6
CONTINUOUS
  9
$CECOLOR
 62
   256
  9
$CELTSCALE
 40
1.0
  9
$DELOBJ
 70
     1
  9
$DISPSILH
 70
     0
  9
$DIMSCALE
 40
1.0
  9
$DIMASZ
 40
0.18
  9
$DIMEXO
 40
0.0625
  9
$DIMDLI
 40
0.38
  9
$DIMRND
 40
0.0
  9
$DIMDLE
 40
0.0
  9
$DIMEXE
 40
0.18
  9
$DIMTP
 40
0.0
  9
$DIMTM
 40
0.0
  9
$DIMTXT
 40
0.18
  9
$DIMCEN
 40
0.09
  9
$DIMTSZ
 40
0.0
  9
$DIMTOL
 70
     0
  9
$DIMLIM
 70
     0
  9
$DIMTIH
 70
     1
  9
$DIMTOH
 70
     1
  9
$DIMSE1
 70
     0
  9
$DIMSE2
 70
     0
  9
$DIMTAD
 70
     0
  9
$DIMZIN
 70
     0
  9
$DIMBLK
  1

  9
$DIMASO
 70
     1
  9
$DIMSHO
 70
     1
  9
$DIMPOST
  1

  9
$DIMAPOST
  1

  9
$DIMALT
 70
     0
  9
$DIMALTD
 70
     2
  9
$DIMALTF
 40
25.4
  9
$DIMLFAC
 40
1.0
  9
$DIMTOFL
 70
     0
  9
$DIMTVP
 40
0.0
  9
$DIMTIX
 70
     0
  9
$DIMSOXD
 70
     0
  9
$DIMSAH
 70
     0
  9
$DIMBLK1
  1

  9
$DIMBLK2
  1

  9
$DIMSTYLE
  2
STANDARD
  9
$DIMCLRD
 70
     0
  9
$DIMCLRE
 70
     0
  9
$DIMCLRT
 70
     0
  9
$DIMTFAC
 40
1.0
  9
$DIMGAP
 40
0.09
  9
$DIMJUST
 70
     0
  9
$DIMSD1
 70
     0
  9
$DIMSD2
 70
     0
  9
$DIMTOLJ
 70
     1
  9
$DIMTZIN
 70
     0
  9
$DIMALTZ
 70
     0
  9
$DIMALTTZ
 70
     0
  9
$DIMFIT
 70
     3
  9
$DIMUPT
 70
     0
  9
$DIMUNIT
 70
     2
  9
$DIMDEC
 70
     4
  9
$DIMTDEC
 70
     4
  9
$DIMALTU
 70
     2
  9
$DIMALTTD
 70
     2
  9
$DIMTXSTY
  7
STANDARD
  9
$DIMAUNIT
 70
     0
  9
$LUNITS
 70
     2
  9
$LUPREC
 70
     4
  9
$SKETCHINC
 40
0.1
  9
$FILLETRAD
 40
0.0
  9
$AUNITS
 70
     0
  9
$AUPREC
 70
     0
  9
$MENU
  1
.
  9
$ELEVATION
 40
0.0
  9
$PELEVATION
 40
0.0
  9
$THICKNESS
 40
0.0
  9
$LIMCHECK
 70
     0
  9
$BLIPMODE
 70
     0
  9
$CHAMFERA
 40
0.0
  9
$CHAMFERB
 40
0.0
  9
$CHAMFERC
 40
0.0
  9
$CHAMFERD
 40
0.0
  9
$SKPOLY
 70
     0
  9
$TDCREATE
 40
2454638.728198958
  9
$TDUPDATE
 40
2454687.522674328
  9
$TDINDWG
 40
0.0553436111
  9
$TDUSRTIMER
 40
0.0553434375
  9
$USRTIMER
 70
     1
  9
$ANGBASE
 50
0.0
  9
$ANGDIR
 70
     0
  9
$PDMODE
 70
     0
  9
$PDSIZE
 40
0.0
  9
$PLINEWID
 40
0.0
  9
$COORDS
 70
     1
  9
$SPLFRAME
 70
     0
  9
$SPLINETYPE
 70
     6
  9
$SPLINESEGS
 70
     8
  9
$ATTDIA
 70
     0
  9
$ATTREQ
 70
     1
  9
$HANDLING
 70
 22529
  9
$HANDSEED
  5
2EB
  9
$SURFTAB1
 70
     6
  9
$SURFTAB2
 70
     6
  9
$SURFTYPE
 70
     6
  9
$SURFU
 70
     6
  9
$SURFV
 70
     6
  9
$UCSNAME
  2

  9
$UCSORG
 10
0.0
 20
0.0
 30
0.0
  9
$UCSXDIR
 10
1.0
 20
0.0
 30
0.0
  9
$UCSYDIR
 10
0.0
 20
1.0
 30
0.0
  9
$PUCSNAME
  2

  9
$PUCSORG
 10
0.0
 20
0.0
 30
0.0
  9
$PUCSXDIR
 10
1.0
 20
0.0
 30
0.0
  9
$PUCSYDIR
 10
0.0
 20
1.0
 30
0.0
  9
$USERI1
 70
     0
  9
$USERI2
 70
     0
  9
$USERI3
 70
     0
  9
$USERI4
 70
     0
  9
$USERI5
 70
     0
  9
$USERR1
 40
0.0
  9
$USERR2
 40
0.0
  9
$USERR3
 40
0.0
  9
$USERR4
 40
0.0
  9
$USERR5
 40
0.0
  9
$WORLDVIEW
 70
     1
  9
$SHADEDGE
 70
     3
  9
$SHADEDIF
 70
    70
  9
$TILEMODE
 70
     1
  9
$MAXACTVP
 70
    64
  9
$PINSBASE
 10
0.0
 20
0.0
 30
0.0
  9
$PLIMCHECK
 70
     0
  9
$PEXTMIN
 10
1.000000000000000E+20
 20
1.000000000000000E+20
 30
1.000000000000000E+20
  9
$PEXTMAX
 10
-1.000000000000000E+20
 20
-1.000000000000000E+20
 30
-1.000000000000000E+20
  9
$PLIMMIN
 10
0.0
 20
0.0
  9
$PLIMMAX
 10
12.0
 20
9.0
  9
$UNITMODE
 70
     0
  9
$VISRETAIN
 70
     1
  9
$PLINEGEN
 70
     0
  9
$PSLTSCALE
 70
     1
  9
$TREEDEPTH
 70
  3020
  9
$PICKSTYLE
 70
     1
  9
$CMLSTYLE
  2
STANDARD
  9
$CMLJUST
 70
     0
  9
$CMLSCALE
 40
1.0
  9
$PROXYGRAPHICS
 70
     1
  9
$MEASUREMENT
 70
     0
  0
ENDSEC
  0
SECTION
  2
CLASSES
  0
CLASS
  1
ACDBDICTIONARYWDFLT
  2
AcDbDictionaryWithDefault
  3
AutoCAD 2000
 90
        0
280
     0
281
     0
  0
CLASS
  1
ACDBPLACEHOLDER
  2
AcDbPlaceHolder
  3
AutoCAD 2000
 90
        0
280
     0
281
     0
  0
CLASS
  1
LAYOUT
  2
AcDbLayout
  3
AutoCAD 2000
 90
        0
280
     0
281
     0
  0
CLASS
  1
DICTIONARYVAR
  2
AcDbDictionaryVar
  3
AutoCAD 2000
 90
        0
280
     0
281
     0
  0
CLASS
  1
LONG_TRANSACTION
  2
AcDbLongTransaction
  3
AutoCAD 2000
 90
        0
280
     0
281
     0
  0
CLASS
  1
LWPOLYLINE
  2
AcDbPolyline
  3
AutoCAD 2000
 90
        0
280
     0
281
     1
  0
CLASS
  1
HATCH
  2
AcDbHatch
  3
AutoCAD 2000
 90
        0
280
     0
281
     1
  0
CLASS
  1
XRECORD
  2
AcDbXrecord
  3
AutoCAD 2000
 90
        0
280
     0
281
     0
  0
ENDSEC
  0
SECTION
  2
TABLES
  0
TABLE
  2
VPORT
  5
8
330
0
100
AcDbSymbolTable
 70
     2
  0
VPORT
  5
2C6
330
8
100
AcDbSymbolTableRecord
100
AcDbViewportTableRecord
  2
*ACTIVE
 70
     0
 10
0.0
 20
0.0
 11
1.0
 21
1.0
 12
149.9999999999999
 22
442.0
 13
0.0
 23
0.0
 14
1.0
 24
1.0
 15
0.0
 25
0.0
 16
0.0
 26
0.0
 36
1.0
 17
0.0
 27
0.0
 37
0.0
 40
890.7826086956522
 41
2.043533930857874
 42
50.0
 43
0.0
 44
0.0
 50
0.0
 51
0.0
 71
     0
 72
   100
 73
     1
 74
     3
 75
     0
 76
     0
 77
     0
 78
     0
  0
ENDTAB
  0
TABLE
  2
LTYPE
  5
5
330
0
100
AcDbSymbolTable
 70
     1
  0
LTYPE
  5
13
330
5
100
AcDbSymbolTableRecord
100
AcDbLinetypeTableRecord
  2
BYBLOCK
 70
     0
  3

 72
    65
 73
     0
 40
0.0
  0
LTYPE
  5
14
330
5
100
AcDbSymbolTableRecord
100
AcDbLinetypeTableRecord
  2
BYLAYER
 70
     0
  3

 72
    65
 73
     0
 40
0.0
  0
LTYPE
  5
15
330
5
100
AcDbSymbolTableRecord
100
AcDbLinetypeTableRecord
  2
CONTINUOUS
 70
     0
  3
Solid line
 72
    65
 73
     0
 40
0.0
  0
ENDTAB
  0
TABLE
  2
LAYER
  5
2
330
0
100
AcDbSymbolTable
 70
     1
  0
LAYER
  5
10
330
2
100
AcDbSymbolTableRecord
100
AcDbLayerTableRecord
  2
0
 70
     0
 62
     7
  6
CONTINUOUS
  0
ENDTAB
  0
TABLE
  2
STYLE
  5
3
330
0
100
AcDbSymbolTable
 70
     1
  0
STYLE
  5
11
330
3
100
AcDbSymbolTableRecord
100
AcDbTextStyleTableRecord
  2
STANDARD
 70
     0
 40
0.0
 41
1.0
 50
0.0
 71
     0
 42
0.2
  3
txt
  4

  0
ENDTAB
  0
TABLE
  2
VIEW
  5
6
330
0
100
AcDbSymbolTable
 70
     0
  0
ENDTAB
  0
TABLE
  2
UCS
  5
7
330
0
100
AcDbSymbolTable
 70
     0
  0
ENDTAB
  0
TABLE
  2
APPID
  5
9
330
0
100
AcDbSymbolTable
 70
     1
  0
APPID
  5
12
330
9
100
AcDbSymbolTableRecord
100
AcDbRegAppTableRecord
  2
ACAD
 70
     0
  0
ENDTAB
  0
TABLE
  2
DIMSTYLE
  5
A
330
0
100
AcDbSymbolTable
 70
     1
  0
DIMSTYLE
105
2AA
330
A
100
AcDbSymbolTableRecord
100
AcDbDimStyleTableRecord
  2
STANDARD
 70
     0
  3

  4

  5

  6

  7

 40
1.0
 41
0.18
 42
0.0625
 43
0.38
 44
0.18
 45
0.0
 46
0.0
 47
0.0
 48
0.0
140
0.18
141
0.09
142
0.0
143
25.4
144
1.0
145
0.0
146
1.0
147
0.09
 71
     0
 72
     0
 73
     1
 74
     1
 75
     0
 76
     0
 77
     0
 78
     0
170
     0
171
     2
172
     0
173
     0
174
     0
175
     0
176
     0
177
     0
178
     0
270
     2
271
     4
272
     4
273
     2
274
     2
340
11
275
     0
280
     0
281
     0
282
     0
283
     1
284
     0
285
     0
286
     0
287
     3
288
     0
  0
ENDTAB
  0
TABLE
  2
BLOCK_RECORD
  5
1
330
0
100
AcDbSymbolTable
 70
     0
  0
BLOCK_RECORD
  5
1E
102
{ACAD_XDICTIONARY
360
2E9
102
}
330
1
100
AcDbSymbolTableRecord
100
AcDbBlockTableRecord
  2
*MODEL_SPACE
  0
BLOCK_RECORD
  5
1A
102
{ACAD_XDICTIONARY
360
2E7
102
}
330
1
100
AcDbSymbolTableRecord
100
AcDbBlockTableRecord
  2
*PAPER_SPACE
  0
ENDTAB
  0
ENDSEC
  0
SECTION
  2
BLOCKS
  0
BLOCK
  5
1F
330
1E
100
AcDbEntity
  8
0
100
AcDbBlockBegin
  2
*MODEL_SPACE
 70
     0
 10
0.0
 20
0.0
 30
0.0
  3
*MODEL_SPACE
  1

  0
ENDBLK
  5
20
330
1E
100
AcDbEntity
  8
0
100
AcDbBlockEnd
  0
BLOCK
  5
1B
330
1A
100
AcDbEntity
 67
     1
  8
0
100
AcDbBlockBegin
  2
*PAPER_SPACE
 70
     0
 10
0.0
 20
0.0
 30
0.0
  3
*PAPER_SPACE
  1

  0
ENDBLK
  5
1C
330
1A
100
AcDbEntity
 67
     1
  8
0
100
AcDbBlockEnd
  0
ENDSEC
  0
SECTION
  2
ENTITIES
  0
LINE
  5
22
330
1E
100
AcDbEntity
  8
0
100
AcDbLine
 10
99.90562199999999
 20
50.0
 30
0.0
 11
99.90562199999999
 21
-0.0000000000000429
 31
0.0
  0
LINE
  5
23
330
1E
100
AcDbEntity
  8
0
100
AcDbLine
 10
99.90562199999999
 20
50.0
 30
0.0
 11
299.9056219999999
 21
50.0
 31
0.0
  0
LINE
  5
24
330
1E
100
AcDbEntity
  8
0
100
AcDbLine
 10
99.90562199999999
 20
50.0
 30
0.0
 11
149.9056219999999
 21
250.0
 31
0.0
  0
LINE
  5
25
330
1E
100
AcDbEntity
  8
0
100
AcDbLine
 10
144.405622
 20
580.0
 30
0.0
 11
285.405622
 21
580.0
 31
0.0
  0
LINE
  5
26
330
1E
100
AcDbEntity
  8
0
100
AcDbLine
 10
144.405622
 20
580.0
 30
0.0
 11
184.9056219999999
 21
580.0
 31
0.0
  0
LINE
  5
27
330
1E
100
AcDbEntity
  8
0
100
AcDbLine
 10
142.4056219999999
 20
580.0
 30
0.0
 11
142.4056219999999
 21
595.0
 31
0.0
  0
LINE
  5
28
330
1E
100
AcDbEntity
  8
0
100
AcDbLine
 10
142.4056219999999
 20
580.0
 30
0.0
 11
144.405622
 21
580.0
 31
0.0
  0
LINE
  5
29
330
1E
100
AcDbEntity
  8
0
100
AcDbLine
 10
142.4056219999999
 20
580.0
 30
0.0
 11
287.4056219999999
 21
580.0
 31
0.0
  0
LINE
  5
2A
330
1E
100
AcDbEntity
  8
0
100
AcDbLine
 10
142.4056219999999
 20
580.0
 30
0.0
 11
184.9056219999999
 21
580.0
 31
0.0
  0
LINE
  5
2B
330
1E
100
AcDbEntity
  8
0
100
AcDbLine
 10
142.4056219999999
 20
595.0
 30
0.0
 11
287.4056219999999
 21
595.0
 31
0.0
  0
LINE
  5
2C
330
1E
100
AcDbEntity
  8
0
100
AcDbLine
 10
142.4056219999999
 20
595.0
 30
0.0
 11
142.4056219999999
 21
580.0
 31
0.0
  0
LINE
  5
2D
330
1E
100
AcDbEntity
  8
0
100
AcDbLine
 10
149.9056219999999
 20
550.0
 30
0.0
 11
249.905622
 21
550.0
 31
0.0
  0
LINE
  5
2E
330
1E
100
AcDbEntity
  8
0
100
AcDbLine
 10
149.9056219999999
 20
450.0
 30
0.0
 11
149.9056219999999
 21
250.0
 31
0.0
  0
LINE
  5
2F
330
1E
100
AcDbEntity
  8
0
100
AcDbLine
 10
149.9056219999999
 20
250.0
 30
0.0
 11
149.9056219999999
 21
450.0
 31
0.0
  0
LINE
  5
30
330
1E
100
AcDbEntity
  8
0
100
AcDbLine
 10
149.9056219999999
 20
250.0
 30
0.0
 11
149.9056219999999
 21
550.0
 31
0.0
  0
LINE
  5
31
330
1E
100
AcDbEntity
  8
0
100
AcDbLine
 10
149.9056219999999
 20
250.0
 30
0.0
 11
249.905622
 21
250.0
 31
0.0
  0
LINE
  5
32
330
1E
100
AcDbEntity
  8
0
100
AcDbLine
 10
99.90562199999999
 20
-0.0000000000000456
 30
0.0
 11
299.9056219999999
 21
-0.0000000000000579
 31
0.0
  0
LINE
  5
33
330
1E
100
AcDbEntity
  8
0
100
AcDbLine
 10
99.90562199999999
 20
-0.0000000000000456
 30
0.0
 11
287.4056219999999
 21
-0.0000000000000571
 31
0.0
  0
LINE
  5
34
330
1E
100
AcDbEntity
  8
0
100
AcDbLine
 10
99.90562199999999
 20
-0.0000000000000456
 30
0.0
 11
99.90562199999999
 21
50.0
 31
0.0
  0
LINE
  5
35
330
1E
100
AcDbEntity
  8
0
100
AcDbLine
 10
23.299522
 20
742.837
 30
0.0
 11
29.22092199999999
 21
738.9730000000001
 31
0.0
  0
LINE
  5
36
330
1E
100
AcDbEntity
  8
0
100
AcDbLine
 10
18.70692199999998
 20
747.1849999999998
 30
0.0
 11
23.299522
 21
742.837
 31
0.0
  0
LINE
  5
37
330
1E
100
AcDbEntity
  8
0
100
AcDbLine
 10
21.513522
 20
754.1519999999998
 30
0.0
 11
29.127022
 21
750.6019999999998
 31
0.0
  0
LINE
  5
38
330
1E
100
AcDbEntity
  8
0
100
AcDbLine
 10
13.630722
 20
752.862
 30
0.0
 11
18.70692199999998
 21
747.1849999999998
 31
0.0
  0
LINE
  5
39
330
1E
100
AcDbEntity
  8
0
100
AcDbLine
 10
28.37082199999999
 20
752.057
 30
0.0
 11
37.70642199999999
 21
747.705
 31
0.0
  0
LINE
  5
3A
330
1E
100
AcDbEntity
  8
0
100
AcDbLine
 10
9.278971999999999
 20
759.8569999999998
 30
0.0
 11
14.897822
 21
757.2369999999998
 31
0.0
  0
LINE
  5
3B
330
1E
100
AcDbEntity
  8
0
100
AcDbLine
 10
10.0949883622675
 20
759.476501700679
 30
0.0
 11
13.630722
 21
752.862
 31
0.0
  0
LINE
  5
3C
330
1E
100
AcDbEntity
  8
0
100
AcDbLine
 10
12.14792199999999
 20
759.623
 30
0.0
 11
19.670922
 21
756.115
 31
0.0
  0
LINE
  5
3D
330
1E
100
AcDbEntity
  8
0
100
AcDbLine
 10
9.490261999999999
 20
760.3099999999998
 30
0.0
 11
9.994989544907561
 21
760.074652230585
 31
0.0
  0
LINE
  5
3E
330
1E
100
AcDbEntity
  8
0
100
AcDbLine
 10
17.62855984728969
 20
755.9636160407989
 30
0.0
 11
18.069322
 21
755.758
 31
0.0
  0
LINE
  5
3F
330
1E
100
AcDbEntity
  8
0
100
AcDbLine
 10
18.069322
 20
755.758
 30
0.0
 11
18.6237535669723
 21
755.4995423032919
 31
0.0
  0
LINE
  5
40
330
1E
100
AcDbEntity
  8
0
100
AcDbLine
 10
18.069322
 20
755.758
 30
0.0
 11
18.6237535669723
 21
755.4995423032919
 31
0.0
  0
LINE
  5
41
330
1E
100
AcDbEntity
  8
0
100
AcDbLine
 10
14.897822
 20
757.2369999999998
 30
0.0
 11
21.513522
 21
754.1519999999998
 31
0.0
  0
LINE
  5
42
330
1E
100
AcDbEntity
  8
0
100
AcDbLine
 10
19.670922
 20
756.115
 30
0.0
 11
28.37082199999999
 21
752.057
 31
0.0
  0
LINE
  5
43
330
1E
100
AcDbEntity
  8
0
100
AcDbLine
 10
12.571322
 20
758.873
 30
0.0
 11
19.912222
 21
755.45
 31
0.0
  0
LINE
  5
44
330
1E
100
AcDbEntity
  8
0
100
AcDbLine
 10
19.912222
 20
755.45
 30
0.0
 11
28.43202199999998
 21
751.478
 31
0.0
  0
LINE
  5
45
330
1E
100
AcDbEntity
  8
0
100
AcDbLine
 10
29.22092199999999
 20
738.9730000000001
 30
0.0
 11
29.31152199999999
 21
738.9299999999998
 31
0.0
  0
LINE
  5
46
330
1E
100
AcDbEntity
  8
0
100
AcDbLine
 10
29.31152199999999
 20
738.9299999999998
 30
0.0
 11
31.03352199999999
 21
738.128
 31
0.0
  0
LINE
  5
47
330
1E
100
AcDbEntity
  8
0
100
AcDbLine
 10
31.03352199999999
 20
738.128
 30
0.0
 11
31.93982199999998
 21
737.705
 31
0.0
  0
LINE
  5
48
330
1E
100
AcDbEntity
  8
0
100
AcDbLine
 10
36.017722
 20
735.803
 30
0.0
 11
36.38082199999999
 21
735.6339999999999
 31
0.0
  0
LINE
  5
49
330
1E
100
AcDbEntity
  8
0
100
AcDbLine
 10
36.471322
 20
735.592
 30
0.0
 11
43.23812199999998
 21
733.5399999999999
 31
0.0
  0
LINE
  5
4A
330
1E
100
AcDbEntity
  8
0
100
AcDbLine
 10
36.38082199999999
 20
735.6339999999999
 30
0.0
 11
36.471322
 21
735.592
 31
0.0
  0
LINE
  5
4B
330
1E
100
AcDbEntity
  8
0
100
AcDbLine
 10
35.38402199999998
 20
736.098
 30
0.0
 11
36.017722
 21
735.803
 31
0.0
  0
LINE
  5
4C
330
1E
100
AcDbEntity
  8
0
100
AcDbLine
 10
32.84612199999998
 20
737.283
 30
0.0
 11
35.38402199999998
 21
736.098
 31
0.0
  0
LINE
  5
4D
330
1E
100
AcDbEntity
  8
0
100
AcDbLine
 10
43.23812199999998
 20
733.5399999999999
 30
0.0
 11
49.521122
 21
732.817
 31
0.0
  0
LINE
  5
4E
330
1E
100
AcDbEntity
  8
0
100
AcDbLine
 10
53.05302199999999
 20
739.445
 30
0.0
 11
59.669722
 21
736.3599999999999
 31
0.0
  0
LINE
  5
4F
330
1E
100
AcDbEntity
  8
0
100
AcDbLine
 10
49.521122
 20
732.817
 30
0.0
 11
57.133122
 21
732.577
 31
0.0
  0
LINE
  5
50
330
1E
100
AcDbEntity
  8
0
100
AcDbLine
 10
45.44052199999998
 20
742.9949999999998
 30
0.0
 11
47.9110446509483
 21
741.8429007670448
 31
0.0
  0
LINE
  5
51
330
1E
100
AcDbEntity
  8
0
100
AcDbLine
 10
45.44052199999998
 20
742.9949999999998
 30
0.0
 11
53.05302199999999
 21
739.445
 31
0.0
  0
LINE
  5
52
330
1E
100
AcDbEntity
  8
0
100
AcDbLine
 10
31.93982199999998
 20
737.705
 30
0.0
 11
32.84612199999998
 21
737.283
 31
0.0
  0
LINE
  5
53
330
1E
100
AcDbEntity
  8
0
100
AcDbLine
 10
47.041022
 20
743.3519999999998
 30
0.0
 11
55.74192199999998
 21
739.2949999999999
 31
0.0
  0
LINE
  5
54
330
1E
100
AcDbEntity
  8
0
100
AcDbLine
 10
56.49712199999999
 20
737.8389999999998
 30
0.0
 11
60.847622
 21
735.8099999999998
 31
0.0
  0
LINE
  5
55
330
1E
100
AcDbEntity
  8
0
100
AcDbLine
 10
60.847622
 20
735.8099999999998
 30
0.0
 11
63.475922
 21
734.585
 31
0.0
  0
LINE
  5
56
330
1E
100
AcDbEntity
  8
0
100
AcDbLine
 10
59.669722
 20
736.3599999999999
 30
0.0
 11
65.288522
 21
733.74
 31
0.0
  0
LINE
  5
57
330
1E
100
AcDbEntity
  8
0
100
AcDbLine
 10
57.133122
 20
732.577
 30
0.0
 11
64.472822
 21
734.1189999999998
 31
0.0
  0
LINE
  5
58
330
1E
100
AcDbEntity
  8
0
100
AcDbLine
 10
55.3408443750344
 20
738.378315394837
 30
0.0
 11
59.669722
 21
736.3599999999999
 31
0.0
  0
LINE
  5
59
330
1E
100
AcDbEntity
  8
0
100
AcDbLine
 10
55.3408443750344
 20
738.378315394837
 30
0.0
 11
56.49712199999999
 21
737.8389999999998
 31
0.0
  0
LINE
  5
5A
330
1E
100
AcDbEntity
  8
0
100
AcDbLine
 10
55.74192199999998
 20
739.2949999999999
 30
0.0
 11
63.263822
 21
735.7869999999998
 31
0.0
  0
LINE
  5
5B
330
1E
100
AcDbEntity
  8
0
100
AcDbLine
 10
55.076922
 20
739.052
 30
0.0
 11
62.41782199999999
 21
735.63
 31
0.0
  0
LINE
  5
5C
330
1E
100
AcDbEntity
  8
0
100
AcDbLine
 10
45.65182199999998
 20
743.4479999999998
 30
0.0
 11
50.58878789228189
 21
741.1457039188701
 31
0.0
  0
LINE
  5
5D
330
1E
100
AcDbEntity
  8
0
100
AcDbLine
 10
69.004322
 20
732.006
 30
0.0
 11
69.2156047896749
 21
732.459963021829
 31
0.0
  0
LINE
  5
5E
330
1E
100
AcDbEntity
  8
0
100
AcDbLine
 10
67.82642199999999
 20
732.556
 30
0.0
 11
69.004322
 21
732.006
 31
0.0
  0
LINE
  5
5F
330
1E
100
AcDbEntity
  8
0
100
AcDbLine
 10
72.690022
 20
731.391
 30
0.0
 11
73.958422
 21
730.7999999999998
 31
0.0
  0
LINE
  5
60
330
1E
100
AcDbEntity
  8
0
100
AcDbLine
 10
65.288522
 20
733.74
 30
0.0
 11
67.82642199999999
 21
732.556
 31
0.0
  0
LINE
  5
61
330
1E
100
AcDbEntity
  8
0
100
AcDbLine
 10
69.06482199999999
 20
733.082
 30
0.0
 11
72.690022
 21
731.391
 31
0.0
  0
LINE
  5
62
330
1E
100
AcDbEntity
  8
0
100
AcDbLine
 10
68.037722
 20
733.0089999999999
 30
0.0
 11
72.840822
 21
730.7689999999999
 31
0.0
  0
LINE
  5
63
330
1E
100
AcDbEntity
  8
0
100
AcDbLine
 10
95.87882200000001
 20
724.4089999999999
 30
0.0
 11
96.87432200000001
 21
725.2439999999998
 31
0.0
  0
LINE
  5
64
330
1E
100
AcDbEntity
  8
0
100
AcDbLine
 10
98.39102200000001
 20
727.17
 30
0.0
 11
100.382622
 21
728.84
 31
0.0
  0
LINE
  5
65
330
1E
100
AcDbEntity
  8
0
100
AcDbLine
 10
96.85892200000001
 20
725.8839999999999
 30
0.0
 11
98.39102200000001
 21
727.17
 31
0.0
  0
LINE
  5
66
330
1E
100
AcDbEntity
  8
0
100
AcDbLine
 10
102.680622
 20
730.7689999999999
 30
0.0
 11
105.1326219999999
 21
732.826
 31
0.0
  0
LINE
  5
67
330
1E
100
AcDbEntity
  8
0
100
AcDbLine
 10
100.382622
 20
728.84
 30
0.0
 11
102.680622
 21
730.7689999999999
 31
0.0
  0
LINE
  5
68
330
1E
100
AcDbEntity
  8
0
100
AcDbLine
 10
102.925622
 20
730.322
 30
0.0
 11
105.4546219999999
 21
732.4429999999998
 31
0.0
  0
LINE
  5
69
330
1E
100
AcDbEntity
  8
0
100
AcDbLine
 10
100.4746219999999
 20
728.265
 30
0.0
 11
102.925622
 21
730.322
 31
0.0
  0
LINE
  5
6A
330
1E
100
AcDbEntity
  8
0
100
AcDbLine
 10
98.483222
 20
726.5939999999998
 30
0.0
 11
100.4746219999999
 21
728.265
 31
0.0
  0
LINE
  5
6B
330
1E
100
AcDbEntity
  8
0
100
AcDbLine
 10
96.87432200000001
 20
725.2439999999998
 30
0.0
 11
98.483222
 21
726.5939999999998
 31
0.0
  0
LINE
  5
6C
330
1E
100
AcDbEntity
  8
0
100
AcDbLine
 10
95.94032199999999
 20
725.112
 30
0.0
 11
96.7059511978555
 21
725.755441912415
 31
0.0
  0
LINE
  5
6D
330
1E
100
AcDbEntity
  8
0
100
AcDbLine
 10
95.94032199999999
 20
725.112
 30
0.0
 11
96.85892200000001
 21
725.8839999999999
 31
0.0
  0
LINE
  5
6E
330
1E
100
AcDbEntity
  8
0
100
AcDbLine
 10
95.55732199999999
 20
724.7919999999997
 30
0.0
 11
95.94032199999999
 21
725.112
 31
0.0
  0
LINE
  5
6F
330
1E
100
AcDbEntity
  8
0
100
AcDbLine
 10
95.49582200000001
 20
724.087
 30
0.0
 11
178.414622
 21
625.2669999999998
 31
0.0
  0
LINE
  5
70
330
1E
100
AcDbEntity
  8
0
100
AcDbLine
 10
95.49582200000001
 20
724.087
 30
0.0
 11
95.55732199999999
 21
724.7919999999997
 31
0.0
  0
LINE
  5
71
330
1E
100
AcDbEntity
  8
0
100
AcDbLine
 10
95.49582200000001
 20
724.087
 30
0.0
 11
95.87882200000001
 21
724.4089999999999
 31
0.0
  0
LINE
  5
72
330
1E
100
AcDbEntity
  8
0
100
AcDbLine
 10
105.4546219999999
 20
732.4429999999998
 30
0.0
 11
107.981622
 21
734.5639999999998
 31
0.0
  0
LINE
  5
73
330
1E
100
AcDbEntity
  8
0
100
AcDbLine
 10
105.1326219999999
 20
732.826
 30
0.0
 11
107.584622
 21
734.883
 31
0.0
  0
LINE
  5
74
330
1E
100
AcDbEntity
  8
0
100
AcDbLine
 10
105.1326219999999
 20
732.826
 30
0.0
 11
107.2776219999999
 21
734.626
 31
0.0
  0
LINE
  5
75
330
1E
100
AcDbEntity
  8
0
100
AcDbLine
 10
73.958422
 20
730.7999999999998
 30
0.0
 11
79.45262199999998
 21
742.5819999999998
 31
0.0
  0
LINE
  5
76
330
1E
100
AcDbEntity
  8
0
100
AcDbLine
 10
72.840822
 20
730.7689999999999
 30
0.0
 11
73.958422
 21
730.7999999999998
 31
0.0
  0
LINE
  5
77
330
1E
100
AcDbEntity
  8
0
100
AcDbLine
 10
63.475922
 20
734.585
 30
0.0
 11
64.472822
 21
734.1189999999998
 31
0.0
  0
LINE
  5
78
330
1E
100
AcDbEntity
  8
0
100
AcDbLine
 10
107.2776219999999
 20
734.626
 30
0.0
 11
109.3456219999999
 21
736.362
 31
0.0
  0
LINE
  5
79
330
1E
100
AcDbEntity
  8
0
100
AcDbLine
 10
107.584622
 20
734.883
 30
0.0
 11
109.882622
 21
736.812
 31
0.0
  0
LINE
  5
7A
330
1E
100
AcDbEntity
  8
0
100
AcDbLine
 10
109.3456219999999
 20
736.362
 30
0.0
 11
111.1076219999999
 21
737.84
 31
0.0
  0
LINE
  5
7B
330
1E
100
AcDbEntity
  8
0
100
AcDbLine
 10
107.981622
 20
734.5639999999998
 30
0.0
 11
110.4336219999999
 21
736.6210000000002
 31
0.0
  0
LINE
  5
7C
330
1E
100
AcDbEntity
  8
0
100
AcDbLine
 10
111.1076219999999
 20
737.84
 30
0.0
 11
112.203591230769
 21
738.7591999999998
 31
0.0
  0
LINE
  5
7D
330
1E
100
AcDbEntity
  8
0
100
AcDbLine
 10
109.882622
 20
736.812
 30
0.0
 11
111.8736219999999
 21
738.4819999999998
 31
0.0
  0
LINE
  5
7E
330
1E
100
AcDbEntity
  8
0
100
AcDbLine
 10
111.8736219999999
 20
738.4819999999998
 30
0.0
 11
113.4056219999999
 21
739.7689999999997
 31
0.0
  0
LINE
  5
7F
330
1E
100
AcDbEntity
  8
0
100
AcDbLine
 10
110.4336219999999
 20
736.6210000000002
 30
0.0
 11
112.425622
 21
738.2919999999998
 31
0.0
  0
LINE
  5
80
330
1E
100
AcDbEntity
  8
0
100
AcDbLine
 10
112.425622
 20
738.2919999999998
 30
0.0
 11
114.034622
 21
739.6419999999998
 31
0.0
  0
LINE
  5
81
330
1E
100
AcDbEntity
  8
0
100
AcDbLine
 10
113.4056219999999
 20
739.7689999999997
 30
0.0
 11
114.3246219999999
 21
740.5389999999998
 31
0.0
  0
LINE
  5
82
330
1E
100
AcDbEntity
  8
0
100
AcDbLine
 10
114.3246219999999
 20
740.5389999999998
 30
0.0
 11
114.7076219999999
 21
740.8610000000001
 31
0.0
  0
LINE
  5
83
330
1E
100
AcDbEntity
  8
0
100
AcDbLine
 10
114.034622
 20
739.6419999999998
 30
0.0
 11
115.0296219999999
 21
740.478
 31
0.0
  0
LINE
  5
84
330
1E
100
AcDbEntity
  8
0
100
AcDbLine
 10
115.0296219999999
 20
740.478
 30
0.0
 11
115.4126219999999
 21
740.7989999999998
 31
0.0
  0
LINE
  5
85
330
1E
100
AcDbEntity
  8
0
100
AcDbLine
 10
114.7076219999999
 20
740.8610000000001
 30
0.0
 11
115.4126219999999
 21
740.7989999999998
 31
0.0
  0
LINE
  5
86
330
1E
100
AcDbEntity
  8
0
100
AcDbLine
 10
115.4126219999999
 20
740.7989999999998
 30
0.0
 11
198.331622
 21
641.9795
 31
0.0
  0
LINE
  5
87
330
1E
100
AcDbEntity
  8
0
100
AcDbLine
 10
78.183222
 20
743.1729999999999
 30
0.0
 11
79.45262199999998
 21
742.5819999999998
 31
0.0
  0
LINE
  5
88
330
1E
100
AcDbEntity
  8
0
100
AcDbLine
 10
63.263822
 20
735.7869999999998
 30
0.0
 11
69.06482199999999
 21
733.082
 31
0.0
  0
LINE
  5
89
330
1E
100
AcDbEntity
  8
0
100
AcDbLine
 10
65.499922
 20
734.192
 30
0.0
 11
68.037722
 21
733.0089999999999
 31
0.0
  0
LINE
  5
8A
330
1E
100
AcDbEntity
  8
0
100
AcDbLine
 10
61.3744722136527
 20
736.1163631119998
 30
0.0
 11
62.41782199999999
 21
735.63
 31
0.0
  0
LINE
  5
8B
330
1E
100
AcDbEntity
  8
0
100
AcDbLine
 10
61.3744722136527
 20
736.1163631119998
 30
0.0
 11
65.499922
 21
734.192
 31
0.0
  0
LINE
  5
8C
330
1E
100
AcDbEntity
  8
0
100
AcDbLine
 10
44.26162199999999
 20
743.5439999999998
 30
0.0
 11
47.9110446509483
 21
741.8429007670448
 31
0.0
  0
LINE
  5
8D
330
1E
100
AcDbEntity
  8
0
100
AcDbLine
 10
37.28372199999999
 20
746.7979999999998
 30
0.0
 11
45.44052199999998
 21
742.9949999999998
 31
0.0
  0
LINE
  5
8E
330
1E
100
AcDbEntity
  8
0
100
AcDbLine
 10
37.28372199999999
 20
746.7979999999998
 30
0.0
 11
44.26162199999999
 21
743.5439999999998
 31
0.0
  0
LINE
  5
8F
330
1E
100
AcDbEntity
  8
0
100
AcDbLine
 10
74.256422
 20
746.108
 30
0.0
 11
77.699522
 21
744.5019999999998
 31
0.0
  0
LINE
  5
90
330
1E
100
AcDbEntity
  8
0
100
AcDbLine
 10
74.045022
 20
745.655
 30
0.0
 11
77.48822199999998
 21
744.05
 31
0.0
  0
LINE
  5
91
330
1E
100
AcDbEntity
  8
0
100
AcDbLine
 10
75.19192199999998
 20
746.2239999999998
 30
0.0
 11
78.81712199999999
 21
744.533
 31
0.0
  0
LINE
  5
92
330
1E
100
AcDbEntity
  8
0
100
AcDbLine
 10
78.81712199999999
 20
744.533
 30
0.0
 11
80.086522
 21
743.941
 31
0.0
  0
LINE
  5
93
330
1E
100
AcDbEntity
  8
0
100
AcDbLine
 10
77.699522
 20
744.5019999999998
 30
0.0
 11
78.96892199999998
 21
743.911
 31
0.0
  0
LINE
  5
94
330
1E
100
AcDbEntity
  8
0
100
AcDbLine
 10
77.48822199999998
 20
744.05
 30
0.0
 11
78.757622
 21
743.4580000000002
 31
0.0
  0
LINE
  5
95
330
1E
100
AcDbEntity
  8
0
100
AcDbLine
 10
74.55802199999998
 20
744.8639999999998
 30
0.0
 11
78.183222
 21
743.1729999999999
 31
0.0
  0
LINE
  5
96
330
1E
100
AcDbEntity
  8
0
100
AcDbLine
 10
29.127022
 20
750.6019999999998
 30
0.0
 11
37.28372199999999
 21
746.7979999999998
 31
0.0
  0
LINE
  5
97
330
1E
100
AcDbEntity
  8
0
100
AcDbLine
 10
52.474822
 20
755.7139999999998
 30
0.0
 11
60.993722
 21
751.741
 31
0.0
  0
LINE
  5
98
330
1E
100
AcDbEntity
  8
0
100
AcDbLine
 10
68.54592199999999
 20
748.771
 30
0.0
 11
74.256422
 21
746.108
 31
0.0
  0
LINE
  5
99
330
1E
100
AcDbEntity
  8
0
100
AcDbLine
 10
68.33462199999999
 20
748.3179999999999
 30
0.0
 11
74.045022
 21
745.655
 31
0.0
  0
LINE
  5
9A
330
1E
100
AcDbEntity
  8
0
100
AcDbLine
 10
69.392022
 20
748.9279999999999
 30
0.0
 11
75.19192199999998
 21
746.2239999999998
 31
0.0
  0
LINE
  5
9B
330
1E
100
AcDbEntity
  8
0
100
AcDbLine
 10
68.75802199999999
 20
747.569
 30
0.0
 11
74.55802199999998
 21
744.8639999999998
 31
0.0
  0
LINE
  5
9C
330
1E
100
AcDbEntity
  8
0
100
AcDbLine
 10
53.16912199999999
 20
756.493
 30
0.0
 11
61.870022
 21
752.436
 31
0.0
  0
LINE
  5
9D
330
1E
100
AcDbEntity
  8
0
100
AcDbLine
 10
52.68622199999999
 20
756.166
 30
0.0
 11
61.205022
 21
752.1939999999998
 31
0.0
  0
LINE
  5
9E
330
1E
100
AcDbEntity
  8
0
100
AcDbLine
 10
61.870022
 20
752.436
 30
0.0
 11
69.392022
 21
748.9279999999999
 31
0.0
  0
LINE
  5
9F
330
1E
100
AcDbEntity
  8
0
100
AcDbLine
 10
61.205022
 20
752.1939999999998
 30
0.0
 11
68.54592199999999
 21
748.771
 31
0.0
  0
LINE
  5
A0
330
1E
100
AcDbEntity
  8
0
100
AcDbLine
 10
60.993722
 20
751.741
 30
0.0
 11
68.33462199999999
 21
748.3179999999999
 31
0.0
  0
LINE
  5
A1
330
1E
100
AcDbEntity
  8
0
100
AcDbLine
 10
61.236022
 20
751.0769999999999
 30
0.0
 11
68.75802199999999
 21
747.569
 31
0.0
  0
LINE
  5
A2
330
1E
100
AcDbEntity
  8
0
100
AcDbLine
 10
52.53512199999999
 20
755.1339999999997
 30
0.0
 11
61.236022
 21
751.0769999999999
 31
0.0
  0
LINE
  5
A3
330
1E
100
AcDbEntity
  8
0
100
AcDbLine
 10
43.623222
 20
760.393
 30
0.0
 11
52.68622199999999
 21
756.166
 31
0.0
  0
LINE
  5
A4
330
1E
100
AcDbEntity
  8
0
100
AcDbLine
 10
43.41182199999999
 20
759.9400000000001
 30
0.0
 11
52.474822
 21
755.7139999999998
 31
0.0
  0
LINE
  5
A5
330
1E
100
AcDbEntity
  8
0
100
AcDbLine
 10
43.200522
 20
759.4860000000001
 30
0.0
 11
52.53512199999999
 21
755.1339999999997
 31
0.0
  0
LINE
  5
A6
330
1E
100
AcDbEntity
  8
0
100
AcDbLine
 10
37.70642199999999
 20
747.705
 30
0.0
 11
47.041022
 21
743.3519999999998
 31
0.0
  0
LINE
  5
A7
330
1E
100
AcDbEntity
  8
0
100
AcDbLine
 10
37.495022
 20
747.2519999999998
 30
0.0
 11
45.65182199999998
 21
743.4479999999998
 31
0.0
  0
LINE
  5
A8
330
1E
100
AcDbEntity
  8
0
100
AcDbLine
 10
80.53064698163341
 20
745.0327515427609
 30
0.0
 11
96.7059511978555
 21
725.755441912415
 31
0.0
  0
LINE
  5
A9
330
1E
100
AcDbEntity
  8
0
100
AcDbLine
 10
80.086522
 20
743.941
 30
0.0
 11
80.57240970417609
 21
744.9829798090928
 31
0.0
  0
LINE
  5
AA
330
1E
100
AcDbEntity
  8
0
100
AcDbLine
 10
78.96892199999998
 20
743.911
 30
0.0
 11
80.086522
 21
743.941
 31
0.0
  0
LINE
  5
AB
330
1E
100
AcDbEntity
  8
0
100
AcDbLine
 10
78.757622
 20
743.4580000000002
 30
0.0
 11
78.96892199999998
 21
743.911
 31
0.0
  0
LINE
  5
AC
330
1E
100
AcDbEntity
  8
0
100
AcDbLine
 10
78.757622
 20
743.4580000000002
 30
0.0
 11
79.45262199999998
 21
742.5819999999998
 31
0.0
  0
LINE
  5
AD
330
1E
100
AcDbEntity
  8
0
100
AcDbLine
 10
28.43202199999998
 20
751.478
 30
0.0
 11
37.495022
 21
747.2519999999998
 31
0.0
  0
LINE
  5
AE
330
1E
100
AcDbEntity
  8
0
100
AcDbLine
 10
5.562212
 20
761.59
 30
0.0
 11
5.773541999999999
 21
762.0429999999998
 31
0.0
  0
LINE
  5
AF
330
1E
100
AcDbEntity
  8
0
100
AcDbLine
 10
5.562212
 20
761.59
 30
0.0
 11
6.741092
 21
761.041
 31
0.0
  0
LINE
  5
B0
330
1E
100
AcDbEntity
  8
0
100
AcDbLine
 10
6.741092
 20
761.041
 30
0.0
 11
9.278971999999999
 21
759.8569999999998
 31
0.0
  0
LINE
  5
B1
330
1E
100
AcDbEntity
  8
0
100
AcDbLine
 10
6.347972
 20
762.3269999999998
 30
0.0
 11
12.14792199999999
 21
759.623
 31
0.0
  0
LINE
  5
B2
330
1E
100
AcDbEntity
  8
0
100
AcDbLine
 10
5.773541999999999
 20
762.0429999999998
 30
0.0
 11
6.581957026789518
 21
761.6665241502889
 31
0.0
  0
LINE
  5
B3
330
1E
100
AcDbEntity
  8
0
100
AcDbLine
 10
43.83452199999999
 20
760.846
 30
0.0
 11
53.16912199999999
 21
756.493
 31
0.0
  0
LINE
  5
B4
330
1E
100
AcDbEntity
  8
0
100
AcDbLine
 10
6.861871999999999
 20
761.536
 30
0.0
 11
12.571322
 21
758.873
 31
0.0
  0
LINE
  5
B5
330
1E
100
AcDbEntity
  8
0
100
AcDbLine
 10
8.925247217784399
 20
760.5736011340919
 30
0.0
 11
9.490261999999999
 21
760.3099999999998
 31
0.0
  0
LINE
  5
B6
330
1E
100
AcDbEntity
  8
0
100
AcDbLine
 10
178.414622
 20
625.2669999999998
 30
0.0
 11
178.5083250585908
 21
625.2587993209719
 31
0.0
  0
LINE
  5
B7
330
1E
100
AcDbEntity
  8
0
100
AcDbLine
 10
178.414622
 20
625.2669999999998
 30
0.0
 11
178.797622
 21
625.5884
 31
0.0
  0
LINE
  5
B8
330
1E
100
AcDbEntity
  8
0
100
AcDbLine
 10
177.631622
 20
624.5231
 30
0.0
 11
178.734622
 21
625.4487
 31
0.0
  0
LINE
  5
B9
330
1E
100
AcDbEntity
  8
0
100
AcDbLine
 10
179.7936219999999
 20
626.424
 30
0.0
 11
181.402622
 21
627.7739
 31
0.0
  0
LINE
  5
BA
330
1E
100
AcDbEntity
  8
0
100
AcDbLine
 10
178.797622
 20
625.5884
 30
0.0
 11
179.7936219999999
 21
626.424
 31
0.0
  0
LINE
  5
BB
330
1E
100
AcDbEntity
  8
0
100
AcDbLine
 10
178.734622
 20
625.4487
 30
0.0
 11
180.527622
 21
626.9528
 31
0.0
  0
LINE
  5
BC
330
1E
100
AcDbEntity
  8
0
100
AcDbLine
 10
178.6736219999999
 20
624.962
 30
0.0
 11
180.511622
 21
626.5047
 31
0.0
  0
LINE
  5
BD
330
1E
100
AcDbEntity
  8
0
100
AcDbLine
 10
177.570622
 20
624.0363999999998
 30
0.0
 11
178.6736219999999
 21
624.962
 31
0.0
  0
LINE
  5
BE
330
1E
100
AcDbEntity
  8
0
100
AcDbLine
 10
177.217622
 20
624.1759999999998
 30
0.0
 11
177.631622
 21
624.5231
 31
0.0
  0
LINE
  5
BF
330
1E
100
AcDbEntity
  8
0
100
AcDbLine
 10
177.1566219999999
 20
623.6893
 30
0.0
 11
187.6431934202519
 21
611.1915225727839
 31
0.0
  0
LINE
  5
C0
330
1E
100
AcDbEntity
  8
0
100
AcDbLine
 10
177.1566219999999
 20
623.6893
 30
0.0
 11
177.217622
 21
624.1759999999998
 31
0.0
  0
LINE
  5
C1
330
1E
100
AcDbEntity
  8
0
100
AcDbLine
 10
177.1566219999999
 20
623.6893
 30
0.0
 11
177.570622
 21
624.0363999999998
 31
0.0
  0
LINE
  5
C2
330
1E
100
AcDbEntity
  8
0
100
AcDbLine
 10
177.1566219999999
 20
623.6893
 30
0.0
 11
187.6431934202519
 21
611.1915225727839
 31
0.0
  0
LINE
  5
C3
330
1E
100
AcDbEntity
  8
0
100
AcDbLine
 10
179.9056219999999
 20
609.0
 30
0.0
 11
179.9056219999999
 21
600.0
 31
0.0
  0
LINE
  5
C4
330
1E
100
AcDbEntity
  8
0
100
AcDbLine
 10
33.864922
 20
763.8389999999998
 30
0.0
 11
43.200522
 21
759.4860000000001
 31
0.0
  0
LINE
  5
C5
330
1E
100
AcDbEntity
  8
0
100
AcDbLine
 10
2.722761999999999
 20
764.018
 30
0.0
 11
6.347972
 21
762.3269999999998
 31
0.0
  0
LINE
  5
C6
330
1E
100
AcDbEntity
  8
0
100
AcDbLine
 10
2.148331999999999
 20
763.733
 30
0.0
 11
6.861871999999999
 21
761.536
 31
0.0
  0
LINE
  5
C7
330
1E
100
AcDbEntity
  8
0
100
AcDbLine
 10
34.348822
 20
764.166
 30
0.0
 11
43.41182199999999
 21
759.9400000000001
 31
0.0
  0
LINE
  5
C8
330
1E
100
AcDbEntity
  8
0
100
AcDbLine
 10
0.0943780000000026
 20
765.2439999999998
 30
0.0
 11
5.588541999999998
 21
777.0249999999998
 31
0.0
  0
LINE
  5
C9
330
1E
100
AcDbEntity
  8
0
100
AcDbLine
 10
0.0943780000000029
 20
765.2439999999998
 30
0.0
 11
1.906981999999999
 21
764.3979999999998
 31
0.0
  0
LINE
  5
CA
330
1E
100
AcDbEntity
  8
0
100
AcDbLine
 10
5.588541999999998
 20
777.0249999999998
 30
0.0
 11
6.947339749553231
 21
776.391554066881
 31
0.0
  0
LINE
  5
CB
330
1E
100
AcDbEntity
  8
0
100
AcDbLine
 10
0.0943780000000028
 20
765.2439999999998
 30
0.0
 11
5.588541999999998
 21
777.0249999999998
 31
0.0
  0
LINE
  5
CC
330
1E
100
AcDbEntity
  8
0
100
AcDbLine
 10
0.0943780000000028
 20
765.2439999999998
 30
0.0
 11
1.453667917273369
 21
764.609576115901
 31
0.0
  0
LINE
  5
CD
330
1E
100
AcDbEntity
  8
0
100
AcDbLine
 10
0.0943780000000028
 20
765.2439999999998
 30
0.0
 11
1.906981999999999
 21
764.3979999999998
 31
0.0
  0
LINE
  5
CE
330
1E
100
AcDbEntity
  8
0
100
AcDbLine
 10
1.453332
 20
764.61
 30
0.0
 11
2.722761999999999
 21
764.018
 31
0.0
  0
LINE
  5
CF
330
1E
100
AcDbEntity
  8
0
100
AcDbLine
 10
25.165022
 20
767.8969999999998
 30
0.0
 11
33.864922
 21
763.8389999999998
 31
0.0
  0
LINE
  5
D0
330
1E
100
AcDbEntity
  8
0
100
AcDbLine
 10
34.498922
 20
765.1989999999998
 30
0.0
 11
43.83452199999999
 21
760.846
 31
0.0
  0
LINE
  5
D1
330
1E
100
AcDbEntity
  8
0
100
AcDbLine
 10
17.642022
 20
771.405
 30
0.0
 11
25.165022
 21
767.8969999999998
 31
0.0
  0
LINE
  5
D2
330
1E
100
AcDbEntity
  8
0
100
AcDbLine
 10
25.799022
 20
769.2560000000002
 30
0.0
 11
34.498922
 21
765.1989999999998
 31
0.0
  0
LINE
  5
D3
330
1E
100
AcDbEntity
  8
0
100
AcDbLine
 10
11.84212199999999
 20
774.1089999999998
 30
0.0
 11
17.642022
 21
771.405
 31
0.0
  0
LINE
  5
D4
330
1E
100
AcDbEntity
  8
0
100
AcDbLine
 10
18.276022
 20
772.7639999999999
 30
0.0
 11
25.799022
 21
769.2560000000002
 31
0.0
  0
LINE
  5
D5
330
1E
100
AcDbEntity
  8
0
100
AcDbLine
 10
8.216931999999998
 20
775.799
 30
0.0
 11
11.84212199999999
 21
774.1089999999998
 31
0.0
  0
LINE
  5
D6
330
1E
100
AcDbEntity
  8
0
100
AcDbLine
 10
12.476022
 20
775.4689999999998
 30
0.0
 11
18.276022
 21
772.7639999999999
 31
0.0
  0
LINE
  5
D7
330
1E
100
AcDbEntity
  8
0
100
AcDbLine
 10
9.334531999999999
 20
775.83
 30
0.0
 11
12.778622
 21
774.225
 31
0.0
  0
LINE
  5
D8
330
1E
100
AcDbEntity
  8
0
100
AcDbLine
 10
9.545861999999999
 20
776.283
 30
0.0
 11
12.990022
 21
774.677
 31
0.0
  0
LINE
  5
D9
330
1E
100
AcDbEntity
  8
0
100
AcDbLine
 10
12.990022
 20
774.677
 30
0.0
 11
18.69942199999998
 21
772.015
 31
0.0
  0
LINE
  5
DA
330
1E
100
AcDbEntity
  8
0
100
AcDbLine
 10
12.778622
 20
774.225
 30
0.0
 11
18.488122
 21
771.561
 31
0.0
  0
LINE
  5
DB
330
1E
100
AcDbEntity
  8
0
100
AcDbLine
 10
18.69942199999998
 20
772.015
 30
0.0
 11
26.040322
 21
768.592
 31
0.0
  0
LINE
  5
DC
330
1E
100
AcDbEntity
  8
0
100
AcDbLine
 10
18.488122
 20
771.561
 30
0.0
 11
25.82902199999999
 21
768.138
 31
0.0
  0
LINE
  5
DD
330
1E
100
AcDbEntity
  8
0
100
AcDbLine
 10
26.040322
 20
768.592
 30
0.0
 11
34.55912199999998
 21
764.6189999999997
 31
0.0
  0
LINE
  5
DE
330
1E
100
AcDbEntity
  8
0
100
AcDbLine
 10
25.82902199999999
 20
768.138
 30
0.0
 11
34.348822
 21
764.166
 31
0.0
  0
LINE
  5
DF
330
1E
100
AcDbEntity
  8
0
100
AcDbLine
 10
34.55912199999998
 20
764.6189999999997
 30
0.0
 11
43.623222
 21
760.393
 31
0.0
  0
LINE
  5
E0
330
1E
100
AcDbEntity
  8
0
100
AcDbLine
 10
7.581452
 20
777.7499999999998
 30
0.0
 11
8.276422
 21
776.8749999999998
 31
0.0
  0
LINE
  5
E1
330
1E
100
AcDbEntity
  8
0
100
AcDbLine
 10
7.581452
 20
777.7499999999998
 30
0.0
 11
19.415022
 21
803.128
 31
0.0
  0
LINE
  5
E2
330
1E
100
AcDbEntity
  8
0
100
AcDbLine
 10
7.581452
 20
777.7499999999998
 30
0.0
 11
8.85085200000001
 21
777.1589999999998
 31
0.0
  0
LINE
  5
E3
330
1E
100
AcDbEntity
  8
0
100
AcDbLine
 10
20.683422
 20
802.536
 30
0.0
 11
24.30862199999999
 21
800.8449999999998
 31
0.0
  0
LINE
  5
E4
330
1E
100
AcDbEntity
  8
0
100
AcDbLine
 10
24.30862199999999
 20
800.8449999999998
 30
0.0
 11
30.10962199999999
 21
798.1399999999998
 31
0.0
  0
LINE
  5
E5
330
1E
100
AcDbEntity
  8
0
100
AcDbLine
 10
30.10962199999999
 20
798.1399999999998
 30
0.0
 11
37.631622
 21
794.632
 31
0.0
  0
LINE
  5
E6
330
1E
100
AcDbEntity
  8
0
100
AcDbLine
 10
37.631622
 20
794.632
 30
0.0
 11
46.33242199999999
 21
790.576
 31
0.0
  0
LINE
  5
E7
330
1E
100
AcDbEntity
  8
0
100
AcDbLine
 10
8.85085200000001
 20
777.1589999999998
 30
0.0
 11
12.476022
 21
775.4689999999998
 31
0.0
  0
LINE
  5
E8
330
1E
100
AcDbEntity
  8
0
100
AcDbLine
 10
8.276422
 20
776.8749999999998
 30
0.0
 11
9.545861999999999
 21
776.283
 31
0.0
  0
LINE
  5
E9
330
1E
100
AcDbEntity
  8
0
100
AcDbLine
 10
55.66702199999999
 20
786.2230000000002
 30
0.0
 11
65.002622
 21
781.87
 31
0.0
  0
LINE
  5
EA
330
1E
100
AcDbEntity
  8
0
100
AcDbLine
 10
46.33242199999999
 20
790.576
 30
0.0
 11
55.66702199999999
 21
786.2230000000002
 31
0.0
  0
LINE
  5
EB
330
1E
100
AcDbEntity
  8
0
100
AcDbLine
 10
73.702522
 20
777.8129999999999
 30
0.0
 11
81.225622
 21
774.3049999999998
 31
0.0
  0
LINE
  5
EC
330
1E
100
AcDbEntity
  8
0
100
AcDbLine
 10
65.002622
 20
781.87
 30
0.0
 11
73.702522
 21
777.8129999999999
 31
0.0
  0
LINE
  5
ED
330
1E
100
AcDbEntity
  8
0
100
AcDbLine
 10
60.316022
 20
796.192
 30
0.0
 11
63.899322
 21
794.4110000000002
 31
0.0
  0
LINE
  5
EE
330
1E
100
AcDbEntity
  8
0
100
AcDbLine
 10
63.899322
 20
794.4110000000002
 30
0.0
 11
70.07392199999999
 21
791.091
 31
0.0
  0
LINE
  5
EF
330
1E
100
AcDbEntity
  8
0
100
AcDbLine
 10
70.07392199999999
 20
791.091
 30
0.0
 11
75.08912200000001
 21
787.648
 31
0.0
  0
LINE
  5
F0
330
1E
100
AcDbEntity
  8
0
100
AcDbLine
 10
56.648922
 20
797.7919999999998
 30
0.0
 11
60.316022
 21
796.192
 31
0.0
  0
LINE
  5
F1
330
1E
100
AcDbEntity
  8
0
100
AcDbLine
 10
50.135322
 20
800.3869999999999
 30
0.0
 11
56.648922
 21
797.7919999999998
 31
0.0
  0
LINE
  5
F2
330
1E
100
AcDbEntity
  8
0
100
AcDbLine
 10
44.27492199999998
 20
802.017
 30
0.0
 11
50.135322
 21
800.3869999999999
 31
0.0
  0
LINE
  5
F3
330
1E
100
AcDbEntity
  8
0
100
AcDbLine
 10
37.21212199999999
 20
803.4349999999998
 30
0.0
 11
44.27492199999998
 21
802.017
 31
0.0
  0
LINE
  5
F4
330
1E
100
AcDbEntity
  8
0
100
AcDbLine
 10
31.01382199999999
 20
804.3389999999996
 30
0.0
 11
37.21212199999999
 21
803.4349999999998
 31
0.0
  0
LINE
  5
F5
330
1E
100
AcDbEntity
  8
0
100
AcDbLine
 10
25.637022
 20
804.64
 30
0.0
 11
31.01382199999999
 21
804.3389999999996
 31
0.0
  0
LINE
  5
F6
330
1E
100
AcDbEntity
  8
0
100
AcDbLine
 10
19.415022
 20
803.128
 30
0.0
 11
25.637022
 21
804.64
 31
0.0
  0
LINE
  5
F7
330
1E
100
AcDbEntity
  8
0
100
AcDbLine
 10
19.415022
 20
803.128
 30
0.0
 11
20.683422
 21
802.536
 31
0.0
  0
LINE
  5
F8
330
1E
100
AcDbEntity
  8
0
100
AcDbLine
 10
8.065132000000009
 20
776.422
 30
0.0
 11
8.276422
 21
776.8749999999998
 31
0.0
  0
LINE
  5
F9
330
1E
100
AcDbEntity
  8
0
100
AcDbLine
 10
8.065132000000009
 20
776.422
 30
0.0
 11
9.334531999999999
 21
775.83
 31
0.0
  0
LINE
  5
FA
330
1E
100
AcDbEntity
  8
0
100
AcDbLine
 10
6.947491999999998
 20
776.3919999999998
 30
0.0
 11
8.065132000000009
 21
776.422
 31
0.0
  0
LINE
  5
FB
330
1E
100
AcDbEntity
  8
0
100
AcDbLine
 10
6.947491999999998
 20
776.3919999999998
 30
0.0
 11
8.216931999999998
 21
775.799
 31
0.0
  0
LINE
  5
FC
330
1E
100
AcDbEntity
  8
0
100
AcDbLine
 10
1.453667917273369
 20
764.609576115901
 30
0.0
 11
2.148331999999999
 21
763.733
 31
0.0
  0
LINE
  5
FD
330
1E
100
AcDbEntity
  8
0
100
AcDbLine
 10
87.02552199999997
 20
771.6
 30
0.0
 11
90.65072200000001
 21
769.9099999999998
 31
0.0
  0
LINE
  5
FE
330
1E
100
AcDbEntity
  8
0
100
AcDbLine
 10
81.225622
 20
774.3049999999998
 30
0.0
 11
87.02552199999997
 21
771.6
 31
0.0
  0
LINE
  5
FF
330
1E
100
AcDbEntity
  8
0
100
AcDbLine
 10
75.08912200000001
 20
787.648
 30
0.0
 11
80.715622
 21
783.1489999999996
 31
0.0
  0
LINE
  5
100
330
1E
100
AcDbEntity
  8
0
100
AcDbLine
 10
80.715622
 20
783.1489999999996
 30
0.0
 11
85.391922
 21
778.9819999999998
 31
0.0
  0
LINE
  5
101
330
1E
100
AcDbEntity
  8
0
100
AcDbLine
 10
85.391922
 20
778.9819999999998
 30
0.0
 11
89.078122
 21
775.0560000000001
 31
0.0
  0
LINE
  5
102
330
1E
100
AcDbEntity
  8
0
100
AcDbLine
 10
90.65072200000001
 20
769.9099999999998
 30
0.0
 11
91.92012199999998
 21
769.3179999999999
 31
0.0
  0
LINE
  5
103
330
1E
100
AcDbEntity
  8
0
100
AcDbLine
 10
89.078122
 20
775.0560000000001
 30
0.0
 11
91.92012199999998
 21
769.3179999999999
 31
0.0
  0
LINE
  5
104
330
1E
100
AcDbEntity
  8
0
100
AcDbLine
 10
90.8311244040167
 20
766.982658937832
 30
0.0
 11
91.92012199999998
 21
769.3179999999999
 31
0.0
  0
LINE
  5
105
330
1E
100
AcDbEntity
  8
0
100
AcDbLine
 10
90.8311244040167
 20
766.982658937832
 30
0.0
 11
113.558526569147
 21
739.897113730406
 31
0.0
  0
LINE
  5
106
330
1E
100
AcDbEntity
  8
0
100
AcDbLine
 10
100.005622
 20
842.6399999999999
 30
0.0
 11
103.8816219999999
 21
850.5
 31
0.0
  0
LINE
  5
107
330
1E
100
AcDbEntity
  8
0
100
AcDbLine
 10
108.7506219999999
 20
857.7869999999997
 30
0.0
 11
114.529622
 21
864.376
 31
0.0
  0
LINE
  5
108
330
1E
100
AcDbEntity
  8
0
100
AcDbLine
 10
103.8816219999999
 20
850.5
 30
0.0
 11
108.7506219999999
 21
857.7869999999997
 31
0.0
  0
LINE
  5
109
330
1E
100
AcDbEntity
  8
0
100
AcDbLine
 10
125.874622
 20
831.925
 30
0.0
 11
128.1306219999999
 21
836.5
 31
0.0
  0
LINE
  5
10A
330
1E
100
AcDbEntity
  8
0
100
AcDbLine
 10
128.1306219999999
 20
836.5
 30
0.0
 11
130.9646219999999
 21
840.742
 31
0.0
  0
LINE
  5
10B
330
1E
100
AcDbEntity
  8
0
100
AcDbLine
 10
114.529622
 20
864.376
 30
0.0
 11
121.118622
 21
870.1549999999999
 31
0.0
  0
LINE
  5
10C
330
1E
100
AcDbEntity
  8
0
100
AcDbLine
 10
121.118622
 20
870.1549999999999
 30
0.0
 11
128.4056219999999
 21
875.0239999999999
 31
0.0
  0
LINE
  5
10D
330
1E
100
AcDbEntity
  8
0
100
AcDbLine
 10
130.9646219999999
 20
840.742
 30
0.0
 11
134.3286219999999
 21
844.5769999999999
 31
0.0
  0
LINE
  5
10E
330
1E
100
AcDbEntity
  8
0
100
AcDbLine
 10
138.163622
 20
847.9409999999997
 30
0.0
 11
142.4056219999999
 21
850.7749999999997
 31
0.0
  0
LINE
  5
10F
330
1E
100
AcDbEntity
  8
0
100
AcDbLine
 10
134.3286219999999
 20
844.5769999999999
 30
0.0
 11
138.163622
 21
847.9409999999997
 31
0.0
  0
LINE
  5
110
330
1E
100
AcDbEntity
  8
0
100
AcDbLine
 10
142.4056219999999
 20
850.7749999999997
 30
0.0
 11
146.980622
 21
853.031
 31
0.0
  0
LINE
  5
111
330
1E
100
AcDbEntity
  8
0
100
AcDbLine
 10
156.8146219999999
 20
855.666
 30
0.0
 11
161.905622
 21
856.0
 31
0.0
  0
LINE
  5
112
330
1E
100
AcDbEntity
  8
0
100
AcDbLine
 10
151.811622
 20
854.671
 30
0.0
 11
156.8146219999999
 21
855.666
 31
0.0
  0
LINE
  5
113
330
1E
100
AcDbEntity
  8
0
100
AcDbLine
 10
146.980622
 20
853.031
 30
0.0
 11
151.811622
 21
854.671
 31
0.0
  0
LINE
  5
114
330
1E
100
AcDbEntity
  8
0
100
AcDbLine
 10
128.4056219999999
 20
875.0239999999999
 30
0.0
 11
136.265622
 21
878.8999999999999
 31
0.0
  0
LINE
  5
115
330
1E
100
AcDbEntity
  8
0
100
AcDbLine
 10
153.160622
 20
883.427
 30
0.0
 11
161.905622
 21
884.0
 31
0.0
  0
LINE
  5
116
330
1E
100
AcDbEntity
  8
0
100
AcDbLine
 10
144.5646219999999
 20
881.717
 30
0.0
 11
153.160622
 21
883.427
 31
0.0
  0
LINE
  5
117
330
1E
100
AcDbEntity
  8
0
100
AcDbLine
 10
136.265622
 20
878.8999999999999
 30
0.0
 11
144.5646219999999
 21
881.717
 31
0.0
  0
LINE
  5
118
330
1E
100
AcDbEntity
  8
0
100
AcDbLine
 10
171.9996219999999
 20
854.671
 30
0.0
 11
176.830622
 21
853.031
 31
0.0
  0
LINE
  5
119
330
1E
100
AcDbEntity
  8
0
100
AcDbLine
 10
176.830622
 20
853.031
 30
0.0
 11
181.4056219999999
 21
850.7749999999997
 31
0.0
  0
LINE
  5
11A
330
1E
100
AcDbEntity
  8
0
100
AcDbLine
 10
179.246622
 20
881.717
 30
0.0
 11
187.545622
 21
878.8999999999999
 31
0.0
  0
LINE
  5
11B
330
1E
100
AcDbEntity
  8
0
100
AcDbLine
 10
170.650622
 20
883.427
 30
0.0
 11
179.246622
 21
881.717
 31
0.0
  0
LINE
  5
11C
330
1E
100
AcDbEntity
  8
0
100
AcDbLine
 10
166.996622
 20
855.666
 30
0.0
 11
171.9996219999999
 21
854.671
 31
0.0
  0
LINE
  5
11D
330
1E
100
AcDbEntity
  8
0
100
AcDbLine
 10
161.905622
 20
856.0
 30
0.0
 11
166.996622
 21
855.666
 31
0.0
  0
LINE
  5
11E
330
1E
100
AcDbEntity
  8
0
100
AcDbLine
 10
161.905622
 20
884.0
 30
0.0
 11
170.650622
 21
883.427
 31
0.0
  0
LINE
  5
11F
330
1E
100
AcDbEntity
  8
0
100
AcDbLine
 10
74.794871881857
 20
787.8500065314978
 30
0.0
 11
100.005622
 21
842.6399999999999
 31
0.0
  0
LINE
  5
120
330
1E
100
AcDbEntity
  8
0
100
AcDbLine
 10
94.0962963090835
 20
763.0913668050079
 30
0.0
 11
125.874622
 21
831.925
 31
0.0
  0
LINE
  5
121
330
1E
100
AcDbEntity
  8
0
100
AcDbLine
 10
181.758622
 20
600.0
 30
0.0
 11
182.993622
 21
600.0
 31
0.0
  0
LINE
  5
122
330
1E
100
AcDbEntity
  8
0
100
AcDbLine
 10
182.993622
 20
600.0
 30
0.0
 11
184.537622
 21
600.0
 31
0.0
  0
LINE
  5
123
330
1E
100
AcDbEntity
  8
0
100
AcDbLine
 10
184.9056219999999
 20
580.0
 30
0.0
 11
184.9056219999999
 21
550.0
 31
0.0
  0
LINE
  5
13D
330
1E
100
AcDbEntity
  8
0
100
AcDbLine
 10
188.905622
 20
595.0
 30
0.0
 11
188.905622
 21
600.0
 31
0.0
  0
LINE
  5
13E
330
1E
100
AcDbEntity
  8
0
100
AcDbLine
 10
240.905622
 20
595.0
 30
0.0
 11
240.905622
 21
600.0
 31
0.0
  0
LINE
  5
142
330
1E
100
AcDbEntity
  8
0
100
AcDbLine
 10
184.9056219999999
 20
550.0
 30
0.0
 11
184.9056219999999
 21
580.0
 31
0.0
  0
LINE
  5
143
330
1E
100
AcDbEntity
  8
0
100
AcDbLine
 10
214.905622
 20
600.0
 30
0.0
 11
243.729622
 21
600.0
 31
0.0
  0
LINE
  5
144
330
1E
100
AcDbEntity
  8
0
100
AcDbLine
 10
244.905622
 20
580.0
 30
0.0
 11
244.905622
 21
550.0
 31
0.0
  0
LINE
  5
145
330
1E
100
AcDbEntity
  8
0
100
AcDbLine
 10
244.905622
 20
580.0
 30
0.0
 11
287.4056219999999
 21
580.0
 31
0.0
  0
LINE
  5
146
330
1E
100
AcDbEntity
  8
0
100
AcDbLine
 10
244.905622
 20
580.0
 30
0.0
 11
285.405622
 21
580.0
 31
0.0
  0
LINE
  5
147
330
1E
100
AcDbEntity
  8
0
100
AcDbLine
 10
244.905622
 20
550.0
 30
0.0
 11
244.905622
 21
580.0
 31
0.0
  0
LINE
  5
148
330
1E
100
AcDbEntity
  8
0
100
AcDbLine
 10
246.817622
 20
600.0
 30
0.0
 11
248.052622
 21
600.0
 31
0.0
  0
LINE
  5
149
330
1E
100
AcDbEntity
  8
0
100
AcDbLine
 10
245.273622
 20
600.0
 30
0.0
 11
246.817622
 21
600.0
 31
0.0
  0
LINE
  5
14A
330
1E
100
AcDbEntity
  8
0
100
AcDbLine
 10
243.729622
 20
600.0
 30
0.0
 11
245.273622
 21
600.0
 31
0.0
  0
LINE
  5
14B
330
1E
100
AcDbEntity
  8
0
100
AcDbLine
 10
240.905622
 20
600.0
 30
0.0
 11
243.729622
 21
600.0
 31
0.0
  0
LINE
  5
14C
330
1E
100
AcDbEntity
  8
0
100
AcDbLine
 10
248.052622
 20
600.0
 30
0.0
 11
249.081622
 21
600.0
 31
0.0
  0
LINE
  5
14D
330
1E
100
AcDbEntity
  8
0
100
AcDbLine
 10
249.081622
 20
600.0
 30
0.0
 11
249.699622
 21
600.0
 31
0.0
  0
LINE
  5
14E
330
1E
100
AcDbEntity
  8
0
100
AcDbLine
 10
295.405622
 20
-0.0000000000000576
 30
0.0
 11
297.4056219999998
 21
-0.0000000000000577
 31
0.0
  0
LINE
  5
152
330
1E
100
AcDbEntity
  8
0
100
AcDbLine
 10
287.4056219999999
 20
100.0
 30
0.0
 11
287.4056219999999
 21
580.0
 31
0.0
  0
LINE
  5
153
330
1E
100
AcDbEntity
  8
0
100
AcDbLine
 10
297.4056219999998
 20
60.0
 30
0.0
 11
297.4056219999998
 21
580.0
 31
0.0
  0
LINE
  5
154
330
1E
100
AcDbEntity
  8
0
100
AcDbLine
 10
287.4056219999999
 20
100.0
 30
0.0
 11
287.4056219999999
 21
580.0
 31
0.0
  0
LINE
  5
155
330
1E
100
AcDbEntity
  8
0
100
AcDbLine
 10
287.4056219999999
 20
-0.0000000000000571
 30
0.0
 11
297.4056219999998
 21
-0.0000000000000577
 31
0.0
  0
LINE
  5
156
330
1E
100
AcDbEntity
  8
0
100
AcDbLine
 10
249.905622
 20
250.0
 30
0.0
 11
299.9056219999999
 21
50.0
 31
0.0
  0
LINE
  5
157
330
1E
100
AcDbEntity
  8
0
100
AcDbLine
 10
249.905622
 20
250.0
 30
0.0
 11
299.9056219999999
 21
50.0
 31
0.0
  0
LINE
  5
158
330
1E
100
AcDbEntity
  8
0
100
AcDbLine
 10
249.905622
 20
250.0
 30
0.0
 11
249.905622
 21
550.0
 31
0.0
  0
LINE
  5
159
330
1E
100
AcDbEntity
  8
0
100
AcDbLine
 10
287.4056219999999
 20
595.0
 30
0.0
 11
287.4056219999999
 21
580.0
 31
0.0
  0
LINE
  5
15A
330
1E
100
AcDbEntity
  8
0
100
AcDbLine
 10
285.405622
 20
580.0
 30
0.0
 11
287.4056219999999
 21
580.0
 31
0.0
  0
LINE
  5
15B
330
1E
100
AcDbEntity
  8
0
100
AcDbLine
 10
287.4056219999999
 20
580.0
 30
0.0
 11
287.4056219999999
 21
595.0
 31
0.0
  0
LINE
  5
15C
330
1E
100
AcDbEntity
  8
0
100
AcDbLine
 10
287.4056219999999
 20
580.0
 30
0.0
 11
297.4056219999998
 21
580.0
 31
0.0
  0
LINE
  5
15D
330
1E
100
AcDbEntity
  8
0
100
AcDbLine
 10
249.905622
 20
550.0
 30
0.0
 11
249.905622
 21
250.0
 31
0.0
  0
LINE
  5
15E
330
1E
100
AcDbEntity
  8
0
100
AcDbLine
 10
299.9056219999999
 20
50.0
 30
0.0
 11
299.9056219999999
 21
-0.0000000000000552
 31
0.0
  0
LINE
  5
15F
330
1E
100
AcDbEntity
  8
0
100
AcDbLine
 10
297.4056219999998
 20
-0.0000000000000577
 30
0.0
 11
299.9056219999999
 21
-0.0000000000000579
 31
0.0
  0
LINE
  5
160
330
1E
100
AcDbEntity
  8
0
100
AcDbLine
 10
299.9056219999999
 20
-0.0000000000000579
 30
0.0
 11
299.9056219999999
 21
50.0
 31
0.0
  0
LINE
  5
161
330
1E
100
AcDbEntity
  8
0
100
AcDbLine
 10
249.699622
 20
600.0
 30
0.0
 11
249.905622
 21
600.0
 31
0.0
  0
LINE
  5
162
330
1E
100
AcDbEntity
  8
0
100
AcDbLine
 10
249.905622
 20
600.0
 30
0.0
 11
249.905622
 21
609.0
 31
0.0
  0
LINE
  5
163
330
1E
100
AcDbEntity
  8
0
100
AcDbLine
 10
184.537622
 20
600.0
 30
0.0
 11
186.081622
 21
600.0
 31
0.0
  0
LINE
  5
164
330
1E
100
AcDbEntity
  8
0
100
AcDbLine
 10
186.081622
 20
600.0
 30
0.0
 11
188.905622
 21
600.0
 31
0.0
  0
LINE
  5
165
330
1E
100
AcDbEntity
  8
0
100
AcDbLine
 10
186.081622
 20
600.0
 30
0.0
 11
214.905622
 21
600.0
 31
0.0
  0
LINE
  5
166
330
1E
100
AcDbEntity
  8
0
100
AcDbLine
 10
180.7296219999999
 20
600.0
 30
0.0
 11
181.758622
 21
600.0
 31
0.0
  0
LINE
  5
167
330
1E
100
AcDbEntity
  8
0
100
AcDbLine
 10
181.9646219999999
 20
609.7
 30
0.0
 11
183.199622
 21
609.7
 31
0.0
  0
LINE
  5
168
330
1E
100
AcDbEntity
  8
0
100
AcDbLine
 10
183.199622
 20
609.7
 30
0.0
 11
184.537622
 21
609.7
 31
0.0
  0
LINE
  5
169
330
1E
100
AcDbEntity
  8
0
100
AcDbLine
 10
184.537622
 20
609.7
 30
0.0
 11
186.081622
 21
609.7
 31
0.0
  0
LINE
  5
16A
330
1E
100
AcDbEntity
  8
0
100
AcDbLine
 10
188.905622
 20
600.0
 30
0.0
 11
188.905622
 21
595.0
 31
0.0
  0
LINE
  5
16B
330
1E
100
AcDbEntity
  8
0
100
AcDbLine
 10
214.905622
 20
609.7
 30
0.0
 11
243.729622
 21
609.7
 31
0.0
  0
LINE
  5
16C
330
1E
100
AcDbEntity
  8
0
100
AcDbLine
 10
186.081622
 20
609.7
 30
0.0
 11
214.905622
 21
609.7
 31
0.0
  0
LINE
  5
16D
330
1E
100
AcDbEntity
  8
0
100
AcDbLine
 10
182.4796219999999
 20
610.0
 30
0.0
 11
183.5086219999999
 21
610.0
 31
0.0
  0
LINE
  5
16E
330
1E
100
AcDbEntity
  8
0
100
AcDbLine
 10
183.5086219999999
 20
610.0
 30
0.0
 11
184.7436219999999
 21
610.0
 31
0.0
  0
LINE
  5
16F
330
1E
100
AcDbEntity
  8
0
100
AcDbLine
 10
184.7436219999999
 20
610.0
 30
0.0
 11
186.081622
 21
610.0
 31
0.0
  0
LINE
  5
170
330
1E
100
AcDbEntity
  8
0
100
AcDbLine
 10
186.905622
 20
610.0
 30
0.0
 11
187.6431934202519
 21
611.1915225727839
 31
0.0
  0
LINE
  5
171
330
1E
100
AcDbEntity
  8
0
100
AcDbLine
 10
214.905622
 20
610.0
 30
0.0
 11
243.729622
 21
610.0
 31
0.0
  0
LINE
  5
172
330
1E
100
AcDbEntity
  8
0
100
AcDbLine
 10
186.081622
 20
610.0
 30
0.0
 11
214.905622
 21
610.0
 31
0.0
  0
LINE
  5
173
330
1E
100
AcDbEntity
  8
0
100
AcDbLine
 10
181.655622
 20
610.0
 30
0.0
 11
182.4796219999999
 21
610.0
 31
0.0
  0
LINE
  5
174
330
1E
100
AcDbEntity
  8
0
100
AcDbLine
 10
181.140622
 20
610.0
 30
0.0
 11
181.655622
 21
610.0
 31
0.0
  0
LINE
  5
175
330
1E
100
AcDbEntity
  8
0
100
AcDbLine
 10
181.037622
 20
609.7
 30
0.0
 11
181.9646219999999
 21
609.7
 31
0.0
  0
LINE
  5
176
330
1E
100
AcDbEntity
  8
0
100
AcDbLine
 10
180.420622
 20
609.7
 30
0.0
 11
181.037622
 21
609.7
 31
0.0
  0
LINE
  5
177
330
1E
100
AcDbEntity
  8
0
100
AcDbLine
 10
180.511622
 20
626.5047
 30
0.0
 11
182.947622
 21
628.5488
 31
0.0
  0
LINE
  5
178
330
1E
100
AcDbEntity
  8
0
100
AcDbLine
 10
219.268622
 20
626.6303999999998
 30
0.0
 11
223.463622
 21
625.7064999999998
 31
0.0
  0
LINE
  5
179
330
1E
100
AcDbEntity
  8
0
100
AcDbLine
 10
223.463622
 20
625.7064999999998
 30
0.0
 11
227.6586219999999
 21
624.0434999999998
 31
0.0
  0
LINE
  5
17A
330
1E
100
AcDbEntity
  8
0
100
AcDbLine
 10
227.6586219999999
 20
624.0434999999998
 30
0.0
 11
231.517622
 21
622.0108999999998
 31
0.0
  0
LINE
  5
17B
330
1E
100
AcDbEntity
  8
0
100
AcDbLine
 10
181.402622
 20
627.7739
 30
0.0
 11
183.3946219999999
 21
629.4451
 31
0.0
  0
LINE
  5
17C
330
1E
100
AcDbEntity
  8
0
100
AcDbLine
 10
180.527622
 20
626.9528
 30
0.0
 11
182.871622
 21
628.9197999999998
 31
0.0
  0
LINE
  5
17D
330
1E
100
AcDbEntity
  8
0
100
AcDbLine
 10
183.3946219999999
 20
629.4451
 30
0.0
 11
185.8456219999999
 21
631.5019999999998
 31
0.0
  0
LINE
  5
17E
330
1E
100
AcDbEntity
  8
0
100
AcDbLine
 10
185.537622
 20
631.1567
 30
0.0
 11
188.432622
 21
633.5864
 31
0.0
  0
LINE
  5
17F
330
1E
100
AcDbEntity
  8
0
100
AcDbLine
 10
182.871622
 20
628.9197999999998
 30
0.0
 11
185.537622
 21
631.1567
 31
0.0
  0
LINE
  5
180
330
1E
100
AcDbEntity
  8
0
100
AcDbLine
 10
185.8456219999999
 20
631.5019999999998
 30
0.0
 11
188.3736219999999
 21
633.6231999999998
 31
0.0
  0
LINE
  5
181
330
1E
100
AcDbEntity
  8
0
100
AcDbLine
 10
188.6476219999999
 20
633.3311
 30
0.0
 11
191.5886219999999
 21
635.7993999999998
 31
0.0
  0
LINE
  5
182
330
1E
100
AcDbEntity
  8
0
100
AcDbLine
 10
185.705622
 20
630.8627999999998
 30
0.0
 11
188.6476219999999
 21
633.3311
 31
0.0
  0
LINE
  5
183
330
1E
100
AcDbEntity
  8
0
100
AcDbLine
 10
182.947622
 20
628.5488
 30
0.0
 11
185.705622
 21
630.8627999999998
 31
0.0
  0
LINE
  5
184
330
1E
100
AcDbEntity
  8
0
100
AcDbLine
 10
214.905622
 20
627.0
 30
0.0
 11
219.268622
 21
626.6303999999998
 31
0.0
  0
LINE
  5
185
330
1E
100
AcDbEntity
  8
0
100
AcDbLine
 10
213.532016737159
 20
626.883638664876
 30
0.0
 11
214.905622
 21
627.0
 31
0.0
  0
LINE
  5
186
330
1E
100
AcDbEntity
  8
0
100
AcDbLine
 10
228.905622
 20
623.386684192796
 30
0.0
 11
228.905622
 21
645.0
 31
0.0
  0
LINE
  5
187
330
1E
100
AcDbEntity
  8
0
100
AcDbLine
 10
180.9346219999999
 20
610.0
 30
0.0
 11
181.140622
 21
610.0
 31
0.0
  0
LINE
  5
188
330
1E
100
AcDbEntity
  8
0
100
AcDbLine
 10
231.517622
 20
622.0108999999998
 30
0.0
 11
235.209622
 21
619.2391
 31
0.0
  0
LINE
  5
189
330
1E
100
AcDbEntity
  8
0
100
AcDbLine
 10
228.905622
 20
633.4999999999999
 30
0.0
 11
230.405622
 21
633.4999999999999
 31
0.0
  0
LINE
  5
18A
330
1E
100
AcDbEntity
  8
0
100
AcDbLine
 10
230.405622
 20
633.4999999999999
 30
0.0
 11
234.005622
 21
633.4999999999999
 31
0.0
  0
LINE
  5
18B
330
1E
100
AcDbEntity
  8
0
100
AcDbLine
 10
235.209622
 20
619.2391
 30
0.0
 11
238.565622
 21
616.0978
 31
0.0
  0
LINE
  5
18C
330
1E
100
AcDbEntity
  8
0
100
AcDbLine
 10
234.005622
 20
633.4999999999999
 30
0.0
 11
236.105622
 21
633.4999999999999
 31
0.0
  0
LINE
  5
18D
330
1E
100
AcDbEntity
  8
0
100
AcDbLine
 10
188.3736219999999
 20
633.6231999999998
 30
0.0
 11
190.9016219999999
 21
635.7445
 31
0.0
  0
LINE
  5
18E
330
1E
100
AcDbEntity
  8
0
100
AcDbLine
 10
188.432622
 20
633.5864
 30
0.0
 11
191.3286219999999
 21
636.0162
 31
0.0
  0
LINE
  5
18F
330
1E
100
AcDbEntity
  8
0
100
AcDbLine
 10
228.905622
 20
634.0
 30
0.0
 11
230.1056219999999
 21
634.0
 31
0.0
  0
LINE
  5
190
330
1E
100
AcDbEntity
  8
0
100
AcDbLine
 10
230.1056219999999
 20
634.0
 30
0.0
 11
233.505622
 21
634.0
 31
0.0
  0
LINE
  5
191
330
1E
100
AcDbEntity
  8
0
100
AcDbLine
 10
233.505622
 20
634.0
 30
0.0
 11
235.605622
 21
634.0
 31
0.0
  0
LINE
  5
192
330
1E
100
AcDbEntity
  8
0
100
AcDbLine
 10
235.605622
 20
634.0
 30
0.0
 11
236.405622
 21
634.0
 31
0.0
  0
LINE
  5
193
330
1E
100
AcDbEntity
  8
0
100
AcDbLine
 10
236.105622
 20
633.4999999999999
 30
0.0
 11
236.905622
 21
633.4999999999999
 31
0.0
  0
LINE
  5
194
330
1E
100
AcDbEntity
  8
0
100
AcDbLine
 10
236.905622
 20
617.6516015494641
 30
0.0
 11
236.905622
 21
633.4999999999999
 31
0.0
  0
LINE
  5
195
330
1E
100
AcDbEntity
  8
0
100
AcDbLine
 10
190.9016219999999
 20
635.7445
 30
0.0
 11
193.352622
 21
637.8013
 31
0.0
  0
LINE
  5
196
330
1E
100
AcDbEntity
  8
0
100
AcDbLine
 10
191.3286219999999
 20
636.0162
 30
0.0
 11
193.9946219999999
 21
638.2531
 31
0.0
  0
LINE
  5
197
330
1E
100
AcDbEntity
  8
0
100
AcDbLine
 10
193.352622
 20
637.8013
 30
0.0
 11
195.344622
 21
639.4726
 31
0.0
  0
LINE
  5
198
330
1E
100
AcDbEntity
  8
0
100
AcDbLine
 10
191.5886219999999
 20
635.7993999999998
 30
0.0
 11
194.3466219999999
 21
638.1133999999998
 31
0.0
  0
LINE
  5
199
330
1E
100
AcDbEntity
  8
0
100
AcDbLine
 10
195.344622
 20
639.4726
 30
0.0
 11
196.9536219999999
 21
640.8224
 31
0.0
  0
LINE
  5
19A
330
1E
100
AcDbEntity
  8
0
100
AcDbLine
 10
193.9946219999999
 20
638.2531
 30
0.0
 11
196.3386219999999
 21
640.22
 31
0.0
  0
LINE
  5
19B
330
1E
100
AcDbEntity
  8
0
100
AcDbLine
 10
196.3386219999999
 20
640.22
 30
0.0
 11
198.130622
 21
641.7241
 31
0.0
  0
LINE
  5
19C
330
1E
100
AcDbEntity
  8
0
100
AcDbLine
 10
194.3466219999999
 20
638.1133999999998
 30
0.0
 11
196.782622
 21
640.1575
 31
0.0
  0
LINE
  5
19D
330
1E
100
AcDbEntity
  8
0
100
AcDbLine
 10
196.9536219999999
 20
640.8224
 30
0.0
 11
197.948622
 21
641.6580999999998
 31
0.0
  0
LINE
  5
19E
330
1E
100
AcDbEntity
  8
0
100
AcDbLine
 10
197.948622
 20
641.6580999999998
 30
0.0
 11
198.331622
 21
641.9795
 31
0.0
  0
LINE
  5
19F
330
1E
100
AcDbEntity
  8
0
100
AcDbLine
 10
196.782622
 20
640.1575
 30
0.0
 11
198.6206219999999
 21
641.7002
 31
0.0
  0
LINE
  5
1A0
330
1E
100
AcDbEntity
  8
0
100
AcDbLine
 10
198.323509259497
 20
641.8858177965488
 30
0.0
 11
198.331622
 21
641.9795
 31
0.0
  0
LINE
  5
1A1
330
1E
100
AcDbEntity
  8
0
100
AcDbLine
 10
198.130622
 20
641.7241
 30
0.0
 11
199.234622
 21
642.6497
 31
0.0
  0
LINE
  5
1A2
330
1E
100
AcDbEntity
  8
0
100
AcDbLine
 10
198.6206219999999
 20
641.7002
 30
0.0
 11
199.724622
 21
642.6258
 31
0.0
  0
LINE
  5
1A3
330
1E
100
AcDbEntity
  8
0
100
AcDbLine
 10
228.905622
 20
637.5
 30
0.0
 11
229.405622
 21
635.5
 31
0.0
  0
LINE
  5
1A4
330
1E
100
AcDbEntity
  8
0
100
AcDbLine
 10
229.405622
 20
635.5
 30
0.0
 11
230.405622
 21
634.4999999999998
 31
0.0
  0
LINE
  5
1A5
330
1E
100
AcDbEntity
  8
0
100
AcDbLine
 10
230.405622
 20
634.4999999999998
 30
0.0
 11
231.905622
 21
634.0
 31
0.0
  0
LINE
  5
1A6
330
1E
100
AcDbEntity
  8
0
100
AcDbLine
 10
236.405622
 20
634.0
 30
0.0
 11
236.905622
 21
633.4999999999999
 31
0.0
  0
LINE
  5
1A7
330
1E
100
AcDbEntity
  8
0
100
AcDbLine
 10
240.905622
 20
600.0
 30
0.0
 11
240.905622
 21
595.0
 31
0.0
  0
LINE
  5
1A8
330
1E
100
AcDbEntity
  8
0
100
AcDbLine
 10
243.729622
 20
609.7
 30
0.0
 11
245.273622
 21
609.7
 31
0.0
  0
LINE
  5
1A9
330
1E
100
AcDbEntity
  8
0
100
AcDbLine
 10
246.6116219999999
 20
609.7
 30
0.0
 11
247.846622
 21
609.7
 31
0.0
  0
LINE
  5
1AA
330
1E
100
AcDbEntity
  8
0
100
AcDbLine
 10
245.273622
 20
609.7
 30
0.0
 11
246.6116219999999
 21
609.7
 31
0.0
  0
LINE
  5
1AB
330
1E
100
AcDbEntity
  8
0
100
AcDbLine
 10
247.846622
 20
609.7
 30
0.0
 11
248.773622
 21
609.7
 31
0.0
  0
LINE
  5
1AC
330
1E
100
AcDbEntity
  8
0
100
AcDbLine
 10
248.876622
 20
610.0
 30
0.0
 11
249.596622
 21
609.7
 31
0.0
  0
LINE
  5
1AD
330
1E
100
AcDbEntity
  8
0
100
AcDbLine
 10
248.773622
 20
609.7
 30
0.0
 11
249.3906219999999
 21
609.7
 31
0.0
  0
LINE
  5
1AE
330
1E
100
AcDbEntity
  8
0
100
AcDbLine
 10
249.3906219999999
 20
609.7
 30
0.0
 11
249.596622
 21
609.7
 31
0.0
  0
LINE
  5
1AF
330
1E
100
AcDbEntity
  8
0
100
AcDbLine
 10
249.905622
 20
609.0
 30
0.0
 11
249.905622
 21
600.0
 31
0.0
  0
LINE
  5
1B0
330
1E
100
AcDbEntity
  8
0
100
AcDbLine
 10
248.670622
 20
610.0
 30
0.0
 11
248.876622
 21
610.0
 31
0.0
  0
LINE
  5
1B1
330
1E
100
AcDbEntity
  8
0
100
AcDbLine
 10
248.155622
 20
610.0
 30
0.0
 11
248.670622
 21
610.0
 31
0.0
  0
LINE
  5
1B2
330
1E
100
AcDbEntity
  8
0
100
AcDbLine
 10
247.331622
 20
610.0
 30
0.0
 11
248.155622
 21
610.0
 31
0.0
  0
LINE
  5
1B3
330
1E
100
AcDbEntity
  8
0
100
AcDbLine
 10
246.302622
 20
610.0
 30
0.0
 11
247.331622
 21
610.0
 31
0.0
  0
LINE
  5
1B4
330
1E
100
AcDbEntity
  8
0
100
AcDbLine
 10
245.067622
 20
610.0
 30
0.0
 11
246.302622
 21
610.0
 31
0.0
  0
LINE
  5
1B5
330
1E
100
AcDbEntity
  8
0
100
AcDbLine
 10
238.565622
 20
616.0978
 30
0.0
 11
241.418622
 21
612.4022
 31
0.0
  0
LINE
  5
1B6
330
1E
100
AcDbEntity
  8
0
100
AcDbLine
 10
241.418622
 20
612.4022
 30
0.0
 11
242.905622
 21
610.0
 31
0.0
  0
LINE
  5
1B7
330
1E
100
AcDbEntity
  8
0
100
AcDbLine
 10
243.729622
 20
610.0
 30
0.0
 11
245.067622
 21
610.0
 31
0.0
  0
LINE
  5
1B8
330
1E
100
AcDbEntity
  8
0
100
AcDbLine
 10
236.905622
 20
633.4999999999999
 30
0.0
 11
236.905622
 21
617.6516015494641
 31
0.0
  0
LINE
  5
1B9
330
1E
100
AcDbEntity
  8
0
100
AcDbLine
 10
199.724622
 20
642.6258
 30
0.0
 11
200.137622
 21
642.9729
 31
0.0
  0
LINE
  5
1BA
330
1E
100
AcDbEntity
  8
0
100
AcDbLine
 10
199.234622
 20
642.6497
 30
0.0
 11
199.6476219999999
 21
642.9968
 31
0.0
  0
LINE
  5
1BB
330
1E
100
AcDbEntity
  8
0
100
AcDbLine
 10
199.6476219999999
 20
642.9968
 30
0.0
 11
200.137622
 21
642.9729
 31
0.0
  0
LINE
  5
1BC
330
1E
100
AcDbEntity
  8
0
100
AcDbLine
 10
200.137622
 20
642.9729
 30
0.0
 11
213.674739803544
 21
626.84054186477
 31
0.0
  0
LINE
  5
1BD
330
1E
100
AcDbEntity
  8
0
100
AcDbLine
 10
200.905622
 20
645.0
 30
0.0
 11
200.905622
 21
642.057664480323
 31
0.0
  0
LINE
  5
1BE
330
1E
100
AcDbEntity
  8
0
100
AcDbLine
 10
200.905622
 20
645.0
 30
0.0
 11
200.905622
 21
658.0
 31
0.0
  0
LINE
  5
1BF
330
1E
100
AcDbEntity
  8
0
100
AcDbLine
 10
200.905622
 20
645.0
 30
0.0
 11
200.905622
 21
647.4
 31
0.0
  0
LINE
  5
1C0
330
1E
100
AcDbEntity
  8
0
100
AcDbLine
 10
200.905622
 20
653.2
 30
0.0
 11
200.905622
 21
650.3999999999998
 31
0.0
  0
LINE
  5
1C1
330
1E
100
AcDbEntity
  8
0
100
AcDbLine
 10
200.905622
 20
653.2
 30
0.0
 11
200.905622
 21
655.7
 31
0.0
  0
LINE
  5
1C2
330
1E
100
AcDbEntity
  8
0
100
AcDbLine
 10
200.905622
 20
647.4
 30
0.0
 11
200.905622
 21
650.3999999999998
 31
0.0
  0
LINE
  5
1C3
330
1E
100
AcDbEntity
  8
0
100
AcDbLine
 10
200.905622
 20
647.4
 30
0.0
 11
200.905622
 21
645.0
 31
0.0
  0
LINE
  5
1EE
330
1E
100
AcDbEntity
  8
0
100
AcDbLine
 10
228.905622
 20
650.3999999999998
 30
0.0
 11
228.905622
 21
645.0
 31
0.0
  0
LINE
  5
1EF
330
1E
100
AcDbEntity
  8
0
100
AcDbLine
 10
228.905622
 20
645.0
 30
0.0
 11
228.905622
 21
623.386684192796
 31
0.0
  0
LINE
  5
1F0
330
1E
100
AcDbEntity
  8
0
100
AcDbLine
 10
228.905622
 20
645.0
 30
0.0
 11
228.905622
 21
650.3999999999998
 31
0.0
  0
LINE
  5
1F1
330
1E
100
AcDbEntity
  8
0
100
AcDbLine
 10
228.905622
 20
650.3999999999998
 30
0.0
 11
228.905622
 21
653.2
 31
0.0
  0
LINE
  5
1F7
330
1E
100
AcDbEntity
  8
0
100
AcDbLine
 10
228.905622
 20
657.2098999999998
 30
0.0
 11
228.905622
 21
653.2
 31
0.0
  0
LINE
  5
1F9
330
1E
100
AcDbEntity
  8
0
100
AcDbLine
 10
228.905622
 20
653.2
 30
0.0
 11
228.905622
 21
657.2098999999998
 31
0.0
  0
LINE
  5
1FA
330
1E
100
AcDbEntity
  8
0
100
AcDbLine
 10
228.905622
 20
653.2
 30
0.0
 11
228.905622
 21
650.3999999999998
 31
0.0
  0
LINE
  5
1FB
330
1E
100
AcDbEntity
  8
0
100
AcDbLine
 10
200.905622
 20
650.3999999999998
 30
0.0
 11
200.905622
 21
653.2
 31
0.0
  0
LINE
  5
1FC
330
1E
100
AcDbEntity
  8
0
100
AcDbLine
 10
200.905622
 20
650.3999999999998
 30
0.0
 11
200.905622
 21
647.4
 31
0.0
  0
LINE
  5
1FD
330
1E
100
AcDbEntity
  8
0
100
AcDbLine
 10
200.905622
 20
657.9195999999998
 30
0.0
 11
200.905622
 21
657.2098999999998
 31
0.0
  0
LINE
  5
1FE
330
1E
100
AcDbEntity
  8
0
100
AcDbLine
 10
200.905622
 20
657.9195999999998
 30
0.0
 11
200.905622
 21
658.1223999999998
 31
0.0
  0
LINE
  5
1FF
330
1E
100
AcDbEntity
  8
0
100
AcDbLine
 10
200.905622
 20
657.2098999999998
 30
0.0
 11
200.905622
 21
655.7
 31
0.0
  0
LINE
  5
200
330
1E
100
AcDbEntity
  8
0
100
AcDbLine
 10
200.905622
 20
657.2098999999998
 30
0.0
 11
200.905622
 21
657.9195999999998
 31
0.0
  0
LINE
  5
201
330
1E
100
AcDbEntity
  8
0
100
AcDbLine
 10
200.905622
 20
658.1941
 30
0.0
 11
200.905622
 21
658.0
 31
0.0
  0
LINE
  5
202
330
1E
100
AcDbEntity
  8
0
100
AcDbLine
 10
200.905622
 20
658.1941
 30
0.0
 11
200.905622
 21
658.1223999999998
 31
0.0
  0
LINE
  5
203
330
1E
100
AcDbEntity
  8
0
100
AcDbLine
 10
200.905622
 20
658.1941
 30
0.0
 11
200.905622
 21
659.5485
 31
0.0
  0
LINE
  5
204
330
1E
100
AcDbEntity
  8
0
100
AcDbLine
 10
200.905622
 20
658.1941
 30
0.0
 11
201.305622
 21
658.1941
 31
0.0
  0
LINE
  5
205
330
1E
100
AcDbEntity
  8
0
100
AcDbLine
 10
200.905622
 20
659.5485
 30
0.0
 11
201.1726219999999
 21
659.8193999999998
 31
0.0
  0
LINE
  5
206
330
1E
100
AcDbEntity
  8
0
100
AcDbLine
 10
200.905622
 20
659.5485
 30
0.0
 11
200.905622
 21
658.1941
 31
0.0
  0
LINE
  5
207
330
1E
100
AcDbEntity
  8
0
100
AcDbLine
 10
200.905622
 20
659.5485
 30
0.0
 11
201.305622
 21
659.5485
 31
0.0
  0
LINE
  5
208
330
1E
100
AcDbEntity
  8
0
100
AcDbLine
 10
200.905622
 20
658.1223999999998
 30
0.0
 11
200.905622
 21
658.1941
 31
0.0
  0
LINE
  5
209
330
1E
100
AcDbEntity
  8
0
100
AcDbLine
 10
200.905622
 20
658.1223999999998
 30
0.0
 11
200.905622
 21
657.9195999999998
 31
0.0
  0
LINE
  5
20A
330
1E
100
AcDbEntity
  8
0
100
AcDbLine
 10
200.905622
 20
658.1223999999998
 30
0.0
 11
200.905622
 21
658.0
 31
0.0
  0
LINE
  5
20B
330
1E
100
AcDbEntity
  8
0
100
AcDbLine
 10
200.905622
 20
658.0
 30
0.0
 11
200.905622
 21
659.4999999999998
 31
0.0
  0
LINE
  5
20C
330
1E
100
AcDbEntity
  8
0
100
AcDbLine
 10
200.905622
 20
658.0
 30
0.0
 11
200.905622
 21
645.0
 31
0.0
  0
LINE
  5
20D
330
1E
100
AcDbEntity
  8
0
100
AcDbLine
 10
200.905622
 20
658.0
 30
0.0
 11
200.905622
 21
658.1223999999998
 31
0.0
  0
LINE
  5
20E
330
1E
100
AcDbEntity
  8
0
100
AcDbLine
 10
200.905622
 20
658.0
 30
0.0
 11
200.905622
 21
658.1941
 31
0.0
  0
LINE
  5
21A
330
1E
100
AcDbEntity
  8
0
100
AcDbLine
 10
228.905622
 20
657.2098999999998
 30
0.0
 11
228.905622
 21
657.9195999999998
 31
0.0
  0
LINE
  5
21B
330
1E
100
AcDbEntity
  8
0
100
AcDbLine
 10
228.905622
 20
657.9195999999998
 30
0.0
 11
228.905622
 21
658.1223999999998
 31
0.0
  0
LINE
  5
21C
330
1E
100
AcDbEntity
  8
0
100
AcDbLine
 10
228.905622
 20
657.9195999999998
 30
0.0
 11
228.905622
 21
657.2098999999998
 31
0.0
  0
LINE
  5
21E
330
1E
100
AcDbEntity
  8
0
100
AcDbLine
 10
201.305622
 20
658.1941
 30
0.0
 11
202.7726219999999
 21
658.1941
 31
0.0
  0
LINE
  5
21F
330
1E
100
AcDbEntity
  8
0
100
AcDbLine
 10
202.7726219999999
 20
658.1941
 30
0.0
 11
204.9056219999999
 21
658.1941
 31
0.0
  0
LINE
  5
220
330
1E
100
AcDbEntity
  8
0
100
AcDbLine
 10
201.305622
 20
659.5485
 30
0.0
 11
202.7726219999999
 21
659.5485
 31
0.0
  0
LINE
  5
221
330
1E
100
AcDbEntity
  8
0
100
AcDbLine
 10
202.7726219999999
 20
659.5485
 30
0.0
 11
204.9056219999999
 21
659.5485
 31
0.0
  0
LINE
  5
222
330
1E
100
AcDbEntity
  8
0
100
AcDbLine
 10
204.9056219999999
 20
659.5485
 30
0.0
 11
207.9726219999999
 21
659.5485
 31
0.0
  0
LINE
  5
223
330
1E
100
AcDbEntity
  8
0
100
AcDbLine
 10
207.9726219999999
 20
659.5485
 30
0.0
 11
211.305622
 21
659.5485
 31
0.0
  0
LINE
  5
224
330
1E
100
AcDbEntity
  8
0
100
AcDbLine
 10
211.305622
 20
659.5485
 30
0.0
 11
214.905622
 21
659.5485
 31
0.0
  0
LINE
  5
225
330
1E
100
AcDbEntity
  8
0
100
AcDbLine
 10
204.9056219999999
 20
658.1941
 30
0.0
 11
221.838622
 21
658.1941
 31
0.0
  0
LINE
  5
226
330
1E
100
AcDbEntity
  8
0
100
AcDbLine
 10
221.838622
 20
659.5485
 30
0.0
 11
224.905622
 21
659.5485
 31
0.0
  0
LINE
  5
227
330
1E
100
AcDbEntity
  8
0
100
AcDbLine
 10
218.505622
 20
659.5485
 30
0.0
 11
221.838622
 21
659.5485
 31
0.0
  0
LINE
  5
228
330
1E
100
AcDbEntity
  8
0
100
AcDbLine
 10
214.905622
 20
659.5485
 30
0.0
 11
218.505622
 21
659.5485
 31
0.0
  0
LINE
  5
229
330
1E
100
AcDbEntity
  8
0
100
AcDbLine
 10
227.038622
 20
658.1941
 30
0.0
 11
228.505622
 21
658.1941
 31
0.0
  0
LINE
  5
22A
330
1E
100
AcDbEntity
  8
0
100
AcDbLine
 10
227.038622
 20
659.5485
 30
0.0
 11
228.505622
 21
659.5485
 31
0.0
  0
LINE
  5
22B
330
1E
100
AcDbEntity
  8
0
100
AcDbLine
 10
224.905622
 20
659.5485
 30
0.0
 11
227.038622
 21
659.5485
 31
0.0
  0
LINE
  5
22C
330
1E
100
AcDbEntity
  8
0
100
AcDbLine
 10
224.905622
 20
658.1941
 30
0.0
 11
227.038622
 21
658.1941
 31
0.0
  0
LINE
  5
22D
330
1E
100
AcDbEntity
  8
0
100
AcDbLine
 10
221.838622
 20
658.1941
 30
0.0
 11
224.905622
 21
658.1941
 31
0.0
  0
LINE
  5
22E
330
1E
100
AcDbEntity
  8
0
100
AcDbLine
 10
202.105622
 20
660.0
 30
0.0
 11
203.305622
 21
660.0
 31
0.0
  0
LINE
  5
22F
330
1E
100
AcDbEntity
  8
0
100
AcDbLine
 10
203.305622
 20
660.0
 30
0.0
 11
205.438622
 21
660.0
 31
0.0
  0
LINE
  5
230
330
1E
100
AcDbEntity
  8
0
100
AcDbLine
 10
205.438622
 20
660.0
 30
0.0
 11
208.238622
 21
660.0
 31
0.0
  0
LINE
  5
231
330
1E
100
AcDbEntity
  8
0
100
AcDbLine
 10
208.238622
 20
660.0
 30
0.0
 11
211.438622
 21
660.0
 31
0.0
  0
LINE
  5
232
330
1E
100
AcDbEntity
  8
0
100
AcDbLine
 10
211.438622
 20
660.0
 30
0.0
 11
214.905622
 21
660.0
 31
0.0
  0
LINE
  5
233
330
1E
100
AcDbEntity
  8
0
100
AcDbLine
 10
227.705622
 20
660.0
 30
0.0
 11
228.238622
 21
660.0
 31
0.0
  0
LINE
  5
234
330
1E
100
AcDbEntity
  8
0
100
AcDbLine
 10
226.505622
 20
660.0
 30
0.0
 11
227.705622
 21
660.0
 31
0.0
  0
LINE
  5
235
330
1E
100
AcDbEntity
  8
0
100
AcDbLine
 10
224.372622
 20
660.0
 30
0.0
 11
226.505622
 21
660.0
 31
0.0
  0
LINE
  5
236
330
1E
100
AcDbEntity
  8
0
100
AcDbLine
 10
221.572622
 20
660.0
 30
0.0
 11
224.372622
 21
660.0
 31
0.0
  0
LINE
  5
237
330
1E
100
AcDbEntity
  8
0
100
AcDbLine
 10
218.372622
 20
660.0
 30
0.0
 11
221.572622
 21
660.0
 31
0.0
  0
LINE
  5
238
330
1E
100
AcDbEntity
  8
0
100
AcDbLine
 10
214.905622
 20
660.0
 30
0.0
 11
218.372622
 21
660.0
 31
0.0
  0
LINE
  5
239
330
1E
100
AcDbEntity
  8
0
100
AcDbLine
 10
201.5726219999999
 20
660.0
 30
0.0
 11
202.105622
 21
660.0
 31
0.0
  0
LINE
  5
23A
330
1E
100
AcDbEntity
  8
0
100
AcDbLine
 10
201.1726219999999
 20
659.8193999999998
 30
0.0
 11
201.5726219999999
 21
660.0
 31
0.0
  0
LINE
  5
23B
330
1E
100
AcDbEntity
  8
0
100
AcDbLine
 10
228.505622
 20
659.5485
 30
0.0
 11
228.905622
 21
659.5485
 31
0.0
  0
LINE
  5
23C
330
1E
100
AcDbEntity
  8
0
100
AcDbLine
 10
228.505622
 20
658.1941
 30
0.0
 11
228.905622
 21
658.1941
 31
0.0
  0
LINE
  5
23D
330
1E
100
AcDbEntity
  8
0
100
AcDbLine
 10
228.905622
 20
658.1941
 30
0.0
 11
228.905622
 21
658.0
 31
0.0
  0
LINE
  5
23E
330
1E
100
AcDbEntity
  8
0
100
AcDbLine
 10
228.905622
 20
658.1941
 30
0.0
 11
228.905622
 21
659.5485
 31
0.0
  0
LINE
  5
23F
330
1E
100
AcDbEntity
  8
0
100
AcDbLine
 10
228.905622
 20
667.0
 30
0.0
 11
230.905622
 21
667.0
 31
0.0
  0
LINE
  5
240
330
1E
100
AcDbEntity
  8
0
100
AcDbLine
 10
228.638622
 20
659.8193999999998
 30
0.0
 11
228.905622
 21
659.5485
 31
0.0
  0
LINE
  5
241
330
1E
100
AcDbEntity
  8
0
100
AcDbLine
 10
228.238622
 20
660.0
 30
0.0
 11
228.638622
 21
659.8193999999998
 31
0.0
  0
LINE
  5
242
330
1E
100
AcDbEntity
  8
0
100
AcDbLine
 10
228.905622
 20
658.1223999999998
 30
0.0
 11
228.905622
 21
658.1941
 31
0.0
  0
LINE
  5
243
330
1E
100
AcDbEntity
  8
0
100
AcDbLine
 10
228.905622
 20
658.1223999999998
 30
0.0
 11
228.905622
 21
657.9195999999998
 31
0.0
  0
LINE
  5
244
330
1E
100
AcDbEntity
  8
0
100
AcDbLine
 10
200.905622
 20
659.4999999999998
 30
0.0
 11
200.905622
 21
658.0
 31
0.0
  0
LINE
  5
245
330
1E
100
AcDbEntity
  8
0
100
AcDbLine
 10
200.905622
 20
655.7
 30
0.0
 11
200.905622
 21
657.2098999999998
 31
0.0
  0
LINE
  5
246
330
1E
100
AcDbEntity
  8
0
100
AcDbLine
 10
200.905622
 20
655.7
 30
0.0
 11
200.905622
 21
653.2
 31
0.0
  0
LINE
  5
247
330
1E
100
AcDbEntity
  8
0
100
AcDbLine
 10
228.905622
 20
659.5485
 30
0.0
 11
228.905622
 21
672.8919999999998
 31
0.0
  0
LINE
  5
248
330
1E
100
AcDbEntity
  8
0
100
AcDbLine
 10
228.905622
 20
659.5485
 30
0.0
 11
228.905622
 21
658.1941
 31
0.0
  0
LINE
  5
249
330
1E
100
AcDbEntity
  8
0
100
AcDbLine
 10
185.6476219999999
 20
847.9409999999997
 30
0.0
 11
189.4826219999999
 21
844.5769999999999
 31
0.0
  0
LINE
  5
24A
330
1E
100
AcDbEntity
  8
0
100
AcDbLine
 10
187.545622
 20
878.8999999999999
 30
0.0
 11
195.405622
 21
875.0239999999999
 31
0.0
  0
LINE
  5
24B
330
1E
100
AcDbEntity
  8
0
100
AcDbLine
 10
181.4056219999999
 20
850.7749999999997
 30
0.0
 11
185.6476219999999
 21
847.9409999999997
 31
0.0
  0
LINE
  5
24C
330
1E
100
AcDbEntity
  8
0
100
AcDbLine
 10
197.9366219999999
 20
831.925
 30
0.0
 11
199.5766219999999
 21
827.0939999999997
 31
0.0
  0
LINE
  5
24D
330
1E
100
AcDbEntity
  8
0
100
AcDbLine
 10
195.6806219999999
 20
836.5
 30
0.0
 11
197.9366219999999
 21
831.925
 31
0.0
  0
LINE
  5
24E
330
1E
100
AcDbEntity
  8
0
100
AcDbLine
 10
199.5766219999999
 20
827.0939999999997
 30
0.0
 11
200.571622
 21
822.0909999999999
 31
0.0
  0
LINE
  5
24F
330
1E
100
AcDbEntity
  8
0
100
AcDbLine
 10
200.571622
 20
822.0909999999999
 30
0.0
 11
200.905622
 21
817.0
 31
0.0
  0
LINE
  5
250
330
1E
100
AcDbEntity
  8
0
100
AcDbLine
 10
192.8466219999999
 20
840.742
 30
0.0
 11
195.6806219999999
 21
836.5
 31
0.0
  0
LINE
  5
251
330
1E
100
AcDbEntity
  8
0
100
AcDbLine
 10
228.905622
 20
673.0
 30
0.0
 11
230.905622
 21
673.0
 31
0.0
  0
LINE
  5
252
330
1E
100
AcDbEntity
  8
0
100
AcDbLine
 10
228.905622
 20
672.8919999999998
 30
0.0
 11
228.905622
 21
817.0
 31
0.0
  0
LINE
  5
253
330
1E
100
AcDbEntity
  8
0
100
AcDbLine
 10
223.805622
 20
842.6399999999999
 30
0.0
 11
226.622622
 21
834.341
 31
0.0
  0
LINE
  5
254
330
1E
100
AcDbEntity
  8
0
100
AcDbLine
 10
219.929622
 20
850.5
 30
0.0
 11
223.805622
 21
842.6399999999999
 31
0.0
  0
LINE
  5
255
330
1E
100
AcDbEntity
  8
0
100
AcDbLine
 10
226.622622
 20
834.341
 30
0.0
 11
228.332622
 21
825.745
 31
0.0
  0
LINE
  5
256
330
1E
100
AcDbEntity
  8
0
100
AcDbLine
 10
228.332622
 20
825.745
 30
0.0
 11
228.905622
 21
817.0
 31
0.0
  0
LINE
  5
257
330
1E
100
AcDbEntity
  8
0
100
AcDbLine
 10
215.060622
 20
857.7869999999997
 30
0.0
 11
219.929622
 21
850.5
 31
0.0
  0
LINE
  5
258
330
1E
100
AcDbEntity
  8
0
100
AcDbLine
 10
202.692622
 20
870.1549999999999
 30
0.0
 11
209.281622
 21
864.376
 31
0.0
  0
LINE
  5
259
330
1E
100
AcDbEntity
  8
0
100
AcDbLine
 10
195.405622
 20
875.0239999999999
 30
0.0
 11
202.692622
 21
870.1549999999999
 31
0.0
  0
LINE
  5
25A
330
1E
100
AcDbEntity
  8
0
100
AcDbLine
 10
209.281622
 20
864.376
 30
0.0
 11
215.060622
 21
857.7869999999997
 31
0.0
  0
LINE
  5
25B
330
1E
100
AcDbEntity
  8
0
100
AcDbLine
 10
189.4826219999999
 20
844.5769999999999
 30
0.0
 11
192.8466219999999
 21
840.742
 31
0.0
  0
LINE
  5
25C
330
1E
100
AcDbEntity
  8
0
100
AcDbLine
 10
228.905622
 20
672.8919999999998
 30
0.0
 11
228.905622
 21
659.5485
 31
0.0
  0
LINE
  5
25D
330
1E
100
AcDbEntity
  8
0
100
AcDbLine
 10
231.136622
 20
666.0
 30
0.0
 11
242.674622
 21
666.0
 31
0.0
  0
LINE
  5
25E
330
1E
100
AcDbEntity
  8
0
100
AcDbLine
 10
230.905622
 20
666.6239999999998
 30
0.0
 11
230.905622
 21
667.248
 31
0.0
  0
LINE
  5
25F
330
1E
100
AcDbEntity
  8
0
100
AcDbLine
 10
230.905622
 20
666.6239999999998
 30
0.0
 11
230.905622
 21
666.2399999999998
 31
0.0
  0
LINE
  5
260
330
1E
100
AcDbEntity
  8
0
100
AcDbLine
 10
230.905622
 20
666.6239999999998
 30
0.0
 11
230.905622
 21
667.0
 31
0.0
  0
LINE
  5
261
330
1E
100
AcDbEntity
  8
0
100
AcDbLine
 10
230.905622
 20
666.2399999999998
 30
0.0
 11
230.905622
 21
666.6239999999998
 31
0.0
  0
LINE
  5
262
330
1E
100
AcDbEntity
  8
0
100
AcDbLine
 10
230.905622
 20
666.2399999999998
 30
0.0
 11
230.905622
 21
666.096
 31
0.0
  0
LINE
  5
263
330
1E
100
AcDbEntity
  8
0
100
AcDbLine
 10
230.905622
 20
666.096
 30
0.0
 11
230.905622
 21
666.2399999999998
 31
0.0
  0
LINE
  5
264
330
1E
100
AcDbEntity
  8
0
100
AcDbLine
 10
230.905622
 20
666.096
 30
0.0
 11
231.136622
 21
666.0
 31
0.0
  0
LINE
  5
265
330
1E
100
AcDbEntity
  8
0
100
AcDbLine
 10
242.905622
 20
666.096
 30
0.0
 11
242.905622
 21
666.2399999999998
 31
0.0
  0
LINE
  5
266
330
1E
100
AcDbEntity
  8
0
100
AcDbLine
 10
230.905622
 20
667.8760000000002
 30
0.0
 11
230.905622
 21
668.5119999999998
 31
0.0
  0
LINE
  5
267
330
1E
100
AcDbEntity
  8
0
100
AcDbLine
 10
230.905622
 20
667.3960000000001
 30
0.0
 11
230.905622
 21
667.8760000000002
 31
0.0
  0
LINE
  5
268
330
1E
100
AcDbEntity
  8
0
100
AcDbLine
 10
230.905622
 20
667.108
 30
0.0
 11
230.905622
 21
667.3960000000001
 31
0.0
  0
LINE
  5
269
330
1E
100
AcDbEntity
  8
0
100
AcDbLine
 10
230.905622
 20
667.0
 30
0.0
 11
230.905622
 21
666.6239999999998
 31
0.0
  0
LINE
  5
26A
330
1E
100
AcDbEntity
  8
0
100
AcDbLine
 10
230.905622
 20
667.0
 30
0.0
 11
230.905622
 21
667.108
 31
0.0
  0
LINE
  5
26B
330
1E
100
AcDbEntity
  8
0
100
AcDbLine
 10
230.905622
 20
668.0639999999998
 30
0.0
 11
230.905622
 21
668.9919999999998
 31
0.0
  0
LINE
  5
26C
330
1E
100
AcDbEntity
  8
0
100
AcDbLine
 10
230.905622
 20
668.0639999999998
 30
0.0
 11
230.905622
 21
667.248
 31
0.0
  0
LINE
  5
26D
330
1E
100
AcDbEntity
  8
0
100
AcDbLine
 10
230.905622
 20
667.248
 30
0.0
 11
230.905622
 21
668.0639999999998
 31
0.0
  0
LINE
  5
26E
330
1E
100
AcDbEntity
  8
0
100
AcDbLine
 10
230.905622
 20
667.248
 30
0.0
 11
230.905622
 21
666.6239999999998
 31
0.0
  0
LINE
  5
26F
330
1E
100
AcDbEntity
  8
0
100
AcDbLine
 10
230.905622
 20
669.2319999999998
 30
0.0
 11
230.905622
 21
670.0
 31
0.0
  0
LINE
  5
270
330
1E
100
AcDbEntity
  8
0
100
AcDbLine
 10
230.905622
 20
668.5119999999998
 30
0.0
 11
230.905622
 21
669.2319999999998
 31
0.0
  0
LINE
  5
271
330
1E
100
AcDbEntity
  8
0
100
AcDbLine
 10
230.905622
 20
670.0
 30
0.0
 11
230.905622
 21
668.9919999999998
 31
0.0
  0
LINE
  5
272
330
1E
100
AcDbEntity
  8
0
100
AcDbLine
 10
230.905622
 20
670.0
 30
0.0
 11
230.905622
 21
671.008
 31
0.0
  0
LINE
  5
273
330
1E
100
AcDbEntity
  8
0
100
AcDbLine
 10
230.905622
 20
670.0
 30
0.0
 11
230.905622
 21
670.768
 31
0.0
  0
LINE
  5
274
330
1E
100
AcDbEntity
  8
0
100
AcDbLine
 10
230.905622
 20
668.9919999999998
 30
0.0
 11
230.905622
 21
670.0
 31
0.0
  0
LINE
  5
275
330
1E
100
AcDbEntity
  8
0
100
AcDbLine
 10
230.905622
 20
668.9919999999998
 30
0.0
 11
230.905622
 21
668.0639999999998
 31
0.0
  0
LINE
  5
276
330
1E
100
AcDbEntity
  8
0
100
AcDbLine
 10
230.905622
 20
670.768
 30
0.0
 11
230.905622
 21
671.488
 31
0.0
  0
LINE
  5
277
330
1E
100
AcDbEntity
  8
0
100
AcDbLine
 10
230.905622
 20
671.488
 30
0.0
 11
230.905622
 21
672.1239999999998
 31
0.0
  0
LINE
  5
278
330
1E
100
AcDbEntity
  8
0
100
AcDbLine
 10
230.905622
 20
671.008
 30
0.0
 11
230.905622
 21
671.936
 31
0.0
  0
LINE
  5
279
330
1E
100
AcDbEntity
  8
0
100
AcDbLine
 10
230.905622
 20
671.008
 30
0.0
 11
230.905622
 21
670.0
 31
0.0
  0
LINE
  5
27A
330
1E
100
AcDbEntity
  8
0
100
AcDbLine
 10
230.905622
 20
672.1239999999998
 30
0.0
 11
230.905622
 21
672.6039999999998
 31
0.0
  0
LINE
  5
27B
330
1E
100
AcDbEntity
  8
0
100
AcDbLine
 10
230.905622
 20
672.6039999999998
 30
0.0
 11
230.905622
 21
672.8919999999998
 31
0.0
  0
LINE
  5
27C
330
1E
100
AcDbEntity
  8
0
100
AcDbLine
 10
230.905622
 20
672.8919999999998
 30
0.0
 11
230.905622
 21
673.0
 31
0.0
  0
LINE
  5
27D
330
1E
100
AcDbEntity
  8
0
100
AcDbLine
 10
230.905622
 20
673.0
 30
0.0
 11
230.905622
 21
673.3760000000001
 31
0.0
  0
LINE
  5
27E
330
1E
100
AcDbEntity
  8
0
100
AcDbLine
 10
230.905622
 20
671.936
 30
0.0
 11
230.905622
 21
672.7519999999998
 31
0.0
  0
LINE
  5
27F
330
1E
100
AcDbEntity
  8
0
100
AcDbLine
 10
230.905622
 20
671.936
 30
0.0
 11
230.905622
 21
671.008
 31
0.0
  0
LINE
  5
280
330
1E
100
AcDbEntity
  8
0
100
AcDbLine
 10
230.905622
 20
672.7519999999998
 30
0.0
 11
230.905622
 21
673.3760000000001
 31
0.0
  0
LINE
  5
281
330
1E
100
AcDbEntity
  8
0
100
AcDbLine
 10
230.905622
 20
672.7519999999998
 30
0.0
 11
230.905622
 21
671.936
 31
0.0
  0
LINE
  5
282
330
1E
100
AcDbEntity
  8
0
100
AcDbLine
 10
230.905622
 20
673.3760000000001
 30
0.0
 11
230.905622
 21
673.76
 31
0.0
  0
LINE
  5
283
330
1E
100
AcDbEntity
  8
0
100
AcDbLine
 10
230.905622
 20
673.3760000000001
 30
0.0
 11
230.905622
 21
672.7519999999998
 31
0.0
  0
LINE
  5
284
330
1E
100
AcDbEntity
  8
0
100
AcDbLine
 10
230.905622
 20
673.3760000000001
 30
0.0
 11
230.905622
 21
673.0
 31
0.0
  0
LINE
  5
285
330
1E
100
AcDbEntity
  8
0
100
AcDbLine
 10
230.905622
 20
673.76
 30
0.0
 11
230.905622
 21
673.904
 31
0.0
  0
LINE
  5
286
330
1E
100
AcDbEntity
  8
0
100
AcDbLine
 10
230.905622
 20
673.76
 30
0.0
 11
230.905622
 21
673.3760000000001
 31
0.0
  0
LINE
  5
287
330
1E
100
AcDbEntity
  8
0
100
AcDbLine
 10
230.905622
 20
673.904
 30
0.0
 11
231.136622
 21
674.0
 31
0.0
  0
LINE
  5
288
330
1E
100
AcDbEntity
  8
0
100
AcDbLine
 10
230.905622
 20
673.904
 30
0.0
 11
230.905622
 21
673.76
 31
0.0
  0
LINE
  5
289
330
1E
100
AcDbEntity
  8
0
100
AcDbLine
 10
242.905622
 20
671.008
 30
0.0
 11
242.905622
 21
670.0
 31
0.0
  0
LINE
  5
28A
330
1E
100
AcDbEntity
  8
0
100
AcDbLine
 10
242.905622
 20
671.008
 30
0.0
 11
242.905622
 21
671.936
 31
0.0
  0
LINE
  5
28B
330
1E
100
AcDbEntity
  8
0
100
AcDbLine
 10
242.905622
 20
671.936
 30
0.0
 11
242.905622
 21
671.008
 31
0.0
  0
LINE
  5
28C
330
1E
100
AcDbEntity
  8
0
100
AcDbLine
 10
242.905622
 20
671.936
 30
0.0
 11
242.905622
 21
672.7519999999998
 31
0.0
  0
LINE
  5
28D
330
1E
100
AcDbEntity
  8
0
100
AcDbLine
 10
242.905622
 20
672.7519999999998
 30
0.0
 11
242.905622
 21
671.936
 31
0.0
  0
LINE
  5
28E
330
1E
100
AcDbEntity
  8
0
100
AcDbLine
 10
242.905622
 20
672.7519999999998
 30
0.0
 11
242.905622
 21
673.3760000000001
 31
0.0
  0
LINE
  5
28F
330
1E
100
AcDbEntity
  8
0
100
AcDbLine
 10
242.905622
 20
673.3760000000001
 30
0.0
 11
242.905622
 21
672.7519999999998
 31
0.0
  0
LINE
  5
290
330
1E
100
AcDbEntity
  8
0
100
AcDbLine
 10
242.905622
 20
673.3760000000001
 30
0.0
 11
242.905622
 21
673.76
 31
0.0
  0
LINE
  5
291
330
1E
100
AcDbEntity
  8
0
100
AcDbLine
 10
242.905622
 20
673.76
 30
0.0
 11
242.905622
 21
673.3760000000001
 31
0.0
  0
LINE
  5
292
330
1E
100
AcDbEntity
  8
0
100
AcDbLine
 10
242.905622
 20
673.76
 30
0.0
 11
242.905622
 21
673.904
 31
0.0
  0
LINE
  5
293
330
1E
100
AcDbEntity
  8
0
100
AcDbLine
 10
242.674622
 20
674.0
 30
0.0
 11
242.905622
 21
673.904
 31
0.0
  0
LINE
  5
294
330
1E
100
AcDbEntity
  8
0
100
AcDbLine
 10
242.905622
 20
673.904
 30
0.0
 11
242.905622
 21
673.76
 31
0.0
  0
LINE
  5
295
330
1E
100
AcDbEntity
  8
0
100
AcDbLine
 10
231.136622
 20
674.0
 30
0.0
 11
242.674622
 21
674.0
 31
0.0
  0
LINE
  5
296
330
1E
100
AcDbEntity
  8
0
100
AcDbLine
 10
242.905622
 20
670.0
 30
0.0
 11
242.905622
 21
668.9919999999998
 31
0.0
  0
LINE
  5
297
330
1E
100
AcDbEntity
  8
0
100
AcDbLine
 10
242.905622
 20
670.0
 30
0.0
 11
242.905622
 21
671.008
 31
0.0
  0
LINE
  5
298
330
1E
100
AcDbEntity
  8
0
100
AcDbLine
 10
242.905622
 20
668.9919999999998
 30
0.0
 11
242.905622
 21
668.0639999999998
 31
0.0
  0
LINE
  5
299
330
1E
100
AcDbEntity
  8
0
100
AcDbLine
 10
242.905622
 20
668.9919999999998
 30
0.0
 11
242.905622
 21
670.0
 31
0.0
  0
LINE
  5
29A
330
1E
100
AcDbEntity
  8
0
100
AcDbLine
 10
242.905622
 20
668.0639999999998
 30
0.0
 11
242.905622
 21
667.248
 31
0.0
  0
LINE
  5
29B
330
1E
100
AcDbEntity
  8
0
100
AcDbLine
 10
242.905622
 20
668.0639999999998
 30
0.0
 11
242.905622
 21
668.9919999999998
 31
0.0
  0
LINE
  5
29C
330
1E
100
AcDbEntity
  8
0
100
AcDbLine
 10
242.905622
 20
667.248
 30
0.0
 11
242.905622
 21
666.6239999999998
 31
0.0
  0
LINE
  5
29D
330
1E
100
AcDbEntity
  8
0
100
AcDbLine
 10
242.905622
 20
667.248
 30
0.0
 11
242.905622
 21
668.0639999999998
 31
0.0
  0
LINE
  5
29E
330
1E
100
AcDbEntity
  8
0
100
AcDbLine
 10
242.905622
 20
666.6239999999998
 30
0.0
 11
242.905622
 21
666.2399999999998
 31
0.0
  0
LINE
  5
29F
330
1E
100
AcDbEntity
  8
0
100
AcDbLine
 10
242.905622
 20
666.6239999999998
 30
0.0
 11
242.905622
 21
667.248
 31
0.0
  0
LINE
  5
2A0
330
1E
100
AcDbEntity
  8
0
100
AcDbLine
 10
242.905622
 20
666.2399999999998
 30
0.0
 11
242.905622
 21
666.096
 31
0.0
  0
LINE
  5
2A1
330
1E
100
AcDbEntity
  8
0
100
AcDbLine
 10
242.905622
 20
666.2399999999998
 30
0.0
 11
242.905622
 21
666.6239999999998
 31
0.0
  0
LINE
  5
2A2
330
1E
100
AcDbEntity
  8
0
100
AcDbLine
 10
242.674622
 20
666.0
 30
0.0
 11
242.905622
 21
666.096
 31
0.0
  0
LINE
  5
2A3
330
1E
100
AcDbEntity
  8
0
100
AcDbLine
 10
228.905622
 20
817.0
 30
0.0
 11
228.905622
 21
672.8919999999998
 31
0.0
  0
LINE
  5
2A4
330
1E
100
AcDbEntity
  8
0
100
AcDbLine
 10
200.905622
 20
642.057664480323
 30
0.0
 11
200.905622
 21
817.0
 31
0.0
  0
LINE
  5
2A5
330
1E
100
AcDbEntity
  8
0
100
AcDbLine
 10
200.905622
 20
642.057664480323
 30
0.0
 11
200.905622
 21
645.0
 31
0.0
  0
LINE
  5
2A6
330
1E
100
AcDbEntity
  8
0
100
AcDbLine
 10
180.214622
 20
609.7
 30
0.0
 11
180.420622
 21
609.7
 31
0.0
  0
LINE
  5
2A7
330
1E
100
AcDbEntity
  8
0
100
AcDbLine
 10
180.111622
 20
600.0
 30
0.0
 11
180.7296219999999
 21
600.0
 31
0.0
  0
LINE
  5
2A8
330
1E
100
AcDbEntity
  8
0
100
AcDbLine
 10
179.9056219999999
 20
600.0
 30
0.0
 11
180.111622
 21
600.0
 31
0.0
  0
LINE
  5
2A9
330
1E
100
AcDbEntity
  8
0
100
AcDbLine
 10
179.9056219999999
 20
600.0
 30
0.0
 11
179.9056219999999
 21
609.0
 31
0.0
  0
LINE
  5
2AE
330
1E
100
AcDbEntity
  8
0
100
AcDbLine
 10
200.905622
 20
658.0
 30
0.0
 11
201.2844641095624
 21
652.4253719580968
 31
0.0
  0
LINE
  5
2AF
330
1E
100
AcDbEntity
  8
0
100
AcDbLine
 10
201.2844641095624
 20
652.4253719580968
 30
0.0
 11
202.6798588480478
 21
649.1051727880533
 31
0.0
  0
LINE
  5
2B0
330
1E
100
AcDbEntity
  8
0
100
AcDbLine
 10
202.6798588480478
 20
649.1051727880533
 30
0.0
 11
204.8726214030502
 21
647.511479011566
 31
0.0
  0
LINE
  5
2B1
330
1E
100
AcDbEntity
  8
0
100
AcDbLine
 10
204.8726214030502
 20
647.511479011566
 30
0.0
 11
208.1949894243653
 21
646.1169964386356
 31
0.0
  0
LINE
  5
2B2
330
1E
100
AcDbEntity
  8
0
100
AcDbLine
 10
208.1949894243653
 20
646.1169964386356
 30
0.0
 11
211.7166983402294
 21
645.9177831610634
 31
0.0
  0
LINE
  5
2B3
330
1E
100
AcDbEntity
  8
0
100
AcDbLine
 10
211.7166983402294
 20
645.9177831610634
 30
0.0
 11
217.6969590832686
 21
645.8513794265442
 31
0.0
  0
LINE
  5
2B4
330
1E
100
AcDbEntity
  8
0
100
AcDbLine
 10
217.6969590832686
 20
645.8513794265442
 30
0.0
 11
221.9495874380271
 21
646.3162076421923
 31
0.0
  0
LINE
  5
2B5
330
1E
100
AcDbEntity
  8
0
100
AcDbLine
 10
221.9495874380271
 20
646.3162076421923
 30
0.0
 11
225.1390629424158
 21
647.6442864806037
 31
0.0
  0
LINE
  5
2B6
330
1E
100
AcDbEntity
  8
0
100
AcDbLine
 10
225.1390629424158
 20
647.6442864806037
 30
0.0
 11
227.0660319869265
 21
649.1715785965872
 31
0.0
  0
LINE
  5
2B7
330
1E
100
AcDbEntity
  8
0
100
AcDbLine
 10
227.0660319869265
 20
649.1715785965872
 30
0.0
 11
228.5278751030346
 21
652.4917756926157
 31
0.0
  0
LINE
  5
2B8
330
1E
100
AcDbEntity
  8
0
100
AcDbLine
 10
228.5278751030346
 20
652.4917756926157
 30
0.0
 11
228.905622
 21
657.9195999999998
 31
0.0
  0
LINE
  5
2B9
330
1E
100
AcDbEntity
  8
0
100
AcDbLine
 10
179.9056219999999
 20
609.0
 30
0.0
 11
180.214622
 21
609.7
 31
0.0
  0
LINE
  5
2BA
330
1E
100
AcDbEntity
  8
0
100
AcDbLine
 10
180.214622
 20
609.7
 30
0.0
 11
180.9346219999999
 21
610.0
 31
0.0
  0
LINE
  5
2BB
330
1E
100
AcDbEntity
  8
0
100
AcDbLine
 10
249.905622
 20
609.0
 30
0.0
 11
249.596622
 21
609.7
 31
0.0
  0
ENDSEC
  0
SECTION
  2
OBJECTS
  0
DICTIONARY
  5
C
330
0
100
AcDbDictionary
  3
ACAD_GROUP
350
D
  3
ACAD_LAYOUT
350
19
  3
ACAD_MLINESTYLE
350
16
  3
ACAD_PLOTSETTINGS
350
18
  3
ACAD_PLOTSTYLENAME
350
E
  3
ACDBHEADERROUNDTRIPXREC
350
2C7
  3
ACDBVARIABLEDICTIONARY
350
2BC
  0
DICTIONARY
  5
2E9
330
1E
100
AcDbDictionary
280
     1
  3
ACAD_LAYOUTSELFREF
360
2EA
  0
DICTIONARY
  5
2E7
330
1A
100
AcDbDictionary
280
     1
  3
ACAD_LAYOUTSELFREF
360
2E8
  0
DICTIONARY
  5
D
102
{ACAD_REACTORS
330
C
102
}
330
C
100
AcDbDictionary
  0
DICTIONARY
  5
19
102
{ACAD_REACTORS
330
C
102
}
330
C
100
AcDbDictionary
  0
DICTIONARY
  5
16
102
{ACAD_REACTORS
330
C
102
}
330
C
100
AcDbDictionary
  3
STANDARD
350
17
  0
DICTIONARY
  5
18
102
{ACAD_REACTORS
330
C
102
}
330
C
100
AcDbDictionary
  0
ACDBDICTIONARYWDFLT
  5
E
102
{ACAD_REACTORS
330
C
102
}
330
C
100
AcDbDictionary
281
     1
  3
Normal
350
F
100
AcDbDictionaryWithDefault
340
F
  0
DICTIONARY
  5
2C7
102
{ACAD_REACTORS
330
C
102
}
330
C
100
AcDbDictionary
  3
CEPSNTYPE
350
2D1
  3
FINGERPRINTGUID
350
2D2
  3
HYPERLINKBASE
350
2CA
  3
INSUNITS
350
2D0
  3
LAYOUTDICT
350
2CC
  3
LWETCUNION
350
2CF
  3
PLOTSETDICT
350
2CD
  3
PLOTSTYLNAMDICT
350
2CE
  3
PSVPSCALE
350
2D4
  3
PUCSBASE
350
2D7
  3
PUCSORGBACK
350
2DD
  3
PUCSORGBOTTOM
350
2D9
  3
PUCSORGFRONT
350
2DC
  3
PUCSORGLEFT
350
2DA
  3
PUCSORGRIGHT
350
2DB
  3
PUCSORGTOP
350
2D8
  3
PUCSORTHOREF
350
2D5
  3
PUCSORTHOVIEW
350
2D6
  3
STYLESHEET
350
2CB
  3
TSTACKALIGN
350
2C8
  3
TSTACKSIZE
350
2C9
  3
UCSBASE
350
2E0
  3
UCSORGBACK
350
2E6
  3
UCSORGBOTTOM
350
2E2
  3
UCSORGFRONT
350
2E5
  3
UCSORGLEFT
350
2E3
  3
UCSORGRIGHT
350
2E4
  3
UCSORGTOP
350
2E1
  3
UCSORTHOREF
350
2DE
  3
UCSORTHOVIEW
350
2DF
  3
VERSIONGUID
350
2D3
  0
DICTIONARY
  5
2BC
102
{ACAD_REACTORS
330
C
102
}
330
C
100
AcDbDictionary
  3
DIMASSOC
350
2BD
  0
XRECORD
  5
2EA
102
{ACAD_REACTORS
330
2E9
102
}
330
2E9
100
AcDbXrecord
340
1E
  0
XRECORD
  5
2E8
102
{ACAD_REACTORS
330
2E7
102
}
330
2E7
100
AcDbXrecord
340
1A
  0
MLINESTYLE
  5
17
102
{ACAD_REACTORS
330
16
102
}
330
16
100
AcDbMlineStyle
  2
STANDARD
 70
     0
  3

 62
   256
 51
90.0
 52
90.0
 71
     2
 49
0.5
 62
   256
  6
BYLAYER
 49
-0.5
 62
   256
  6
BYLAYER
  0
ACDBPLACEHOLDER
  5
F
102
{ACAD_REACTORS
330
E
102
}
330
E
100
AcDbPlaceHolder
280
     0
  0
XRECORD
  5
2D1
102
{ACAD_REACTORS
330
2C7
102
}
330
2C7
100
AcDbXrecord
 90
        0
  0
XRECORD
  5
2D2
102
{ACAD_REACTORS
330
2C7
102
}
330
2C7
100
AcDbXrecord
  1
{2D030AE2-04A5-426F-A212-508BBB857C75}
  0
XRECORD
  5
2CA
102
{ACAD_REACTORS
330
2C7
102
}
330
2C7
100
AcDbXrecord
  1

  0
XRECORD
  5
2D0
102
{ACAD_REACTORS
330
2C7
102
}
330
2C7
100
AcDbXrecord
 90
        0
  0
XRECORD
  5
2CC
102
{ACAD_REACTORS
330
2C7
102
}
330
2C7
100
AcDbXrecord
340
19
  0
XRECORD
  5
2CF
102
{ACAD_REACTORS
330
2C7
102
}
330
2C7
100
AcDbXrecord
 90
    10781
  0
XRECORD
  5
2CD
102
{ACAD_REACTORS
330
2C7
102
}
330
2C7
100
AcDbXrecord
340
18
  0
XRECORD
  5
2CE
102
{ACAD_REACTORS
330
2C7
102
}
330
2C7
100
AcDbXrecord
340
E
  0
XRECORD
  5
2D4
102
{ACAD_REACTORS
330
2C7
102
}
330
2C7
100
AcDbXrecord
 40
0.0
  0
XRECORD
  5
2D7
102
{ACAD_REACTORS
330
2C7
102
}
330
2C7
100
AcDbXrecord
340
0
  0
XRECORD
  5
2DD
102
{ACAD_REACTORS
330
2C7
102
}
330
2C7
100
AcDbXrecord
 10
0.0
 20
0.0
 30
0.0
  0
XRECORD
  5
2D9
102
{ACAD_REACTORS
330
2C7
102
}
330
2C7
100
AcDbXrecord
 10
0.0
 20
0.0
 30
0.0
  0
XRECORD
  5
2DC
102
{ACAD_REACTORS
330
2C7
102
}
330
2C7
100
AcDbXrecord
 10
0.0
 20
0.0
 30
0.0
  0
XRECORD
  5
2DA
102
{ACAD_REACTORS
330
2C7
102
}
330
2C7
100
AcDbXrecord
 10
0.0
 20
0.0
 30
0.0
  0
XRECORD
  5
2DB
102
{ACAD_REACTORS
330
2C7
102
}
330
2C7
100
AcDbXrecord
 10
0.0
 20
0.0
 30
0.0
  0
XRECORD
  5
2D8
102
{ACAD_REACTORS
330
2C7
102
}
330
2C7
100
AcDbXrecord
 10
0.0
 20
0.0
 30
0.0
  0
XRECORD
  5
2D5
102
{ACAD_REACTORS
330
2C7
102
}
330
2C7
100
AcDbXrecord
340
0
  0
XRECORD
  5
2D6
102
{ACAD_REACTORS
330
2C7
102
}
330
2C7
100
AcDbXrecord
 70
     0
  0
XRECORD
  5
2CB
102
{ACAD_REACTORS
330
2C7
102
}
330
2C7
100
AcDbXrecord
  1

  0
XRECORD
  5
2C8
102
{ACAD_REACTORS
330
2C7
102
}
330
2C7
100
AcDbXrecord
 90
        1
  0
XRECORD
  5
2C9
102
{ACAD_REACTORS
330
2C7
102
}
330
2C7
100
AcDbXrecord
 90
       70
  0
XRECORD
  5
2E0
102
{ACAD_REACTORS
330
2C7
102
}
330
2C7
100
AcDbXrecord
340
0
  0
XRECORD
  5
2E6
102
{ACAD_REACTORS
330
2C7
102
}
330
2C7
100
AcDbXrecord
 10
0.0
 20
0.0
 30
0.0
  0
XRECORD
  5
2E2
102
{ACAD_REACTORS
330
2C7
102
}
330
2C7
100
AcDbXrecord
 10
0.0
 20
0.0
 30
0.0
  0
XRECORD
  5
2E5
102
{ACAD_REACTORS
330
2C7
102
}
330
2C7
100
AcDbXrecord
 10
0.0
 20
0.0
 30
0.0
  0
XRECORD
  5
2E3
102
{ACAD_REACTORS
330
2C7
102
}
330
2C7
100
AcDbXrecord
 10
0.0
 20
0.0
 30
0.0
  0
XRECORD
  5
2E4
102
{ACAD_REACTORS
330
2C7
102
}
330
2C7
100
AcDbXrecord
 10
0.0
 20
0.0
 30
0.0
  0
XRECORD
  5
2E1
102
{ACAD_REACTORS
330
2C7
102
}
330
2C7
100
AcDbXrecord
 10
0.0
 20
0.0
 30
0.0
  0
XRECORD
  5
2DE
102
{ACAD_REACTORS
330
2C7
102
}
330
2C7
100
AcDbXrecord
340
0
  0
XRECORD
  5
2DF
102
{ACAD_REACTORS
330
2C7
102
}
330
2C7
100
AcDbXrecord
 70
     1
  0
XRECORD
  5
2D3
102
{ACAD_REACTORS
330
2C7
102
}
330
2C7
100
AcDbXrecord
  1
{51860EDB-500F-4F73-B36F-032585CA7C1F}
  0
DICTIONARYVAR
  5
2BD
102
{ACAD_REACTORS
330
2BC
102
}
330
2BC
100
DictionaryVariables
280
     0
  1
1
  0
ENDSEC
  0
EOF
