  0
SECTION
  2
HEADER
  9
$ACADVER
  1
AC1015
  9
$ACADMAINTVER
 70
    13
  9
$DWGCODEPAGE
  3
ANSI_1252
  9
$INSBASE
 10
0.0
 20
0.0
 30
0.0
  9
$EXTMIN
 10
0.0
 20
0.195150000000029
 30
0.0
  9
$EXTMAX
 10
700.0
 20
276.8048499999999
 30
0.0
  9
$LIMMIN
 10
0.0
 20
0.0
  9
$LIMMAX
 10
12.0
 20
9.0
  9
$ORTHOMODE
 70
     0
  9
$REGENMODE
 70
     1
  9
$FILLMODE
 70
     1
  9
$QTEXTMODE
 70
     0
  9
$MIRRTEXT
 70
     1
  9
$LTSCALE
 40
1.0
  9
$ATTMODE
 70
     1
  9
$TEXTSIZE
 40
0.2
  9
$TRACEWID
 40
0.05
  9
$TEXTSTYLE
  7
Standard
  9
$CLAYER
  8
0
  9
$CELTYPE
  6
Continuous
  9
$CECOLOR
 62
   256
  9
$CELTSCALE
 40
1.0
  9
$DISPSILH
 70
     0
  9
$DIMSCALE
 40
1.0
  9
$DIMASZ
 40
0.18
  9
$DIMEXO
 40
0.0625
  9
$DIMDLI
 40
0.38
  9
$DIMRND
 40
0.0
  9
$DIMDLE
 40
0.0
  9
$DIMEXE
 40
0.18
  9
$DIMTP
 40
0.0
  9
$DIMTM
 40
0.0
  9
$DIMTXT
 40
0.18
  9
$DIMCEN
 40
0.09
  9
$DIMTSZ
 40
0.0
  9
$DIMTOL
 70
     0
  9
$DIMLIM
 70
     0
  9
$DIMTIH
 70
     1
  9
$DIMTOH
 70
     1
  9
$DIMSE1
 70
     0
  9
$DIMSE2
 70
     0
  9
$DIMTAD
 70
     0
  9
$DIMZIN
 70
     0
  9
$DIMBLK
  1

  9
$DIMASO
 70
     1
  9
$DIMSHO
 70
     1
  9
$DIMPOST
  1

  9
$DIMAPOST
  1

  9
$DIMALT
 70
     0
  9
$DIMALTD
 70
     2
  9
$DIMALTF
 40
25.4
  9
$DIMLFAC
 40
1.0
  9
$DIMTOFL
 70
     0
  9
$DIMTVP
 40
0.0
  9
$DIMTIX
 70
     0
  9
$DIMSOXD
 70
     0
  9
$DIMSAH
 70
     0
  9
$DIMBLK1
  1

  9
$DIMBLK2
  1

  9
$DIMSTYLE
  2
Standard
  9
$DIMCLRD
 70
     0
  9
$DIMCLRE
 70
     0
  9
$DIMCLRT
 70
     0
  9
$DIMTFAC
 40
1.0
  9
$DIMGAP
 40
0.09
  9
$DIMJUST
 70
     0
  9
$DIMSD1
 70
     0
  9
$DIMSD2
 70
     0
  9
$DIMTOLJ
 70
     1
  9
$DIMTZIN
 70
     0
  9
$DIMALTZ
 70
     0
  9
$DIMALTTZ
 70
     0
  9
$DIMUPT
 70
     0
  9
$DIMDEC
 70
     4
  9
$DIMTDEC
 70
     4
  9
$DIMALTU
 70
     2
  9
$DIMALTTD
 70
     2
  9
$DIMTXSTY
  7
Standard
  9
$DIMAUNIT
 70
     0
  9
$DIMADEC
 70
     0
  9
$DIMALTRND
 40
0.0
  9
$DIMAZIN
 70
     0
  9
$DIMDSEP
 70
    46
  9
$DIMATFIT
 70
     3
  9
$DIMFRAC
 70
     0
  9
$DIMLDRBLK
  1

  9
$DIMLUNIT
 70
     2
  9
$DIMLWD
 70
    -2
  9
$DIMLWE
 70
    -2
  9
$DIMTMOVE
 70
     0
  9
$LUNITS
 70
     2
  9
$LUPREC
 70
     4
  9
$SKETCHINC
 40
0.1
  9
$FILLETRAD
 40
0.0
  9
$AUNITS
 70
     0
  9
$AUPREC
 70
     0
  9
$MENU
  1
.
  9
$ELEVATION
 40
0.0
  9
$PELEVATION
 40
0.0
  9
$THICKNESS
 40
0.0
  9
$LIMCHECK
 70
     0
  9
$CHAMFERA
 40
0.0
  9
$CHAMFERB
 40
0.0
  9
$CHAMFERC
 40
0.0
  9
$CHAMFERD
 40
0.0
  9
$SKPOLY
 70
     0
  9
$TDCREATE
 40
2454638.718210718
  9
$TDUCREATE
 40
2454638.634877384
  9
$TDUPDATE
 40
2454638.719166296
  9
$TDUUPDATE
 40
2454638.635832963
  9
$TDINDWG
 40
0.0009555787
  9
$TDUSRTIMER
 40
0.0009555787
  9
$USRTIMER
 70
     1
  9
$ANGBASE
 50
0.0
  9
$ANGDIR
 70
     0
  9
$PDMODE
 70
     0
  9
$PDSIZE
 40
0.0
  9
$PLINEWID
 40
0.0
  9
$SPLFRAME
 70
     0
  9
$SPLINETYPE
 70
     6
  9
$SPLINESEGS
 70
     8
  9
$HANDSEED
  5
3F8
  9
$SURFTAB1
 70
     6
  9
$SURFTAB2
 70
     6
  9
$SURFTYPE
 70
     6
  9
$SURFU
 70
     6
  9
$SURFV
 70
     6
  9
$UCSBASE
  2

  9
$UCSNAME
  2

  9
$UCSORG
 10
0.0
 20
0.0
 30
0.0
  9
$UCSXDIR
 10
1.0
 20
0.0
 30
0.0
  9
$UCSYDIR
 10
0.0
 20
1.0
 30
0.0
  9
$UCSORTHOREF
  2

  9
$UCSORTHOVIEW
 70
     1
  9
$UCSORGTOP
 10
0.0
 20
0.0
 30
0.0
  9
$UCSORGBOTTOM
 10
0.0
 20
0.0
 30
0.0
  9
$UCSORGLEFT
 10
0.0
 20
0.0
 30
0.0
  9
$UCSORGRIGHT
 10
0.0
 20
0.0
 30
0.0
  9
$UCSORGFRONT
 10
0.0
 20
0.0
 30
0.0
  9
$UCSORGBACK
 10
0.0
 20
0.0
 30
0.0
  9
$PUCSBASE
  2

  9
$PUCSNAME
  2

  9
$PUCSORG
 10
0.0
 20
0.0
 30
0.0
  9
$PUCSXDIR
 10
1.0
 20
0.0
 30
0.0
  9
$PUCSYDIR
 10
0.0
 20
1.0
 30
0.0
  9
$PUCSORTHOREF
  2

  9
$PUCSORTHOVIEW
 70
     0
  9
$PUCSORGTOP
 10
0.0
 20
0.0
 30
0.0
  9
$PUCSORGBOTTOM
 10
0.0
 20
0.0
 30
0.0
  9
$PUCSORGLEFT
 10
0.0
 20
0.0
 30
0.0
  9
$PUCSORGRIGHT
 10
0.0
 20
0.0
 30
0.0
  9
$PUCSORGFRONT
 10
0.0
 20
0.0
 30
0.0
  9
$PUCSORGBACK
 10
0.0
 20
0.0
 30
0.0
  9
$USERI1
 70
     0
  9
$USERI2
 70
     0
  9
$USERI3
 70
     0
  9
$USERI4
 70
     0
  9
$USERI5
 70
     0
  9
$USERR1
 40
0.0
  9
$USERR2
 40
0.0
  9
$USERR3
 40
0.0
  9
$USERR4
 40
0.0
  9
$USERR5
 40
0.0
  9
$WORLDVIEW
 70
     1
  9
$SHADEDGE
 70
     3
  9
$SHADEDIF
 70
    70
  9
$TILEMODE
 70
     1
  9
$MAXACTVP
 70
    64
  9
$PINSBASE
 10
0.0
 20
0.0
 30
0.0
  9
$PLIMCHECK
 70
     0
  9
$PEXTMIN
 10
1.000000000000000E+20
 20
1.000000000000000E+20
 30
1.000000000000000E+20
  9
$PEXTMAX
 10
-1.000000000000000E+20
 20
-1.000000000000000E+20
 30
-1.000000000000000E+20
  9
$PLIMMIN
 10
0.0
 20
0.0
  9
$PLIMMAX
 10
12.0
 20
9.0
  9
$UNITMODE
 70
     0
  9
$VISRETAIN
 70
     1
  9
$PLINEGEN
 70
     0
  9
$PSLTSCALE
 70
     1
  9
$TREEDEPTH
 70
  3020
  9
$CMLSTYLE
  2
Standard
  9
$CMLJUST
 70
     0
  9
$CMLSCALE
 40
1.0
  9
$PROXYGRAPHICS
 70
     1
  9
$MEASUREMENT
 70
     0
  9
$CELWEIGHT
370
    -1
  9
$ENDCAPS
280
     0
  9
$JOINSTYLE
280
     0
  9
$LWDISPLAY
290
     0
  9
$INSUNITS
 70
     0
  9
$HYPERLINKBASE
  1

  9
$STYLESHEET
  1

  9
$XEDIT
290
     1
  9
$CEPSNTYPE
380
     0
  9
$PSTYLEMODE
290
     1
  9
$FINGERPRINTGUID
  2
{6EEB3D01-D8B0-4661-9815-608F9C5A08AD}
  9
$VERSIONGUID
  2
{86B0EA5E-A1C8-4661-9FB8-8D123E0BCC52}
  9
$EXTNAMES
290
     1
  9
$PSVPSCALE
 40
0.0
  9
$OLESTARTUP
290
     0
  0
ENDSEC
  0
SECTION
  2
CLASSES
  0
CLASS
  1
ACDBDICTIONARYWDFLT
  2
AcDbDictionaryWithDefault
  3
AutoCAD 2000
 90
        0
280
     0
281
     0
  0
CLASS
  1
ACDBPLACEHOLDER
  2
AcDbPlaceHolder
  3
AutoCAD 2000
 90
        0
280
     0
281
     0
  0
CLASS
  1
LAYOUT
  2
AcDbLayout
  3
AutoCAD 2000
 90
        0
280
     0
281
     0
  0
CLASS
  1
DICTIONARYVAR
  2
AcDbDictionaryVar
  3
AutoCAD 2000
 90
        0
280
     0
281
     0
  0
ENDSEC
  0
SECTION
  2
TABLES
  0
TABLE
  2
VPORT
  5
8
330
0
100
AcDbSymbolTable
 70
     2
  0
VPORT
  5
3F7
330
8
100
AcDbSymbolTableRecord
100
AcDbViewportTableRecord
  2
*Active
 70
     0
 10
0.0
 20
0.0
 11
1.0
 21
1.0
 12
350.0
 22
138.5
 13
0.0
 23
0.0
 14
1.0
 24
1.0
 15
0.0
 25
0.0
 16
0.0
 26
0.0
 36
1.0
 17
0.0
 27
0.0
 37
0.0
 40
343.8308121587625
 41
2.043533930857874
 42
50.0
 43
0.0
 44
0.0
 50
0.0
 51
0.0
 71
     0
 72
   100
 73
     1
 74
     3
 75
     0
 76
     0
 77
     0
 78
     0
281
     0
 65
     1
110
0.0
120
0.0
130
0.0
111
1.0
121
0.0
131
0.0
112
0.0
122
1.0
132
0.0
 79
     1
146
0.0
  0
ENDTAB
  0
TABLE
  2
LTYPE
  5
5
330
0
100
AcDbSymbolTable
 70
     1
  0
LTYPE
  5
13
330
5
100
AcDbSymbolTableRecord
100
AcDbLinetypeTableRecord
  2
ByBlock
 70
     0
  3

 72
    65
 73
     0
 40
0.0
  0
LTYPE
  5
14
330
5
100
AcDbSymbolTableRecord
100
AcDbLinetypeTableRecord
  2
ByLayer
 70
     0
  3

 72
    65
 73
     0
 40
0.0
  0
LTYPE
  5
15
330
5
100
AcDbSymbolTableRecord
100
AcDbLinetypeTableRecord
  2
Continuous
 70
     0
  3
Solid line
 72
    65
 73
     0
 40
0.0
  0
ENDTAB
  0
TABLE
  2
LAYER
  5
2
330
0
100
AcDbSymbolTable
 70
     1
  0
LAYER
  5
10
330
2
100
AcDbSymbolTableRecord
100
AcDbLayerTableRecord
  2
0
 70
     0
 62
     7
  6
Continuous
370
    -3
390
F
  0
ENDTAB
  0
TABLE
  2
STYLE
  5
3
330
0
100
AcDbSymbolTable
 70
     1
  0
STYLE
  5
11
330
3
100
AcDbSymbolTableRecord
100
AcDbTextStyleTableRecord
  2
Standard
 70
     0
 40
0.0
 41
1.0
 50
0.0
 71
     0
 42
0.2
  3
txt
  4

  0
ENDTAB
  0
TABLE
  2
VIEW
  5
6
330
0
100
AcDbSymbolTable
 70
     0
  0
ENDTAB
  0
TABLE
  2
UCS
  5
7
330
0
100
AcDbSymbolTable
 70
     0
  0
ENDTAB
  0
TABLE
  2
APPID
  5
9
330
0
100
AcDbSymbolTable
 70
     1
  0
APPID
  5
12
330
9
100
AcDbSymbolTableRecord
100
AcDbRegAppTableRecord
  2
ACAD
 70
     0
  0
ENDTAB
  0
TABLE
  2
DIMSTYLE
  5
A
330
0
100
AcDbSymbolTable
 70
     1
100
AcDbDimStyleTable
 71
     0
  0
DIMSTYLE
105
3E9
330
A
100
AcDbSymbolTableRecord
100
AcDbDimStyleTableRecord
  2
Standard
 70
     0
340
11
  0
ENDTAB
  0
TABLE
  2
BLOCK_RECORD
  5
1
330
0
100
AcDbSymbolTable
 70
     0
  0
BLOCK_RECORD
  5
1E
330
1
100
AcDbSymbolTableRecord
100
AcDbBlockTableRecord
  2
*Model_Space
340
21
  0
BLOCK_RECORD
  5
1A
330
1
100
AcDbSymbolTableRecord
100
AcDbBlockTableRecord
  2
*Paper_Space
340
1D
  0
ENDTAB
  0
ENDSEC
  0
SECTION
  2
BLOCKS
  0
BLOCK
  5
1F
330
1E
100
AcDbEntity
  8
0
100
AcDbBlockBegin
  2
*Model_Space
 70
     0
 10
0.0
 20
0.0
 30
0.0
  3
*Model_Space
  1

  0
ENDBLK
  5
20
330
1E
100
AcDbEntity
  8
0
100
AcDbBlockEnd
  0
BLOCK
  5
1B
330
1A
100
AcDbEntity
 67
     1
  8
0
100
AcDbBlockBegin
  2
*Paper_Space
 70
     0
 10
0.0
 20
0.0
 30
0.0
  3
*Paper_Space
  1

  0
ENDBLK
  5
1C
330
1A
100
AcDbEntity
 67
     1
  8
0
100
AcDbBlockEnd
  0
ENDSEC
  0
SECTION
  2
ENTITIES
  0
LINE
  5
22
330
1E
100
AcDbEntity
  8
0
100
AcDbLine
 10
490.109
 20
6.280650000000029
 30
0.0
 11
495.8759999999999
 21
3.700950000000029
 31
0.0
  0
LINE
  5
23
330
1E
100
AcDbEntity
  8
0
100
AcDbLine
 10
495.8759999999999
 20
3.700950000000029
 30
0.0
 11
502.08
 21
1.84865000000003
 31
0.0
  0
LINE
  5
24
330
1E
100
AcDbEntity
  8
0
100
AcDbLine
 10
502.08
 20
1.84865000000003
 30
0.0
 11
508.577
 21
0.6577500000000311
 31
0.0
  0
LINE
  5
25
330
1E
100
AcDbEntity
  8
0
100
AcDbLine
 10
508.577
 20
0.6577500000000311
 30
0.0
 11
515.0
 21
0.195150000000029
 31
0.0
  0
LINE
  5
26
330
1E
100
AcDbEntity
  8
0
100
AcDbLine
 10
515.0
 20
0.195150000000029
 30
0.0
 11
521.4229999999999
 21
0.6577500000000311
 31
0.0
  0
LINE
  5
27
330
1E
100
AcDbEntity
  8
0
100
AcDbLine
 10
298.6
 20
48.60895
 30
0.0
 11
301.933
 21
49.81215
 31
0.0
  0
LINE
  5
28
330
1E
100
AcDbEntity
  8
0
100
AcDbLine
 10
295.0
 20
48.12765
 30
0.0
 11
298.6
 21
48.60895
 31
0.0
  0
LINE
  5
29
330
1E
100
AcDbEntity
  8
0
100
AcDbLine
 10
285.1329999999999
 20
51.85755
 30
0.0
 11
288.067
 21
49.81215
 31
0.0
  0
LINE
  5
2A
330
1E
100
AcDbEntity
  8
0
100
AcDbLine
 10
304.867
 20
51.85755
 30
0.0
 11
307.1329999999999
 21
54.50455
 31
0.0
  0
LINE
  5
2B
330
1E
100
AcDbEntity
  8
0
100
AcDbLine
 10
301.933
 20
49.81215
 30
0.0
 11
304.867
 21
51.85755
 31
0.0
  0
LINE
  5
2C
330
1E
100
AcDbEntity
  8
0
100
AcDbLine
 10
288.067
 20
49.81215
 30
0.0
 11
291.3999999999999
 21
48.60895
 31
0.0
  0
LINE
  5
2D
330
1E
100
AcDbEntity
  8
0
100
AcDbLine
 10
291.3999999999999
 20
48.60895
 30
0.0
 11
295.0
 21
48.12765
 31
0.0
  0
LINE
  5
2E
330
1E
100
AcDbEntity
  8
0
100
AcDbLine
 10
465.5109999999999
 20
39.68854999999999
 30
0.0
 11
466.8249999999999
 21
33.80084999999999
 31
0.0
  0
LINE
  5
2F
330
1E
100
AcDbEntity
  8
0
100
AcDbLine
 10
465.5109999999999
 20
48.56345000000001
 30
0.0
 11
466.8249999999999
 21
42.67584999999999
 31
0.0
  0
LINE
  5
30
330
1E
100
AcDbEntity
  8
0
100
AcDbLine
 10
465.0
 20
45.51025
 30
0.0
 11
465.0
 21
54.38525
 31
0.0
  0
LINE
  5
31
330
1E
100
AcDbEntity
  8
0
100
AcDbLine
 10
465.0
 20
45.51025
 30
0.0
 11
465.5109999999999
 21
39.68854999999999
 31
0.0
  0
LINE
  5
32
330
1E
100
AcDbEntity
  8
0
100
AcDbLine
 10
281.533
 20
57.51255
 30
0.0
 11
282.867
 21
54.50455
 31
0.0
  0
LINE
  5
33
330
1E
100
AcDbEntity
  8
0
100
AcDbLine
 10
309.0
 20
60.76125
 30
0.0
 11
309.0
 21
93.83884999999999
 31
0.0
  0
LINE
  5
34
330
1E
100
AcDbEntity
  8
0
100
AcDbLine
 10
308.467
 20
57.51255
 30
0.0
 11
309.0
 21
60.76125
 31
0.0
  0
LINE
  5
35
330
1E
100
AcDbEntity
  8
0
100
AcDbLine
 10
307.1329999999999
 20
54.50455
 30
0.0
 11
308.467
 21
57.51255
 31
0.0
  0
LINE
  5
36
330
1E
100
AcDbEntity
  8
0
100
AcDbLine
 10
282.867
 20
54.50455
 30
0.0
 11
285.1329999999999
 21
51.85755
 31
0.0
  0
LINE
  5
37
330
1E
100
AcDbEntity
  8
0
100
AcDbLine
 10
0.0
 20
76.80485
 30
0.0
 11
281.0
 21
76.80485
 31
0.0
  0
LINE
  5
38
330
1E
100
AcDbEntity
  8
0
100
AcDbLine
 10
0.0
 20
76.80485
 30
0.0
 11
149.0
 21
126.80485
 31
0.0
  0
LINE
  5
39
330
1E
100
AcDbEntity
  8
0
100
AcDbLine
 10
309.0
 20
76.80485
 30
0.0
 11
471.6394660926139
 21
76.80485
 31
0.0
  0
LINE
  5
3A
330
1E
100
AcDbEntity
  8
0
100
AcDbLine
 10
309.0
 20
76.80485
 30
0.0
 11
471.6394660926139
 21
76.80485
 31
0.0
  0
LINE
  5
3B
330
1E
100
AcDbEntity
  8
0
100
AcDbLine
 10
0.0000000000000003
 20
76.80485
 30
0.0
 11
0.0000000000000003
 21
276.8048499999999
 31
0.0
  0
LINE
  5
3C
330
1E
100
AcDbEntity
  8
0
100
AcDbLine
 10
0.0000000000000003
 20
76.80485
 30
0.0
 11
281.0
 21
76.80485
 31
0.0
  0
LINE
  5
3D
330
1E
100
AcDbEntity
  8
0
100
AcDbLine
 10
0.0000000000000003
 20
76.80485
 30
0.0
 11
149.0
 21
126.80485
 31
0.0
  0
LINE
  5
3E
330
1E
100
AcDbEntity
  8
0
100
AcDbLine
 10
281.0
 20
60.76125
 30
0.0
 11
281.0
 21
93.83884999999999
 31
0.0
  0
LINE
  5
3F
330
1E
100
AcDbEntity
  8
0
100
AcDbLine
 10
281.0
 20
60.76125
 30
0.0
 11
281.533
 21
57.51255
 31
0.0
  0
LINE
  5
40
330
1E
100
AcDbEntity
  8
0
100
AcDbLine
 10
465.5109999999999
 20
60.20675
 30
0.0
 11
466.8249999999999
 21
66.09445
 31
0.0
  0
LINE
  5
41
330
1E
100
AcDbEntity
  8
0
100
AcDbLine
 10
465.0
 20
54.38525
 30
0.0
 11
465.5109999999999
 21
60.20675
 31
0.0
  0
LINE
  5
42
330
1E
100
AcDbEntity
  8
0
100
AcDbLine
 10
465.0
 20
54.38525
 30
0.0
 11
465.5109999999999
 21
48.56345000000001
 31
0.0
  0
LINE
  5
43
330
1E
100
AcDbEntity
  8
0
100
AcDbLine
 10
465.0
 20
54.38525
 30
0.0
 11
465.0
 21
45.51025
 31
0.0
  0
LINE
  5
44
330
1E
100
AcDbEntity
  8
0
100
AcDbLine
 10
468.869
 20
28.17785
 30
0.0
 11
471.715
 21
22.95155
 31
0.0
  0
LINE
  5
45
330
1E
100
AcDbEntity
  8
0
100
AcDbLine
 10
466.8249999999999
 20
33.80084999999999
 30
0.0
 11
468.869
 21
28.17785
 31
0.0
  0
LINE
  5
46
330
1E
100
AcDbEntity
  8
0
100
AcDbLine
 10
468.869
 20
37.05284999999999
 30
0.0
 11
471.715
 21
31.82665
 31
0.0
  0
LINE
  5
47
330
1E
100
AcDbEntity
  8
0
100
AcDbLine
 10
466.8249999999999
 20
42.67584999999999
 30
0.0
 11
468.869
 21
37.05284999999999
 31
0.0
  0
LINE
  5
48
330
1E
100
AcDbEntity
  8
0
100
AcDbLine
 10
475.365
 20
17.99005
 30
0.0
 11
479.6719999999999
 21
13.49215
 31
0.0
  0
LINE
  5
49
330
1E
100
AcDbEntity
  8
0
100
AcDbLine
 10
471.715
 20
22.95155
 30
0.0
 11
475.365
 21
17.99005
 31
0.0
  0
LINE
  5
4A
330
1E
100
AcDbEntity
  8
0
100
AcDbLine
 10
475.365
 20
26.86505
 30
0.0
 11
479.6719999999999
 21
22.36714999999999
 31
0.0
  0
LINE
  5
4B
330
1E
100
AcDbEntity
  8
0
100
AcDbLine
 10
471.715
 20
31.82665
 30
0.0
 11
475.365
 21
26.86505
 31
0.0
  0
LINE
  5
4C
330
1E
100
AcDbEntity
  8
0
100
AcDbLine
 10
479.6719999999999
 20
13.49215
 30
0.0
 11
484.635
 21
9.588650000000029
 31
0.0
  0
LINE
  5
4D
330
1E
100
AcDbEntity
  8
0
100
AcDbLine
 10
484.635
 20
9.588650000000029
 30
0.0
 11
490.109
 21
6.280650000000029
 31
0.0
  0
LINE
  5
4E
330
1E
100
AcDbEntity
  8
0
100
AcDbLine
 10
484.635
 20
18.46365
 30
0.0
 11
490.109
 21
15.15554999999999
 31
0.0
  0
LINE
  5
4F
330
1E
100
AcDbEntity
  8
0
100
AcDbLine
 10
479.6719999999999
 20
22.36714999999999
 30
0.0
 11
484.635
 21
18.46365
 31
0.0
  0
LINE
  5
50
330
1E
100
AcDbEntity
  8
0
100
AcDbLine
 10
480.1819999999999
 20
23.25235
 30
0.0
 11
485.073
 21
19.41575
 31
0.0
  0
LINE
  5
51
330
1E
100
AcDbEntity
  8
0
100
AcDbLine
 10
485.073
 20
19.41575
 30
0.0
 11
490.474
 21
16.10775
 31
0.0
  0
LINE
  5
52
330
1E
100
AcDbEntity
  8
0
100
AcDbLine
 10
475.949
 20
27.68425
 30
0.0
 11
480.1819999999999
 21
23.25235
 31
0.0
  0
LINE
  5
53
330
1E
100
AcDbEntity
  8
0
100
AcDbLine
 10
472.299
 20
32.57994999999999
 30
0.0
 11
475.949
 21
27.68425
 31
0.0
  0
LINE
  5
54
330
1E
100
AcDbEntity
  8
0
100
AcDbLine
 10
469.599
 20
37.74025
 30
0.0
 11
472.299
 21
32.57994999999999
 31
0.0
  0
LINE
  5
55
330
1E
100
AcDbEntity
  8
0
100
AcDbLine
 10
467.4819999999999
 20
43.56195
 30
0.0
 11
469.599
 21
37.74025
 31
0.0
  0
LINE
  5
56
330
1E
100
AcDbEntity
  8
0
100
AcDbLine
 10
466.241
 20
49.05205000000011
 30
0.0
 11
467.4819999999999
 21
43.56195
 31
0.0
  0
LINE
  5
57
330
1E
100
AcDbEntity
  8
0
100
AcDbLine
 10
466.8249999999999
 20
66.09445
 30
0.0
 11
468.869
 21
71.71755
 31
0.0
  0
LINE
  5
58
330
1E
100
AcDbEntity
  8
0
100
AcDbLine
 10
468.869
 20
71.71755
 30
0.0
 11
471.715
 21
76.94355
 31
0.0
  0
LINE
  5
59
330
1E
100
AcDbEntity
  8
0
100
AcDbLine
 10
471.715
 20
76.94355
 30
0.0
 11
475.365
 21
81.90485
 31
0.0
  0
LINE
  5
5A
330
1E
100
AcDbEntity
  8
0
100
AcDbLine
 10
475.365
 20
81.90485
 30
0.0
 11
479.6719999999999
 21
86.40385
 31
0.0
  0
LINE
  5
5B
330
1E
100
AcDbEntity
  8
0
100
AcDbLine
 10
475.949
 20
81.93085000000001
 30
0.0
 11
480.1819999999999
 21
86.36284999999999
 31
0.0
  0
LINE
  5
5C
330
1E
100
AcDbEntity
  8
0
100
AcDbLine
 10
472.299
 20
77.03545
 30
0.0
 11
475.949
 21
81.93085000000001
 31
0.0
  0
LINE
  5
5D
330
1E
100
AcDbEntity
  8
0
100
AcDbLine
 10
469.599
 20
71.87545
 30
0.0
 11
472.299
 21
77.03545
 31
0.0
  0
LINE
  5
5E
330
1E
100
AcDbEntity
  8
0
100
AcDbLine
 10
467.4819999999999
 20
66.05385
 30
0.0
 11
469.599
 21
71.87545
 31
0.0
  0
LINE
  5
5F
330
1E
100
AcDbEntity
  8
0
100
AcDbLine
 10
466.241
 20
60.56315
 30
0.0
 11
467.4819999999999
 21
66.05385
 31
0.0
  0
LINE
  5
60
330
1E
100
AcDbEntity
  8
0
100
AcDbLine
 10
465.73
 20
54.80785
 30
0.0
 11
466.241
 21
60.56315
 31
0.0
  0
LINE
  5
61
330
1E
100
AcDbEntity
  8
0
100
AcDbLine
 10
465.73
 20
54.80785
 30
0.0
 11
466.241
 21
49.05205000000011
 31
0.0
  0
LINE
  5
62
330
1E
100
AcDbEntity
  8
0
100
AcDbLine
 10
479.6719999999999
 20
86.40385
 30
0.0
 11
484.635
 21
90.30685
 31
0.0
  0
LINE
  5
63
330
1E
100
AcDbEntity
  8
0
100
AcDbLine
 10
484.635
 20
90.30685
 30
0.0
 11
490.109
 21
93.61385
 31
0.0
  0
LINE
  5
64
330
1E
100
AcDbEntity
  8
0
100
AcDbLine
 10
480.1819999999999
 20
86.36284999999999
 30
0.0
 11
485.073
 21
90.19985
 31
0.0
  0
LINE
  5
65
330
1E
100
AcDbEntity
  8
0
100
AcDbLine
 10
495.8759999999999
 20
12.57595
 30
0.0
 11
502.08
 21
10.72365
 31
0.0
  0
LINE
  5
66
330
1E
100
AcDbEntity
  8
0
100
AcDbLine
 10
490.109
 20
15.15554999999999
 30
0.0
 11
495.8759999999999
 21
12.57595
 31
0.0
  0
LINE
  5
67
330
1E
100
AcDbEntity
  8
0
100
AcDbLine
 10
490.474
 20
16.10775
 30
0.0
 11
496.168
 21
13.65995
 31
0.0
  0
LINE
  5
68
330
1E
100
AcDbEntity
  8
0
100
AcDbLine
 10
496.168
 20
13.65995
 30
0.0
 11
502.591
 21
11.74174999999999
 31
0.0
  0
LINE
  5
69
330
1E
100
AcDbEntity
  8
0
100
AcDbLine
 10
485.073
 20
90.19985
 30
0.0
 11
490.474
 21
93.50785
 31
0.0
  0
LINE
  5
6A
330
1E
100
AcDbEntity
  8
0
100
AcDbLine
 10
281.0
 20
96.90585
 30
0.0
 11
281.0
 21
100.75685
 31
0.0
  0
LINE
  5
6B
330
1E
100
AcDbEntity
  8
0
100
AcDbLine
 10
281.0
 20
96.90585
 30
0.0
 11
281.0
 21
93.83884999999999
 31
0.0
  0
LINE
  5
6C
330
1E
100
AcDbEntity
  8
0
100
AcDbLine
 10
309.0
 20
93.83884999999999
 30
0.0
 11
309.0
 21
96.90585
 31
0.0
  0
LINE
  5
6D
330
1E
100
AcDbEntity
  8
0
100
AcDbLine
 10
309.0
 20
93.83884999999999
 30
0.0
 11
309.0
 21
60.76125
 31
0.0
  0
LINE
  5
6E
330
1E
100
AcDbEntity
  8
0
100
AcDbLine
 10
309.0
 20
96.90585
 30
0.0
 11
309.0
 21
100.75685
 31
0.0
  0
LINE
  5
6F
330
1E
100
AcDbEntity
  8
0
100
AcDbLine
 10
309.0
 20
96.90585
 30
0.0
 11
309.0
 21
93.83884999999999
 31
0.0
  0
LINE
  5
70
330
1E
100
AcDbEntity
  8
0
100
AcDbLine
 10
281.0
 20
93.83884999999999
 30
0.0
 11
281.0
 21
60.76125
 31
0.0
  0
LINE
  5
71
330
1E
100
AcDbEntity
  8
0
100
AcDbLine
 10
281.0
 20
93.83884999999999
 30
0.0
 11
281.0
 21
96.90585
 31
0.0
  0
LINE
  5
72
330
1E
100
AcDbEntity
  8
0
100
AcDbLine
 10
490.109
 20
93.61385
 30
0.0
 11
495.8759999999999
 21
96.19485
 31
0.0
  0
LINE
  5
73
330
1E
100
AcDbEntity
  8
0
100
AcDbLine
 10
495.8759999999999
 20
96.19485
 30
0.0
 11
502.08
 21
98.04685
 31
0.0
  0
LINE
  5
74
330
1E
100
AcDbEntity
  8
0
100
AcDbLine
 10
490.474
 20
93.50785
 30
0.0
 11
496.168
 21
95.95584999999999
 31
0.0
  0
LINE
  5
75
330
1E
100
AcDbEntity
  8
0
100
AcDbLine
 10
508.577
 20
9.53265000000003
 30
0.0
 11
515.0
 21
9.07015000000003
 31
0.0
  0
LINE
  5
76
330
1E
100
AcDbEntity
  8
0
100
AcDbLine
 10
502.08
 20
10.72365
 30
0.0
 11
508.577
 21
9.53265000000003
 31
0.0
  0
LINE
  5
77
330
1E
100
AcDbEntity
  8
0
100
AcDbLine
 10
502.591
 20
11.74174999999999
 30
0.0
 11
508.65
 21
10.61674999999999
 31
0.0
  0
LINE
  5
78
330
1E
100
AcDbEntity
  8
0
100
AcDbLine
 10
508.65
 20
10.61674999999999
 30
0.0
 11
515.0
 21
10.15414999999999
 31
0.0
  0
LINE
  5
79
330
1E
100
AcDbEntity
  8
0
100
AcDbLine
 10
496.168
 20
95.95584999999999
 30
0.0
 11
502.591
 21
97.87385
 31
0.0
  0
LINE
  5
7A
330
1E
100
AcDbEntity
  8
0
100
AcDbLine
 10
506.36
 20
98.83143981068192
 30
0.0
 11
506.36
 21
108.3408499999999
 31
0.0
  0
LINE
  5
7B
330
1E
100
AcDbEntity
  8
0
100
AcDbLine
 10
502.08
 20
98.04685
 30
0.0
 11
508.577
 21
99.23785
 31
0.0
  0
LINE
  5
7C
330
1E
100
AcDbEntity
  8
0
100
AcDbLine
 10
508.577
 20
99.23785
 30
0.0
 11
515.0
 21
99.70085
 31
0.0
  0
LINE
  5
7D
330
1E
100
AcDbEntity
  8
0
100
AcDbLine
 10
502.591
 20
97.87385
 30
0.0
 11
508.65
 21
98.99885000000001
 31
0.0
  0
LINE
  5
7E
330
1E
100
AcDbEntity
  8
0
100
AcDbLine
 10
508.65
 20
98.99885000000001
 30
0.0
 11
515.0
 21
99.46184999999999
 31
0.0
  0
LINE
  5
7F
330
1E
100
AcDbEntity
  8
0
100
AcDbLine
 10
309.0
 20
100.75685
 30
0.0
 11
309.0
 21
96.90585
 31
0.0
  0
LINE
  5
80
330
1E
100
AcDbEntity
  8
0
100
AcDbLine
 10
309.0
 20
100.75685
 30
0.0
 11
309.0
 21
105.32785
 31
0.0
  0
LINE
  5
81
330
1E
100
AcDbEntity
  8
0
100
AcDbLine
 10
309.0
 20
105.32785
 30
0.0
 11
309.0
 21
110.54085
 31
0.0
  0
LINE
  5
82
330
1E
100
AcDbEntity
  8
0
100
AcDbLine
 10
309.0
 20
105.32785
 30
0.0
 11
309.0
 21
100.75685
 31
0.0
  0
LINE
  5
83
330
1E
100
AcDbEntity
  8
0
100
AcDbLine
 10
281.0
 20
100.75685
 30
0.0
 11
281.0
 21
96.90585
 31
0.0
  0
LINE
  5
84
330
1E
100
AcDbEntity
  8
0
100
AcDbLine
 10
281.0
 20
100.75685
 30
0.0
 11
281.0
 21
105.32785
 31
0.0
  0
LINE
  5
85
330
1E
100
AcDbEntity
  8
0
100
AcDbLine
 10
281.0
 20
105.32785
 30
0.0
 11
281.0
 21
110.54085
 31
0.0
  0
LINE
  5
86
330
1E
100
AcDbEntity
  8
0
100
AcDbLine
 10
281.0
 20
105.32785
 30
0.0
 11
281.0
 21
100.75685
 31
0.0
  0
LINE
  5
87
330
1E
100
AcDbEntity
  8
0
100
AcDbLine
 10
503.384
 20
106.9608499999999
 30
0.0
 11
504.6319999999999
 21
105.65785
 31
0.0
  0
LINE
  5
88
330
1E
100
AcDbEntity
  8
0
100
AcDbLine
 10
309.0
 20
110.54085
 30
0.0
 11
309.0
 21
116.30485
 31
0.0
  0
LINE
  5
89
330
1E
100
AcDbEntity
  8
0
100
AcDbLine
 10
309.0
 20
110.54085
 30
0.0
 11
309.0
 21
105.32785
 31
0.0
  0
LINE
  5
8A
330
1E
100
AcDbEntity
  8
0
100
AcDbLine
 10
281.0
 20
110.54085
 30
0.0
 11
281.0
 21
105.32785
 31
0.0
  0
LINE
  5
8B
330
1E
100
AcDbEntity
  8
0
100
AcDbLine
 10
281.0
 20
110.54085
 30
0.0
 11
281.0
 21
116.30485
 31
0.0
  0
LINE
  5
8C
330
1E
100
AcDbEntity
  8
0
100
AcDbLine
 10
503.0
 20
108.3408499999999
 30
0.0
 11
503.384
 21
109.7598499999999
 31
0.0
  0
LINE
  5
8D
330
1E
100
AcDbEntity
  8
0
100
AcDbLine
 10
503.0
 20
108.3408499999999
 30
0.0
 11
503.384
 21
106.9608499999999
 31
0.0
  0
LINE
  5
8E
330
1E
100
AcDbEntity
  8
0
100
AcDbLine
 10
503.0
 20
108.3408499999999
 30
0.0
 11
503.0
 21
168.82185
 31
0.0
  0
LINE
  5
8F
330
1E
100
AcDbEntity
  8
0
100
AcDbLine
 10
504.6319999999999
 20
105.65785
 30
0.0
 11
506.36
 21
104.6291499999999
 31
0.0
  0
LINE
  5
90
330
1E
100
AcDbEntity
  8
0
100
AcDbLine
 10
503.384
 20
109.7598499999999
 30
0.0
 11
504.6319999999999
 21
111.06185
 31
0.0
  0
LINE
  5
91
330
1E
100
AcDbEntity
  8
0
100
AcDbLine
 10
504.6319999999999
 20
111.06185
 30
0.0
 11
506.5519999999999
 21
112.20485
 31
0.0
  0
LINE
  5
92
330
1E
100
AcDbEntity
  8
0
100
AcDbLine
 10
506.5519999999999
 20
112.20485
 30
0.0
 11
509.048
 21
113.0738499999999
 31
0.0
  0
LINE
  5
93
330
1E
100
AcDbEntity
  8
0
100
AcDbLine
 10
509.048
 20
113.0738499999999
 30
0.0
 11
511.928
 21
113.58485
 31
0.0
  0
LINE
  5
94
330
1E
100
AcDbEntity
  8
0
100
AcDbLine
 10
511.928
 20
113.58485
 30
0.0
 11
515.0
 21
113.7828499999999
 31
0.0
  0
LINE
  5
95
330
1E
100
AcDbEntity
  8
0
100
AcDbLine
 10
512.7919999999999
 20
112.12685
 30
0.0
 11
515.0
 21
112.28385
 31
0.0
  0
LINE
  5
96
330
1E
100
AcDbEntity
  8
0
100
AcDbLine
 10
510.6799999999999
 20
111.7318499999999
 30
0.0
 11
512.7919999999999
 21
112.12685
 31
0.0
  0
LINE
  5
97
330
1E
100
AcDbEntity
  8
0
100
AcDbLine
 10
508.856
 20
111.1018499999999
 30
0.0
 11
510.6799999999999
 21
111.7318499999999
 31
0.0
  0
LINE
  5
98
330
1E
100
AcDbEntity
  8
0
100
AcDbLine
 10
507.5119999999999
 20
110.31185
 30
0.0
 11
508.856
 21
111.1018499999999
 31
0.0
  0
LINE
  5
99
330
1E
100
AcDbEntity
  8
0
100
AcDbLine
 10
506.648
 20
109.36485
 30
0.0
 11
507.5119999999999
 21
110.31185
 31
0.0
  0
LINE
  5
9A
330
1E
100
AcDbEntity
  8
0
100
AcDbLine
 10
506.36
 20
108.3408499999999
 30
0.0
 11
506.36
 21
98.83143981068192
 31
0.0
  0
LINE
  5
9B
330
1E
100
AcDbEntity
  8
0
100
AcDbLine
 10
506.36
 20
108.3408499999999
 30
0.0
 11
506.648
 21
109.36485
 31
0.0
  0
LINE
  5
9C
330
1E
100
AcDbEntity
  8
0
100
AcDbLine
 10
281.0
 20
116.30485
 30
0.0
 11
281.0
 21
110.54085
 31
0.0
  0
LINE
  5
9D
330
1E
100
AcDbEntity
  8
0
100
AcDbLine
 10
281.0
 20
116.30485
 30
0.0
 11
281.0
 21
122.52285
 31
0.0
  0
LINE
  5
9E
330
1E
100
AcDbEntity
  8
0
100
AcDbLine
 10
149.0
 20
126.80485
 30
0.0
 11
149.0
 21
158.7639341514909
 31
0.0
  0
LINE
  5
9F
330
1E
100
AcDbEntity
  8
0
100
AcDbLine
 10
149.0
 20
126.80485
 30
0.0
 11
281.0
 21
126.80485
 31
0.0
  0
LINE
  5
A0
330
1E
100
AcDbEntity
  8
0
100
AcDbLine
 10
149.0
 20
126.80485
 30
0.0
 11
149.0
 21
158.7639341514909
 31
0.0
  0
LINE
  5
A4
330
1E
100
AcDbEntity
  8
0
100
AcDbLine
 10
281.0
 20
135.88685
 30
0.0
 11
281.0
 21
129.08785
 31
0.0
  0
LINE
  5
A5
330
1E
100
AcDbEntity
  8
0
100
AcDbLine
 10
281.0
 20
135.88685
 30
0.0
 11
281.0
 21
142.8048499999999
 31
0.0
  0
LINE
  5
A6
330
1E
100
AcDbEntity
  8
0
100
AcDbLine
 10
281.0
 20
122.52285
 30
0.0
 11
281.0
 21
116.30485
 31
0.0
  0
LINE
  5
A7
330
1E
100
AcDbEntity
  8
0
100
AcDbLine
 10
281.0
 20
122.52285
 30
0.0
 11
281.0
 21
129.08785
 31
0.0
  0
LINE
  5
A8
330
1E
100
AcDbEntity
  8
0
100
AcDbLine
 10
281.0
 20
129.08785
 30
0.0
 11
281.0
 21
122.52285
 31
0.0
  0
LINE
  5
A9
330
1E
100
AcDbEntity
  8
0
100
AcDbLine
 10
281.0
 20
129.08785
 30
0.0
 11
281.0
 21
135.88685
 31
0.0
  0
LINE
  5
AA
330
1E
100
AcDbEntity
  8
0
100
AcDbLine
 10
149.0
 20
158.7639341514909
 30
0.0
 11
149.0
 21
126.80485
 31
0.0
  0
LINE
  5
AB
330
1E
100
AcDbEntity
  8
0
100
AcDbLine
 10
148.2941199999999
 20
159.4368499999999
 30
0.0
 11
149.63235
 21
158.81985
 31
0.0
  0
LINE
  5
AC
330
1E
100
AcDbEntity
  8
0
100
AcDbLine
 10
149.63235
 20
158.81985
 30
0.0
 11
151.17647
 21
158.61385
 31
0.0
  0
LINE
  5
AD
330
1E
100
AcDbEntity
  8
0
100
AcDbLine
 10
151.17647
 20
158.61385
 30
0.0
 11
281.0
 21
158.61385
 31
0.0
  0
LINE
  5
AE
330
1E
100
AcDbEntity
  8
0
100
AcDbLine
 10
146.1323499999999
 20
161.59885
 30
0.0
 11
147.0588199999999
 21
160.36385
 31
0.0
  0
LINE
  5
AF
330
1E
100
AcDbEntity
  8
0
100
AcDbLine
 10
145.514706
 20
162.9368499999999
 30
0.0
 11
146.1323499999999
 21
161.59885
 31
0.0
  0
LINE
  5
B0
330
1E
100
AcDbEntity
  8
0
100
AcDbLine
 10
145.3088239999999
 20
164.48085
 30
0.0
 11
145.514706
 21
162.9368499999999
 31
0.0
  0
LINE
  5
B1
330
1E
100
AcDbEntity
  8
0
100
AcDbLine
 10
145.2058819999999
 20
162.9368499999999
 30
0.0
 11
145.823529
 21
161.39285
 31
0.0
  0
LINE
  5
B2
330
1E
100
AcDbEntity
  8
0
100
AcDbLine
 10
145.0
 20
164.48085
 30
0.0
 11
145.0
 21
181.8048499999999
 31
0.0
  0
LINE
  5
B3
330
1E
100
AcDbEntity
  8
0
100
AcDbLine
 10
147.0588199999999
 20
160.36385
 30
0.0
 11
148.2941199999999
 21
159.4368499999999
 31
0.0
  0
LINE
  5
B4
330
1E
100
AcDbEntity
  8
0
100
AcDbLine
 10
146.8529399999999
 20
160.15785
 30
0.0
 11
148.08823
 21
159.12885
 31
0.0
  0
LINE
  5
FB
330
1E
100
AcDbEntity
  8
0
100
AcDbLine
 10
151.17647
 20
158.3048499999999
 30
0.0
 11
281.0
 21
158.3048499999999
 31
0.0
  0
LINE
  5
FC
330
1E
100
AcDbEntity
  8
0
100
AcDbLine
 10
185.0
 20
165.8048499999999
 30
0.0
 11
192.6999999999999
 21
166.90485
 31
0.0
  0
LINE
  5
104
330
1E
100
AcDbEntity
  8
0
100
AcDbLine
 10
185.0
 20
165.3048499999999
 30
0.0
 11
192.8
 21
166.4048499999999
 31
0.0
  0
LINE
  5
105
330
1E
100
AcDbEntity
  8
0
100
AcDbLine
 10
177.3
 20
166.90485
 30
0.0
 11
185.0
 21
165.8048499999999
 31
0.0
  0
LINE
  5
106
330
1E
100
AcDbEntity
  8
0
100
AcDbLine
 10
177.4
 20
167.40485
 30
0.0
 11
185.0
 21
166.3048499999999
 31
0.0
  0
LINE
  5
107
330
1E
100
AcDbEntity
  8
0
100
AcDbLine
 10
177.2
 20
166.4048499999999
 30
0.0
 11
185.0
 21
165.3048499999999
 31
0.0
  0
LINE
  5
108
330
1E
100
AcDbEntity
  8
0
100
AcDbLine
 10
192.8
 20
166.4048499999999
 30
0.0
 11
200.1999999999999
 21
169.40485
 31
0.0
  0
LINE
  5
109
330
1E
100
AcDbEntity
  8
0
100
AcDbLine
 10
192.6999999999999
 20
166.90485
 30
0.0
 11
199.9
 21
169.8048499999999
 31
0.0
  0
LINE
  5
10A
330
1E
100
AcDbEntity
  8
0
100
AcDbLine
 10
192.5999999999999
 20
167.40485
 30
0.0
 11
199.6999999999999
 21
170.3048499999999
 31
0.0
  0
LINE
  5
10B
330
1E
100
AcDbEntity
  8
0
100
AcDbLine
 10
185.0
 20
166.3048499999999
 30
0.0
 11
192.5999999999999
 21
167.40485
 31
0.0
  0
LINE
  5
10C
330
1E
100
AcDbEntity
  8
0
100
AcDbLine
 10
281.0
 20
163.08685
 30
0.0
 11
281.0
 21
169.3048499999999
 31
0.0
  0
LINE
  5
10D
330
1E
100
AcDbEntity
  8
0
100
AcDbLine
 10
281.0
 20
163.08685
 30
0.0
 11
281.0
 21
156.52185
 31
0.0
  0
LINE
  5
10E
330
1E
100
AcDbEntity
  8
0
100
AcDbLine
 10
169.8
 20
169.40485
 30
0.0
 11
177.2
 21
166.4048499999999
 31
0.0
  0
LINE
  5
10F
330
1E
100
AcDbEntity
  8
0
100
AcDbLine
 10
200.1999999999999
 20
169.40485
 30
0.0
 11
206.4999999999999
 21
174.30485
 31
0.0
  0
LINE
  5
110
330
1E
100
AcDbEntity
  8
0
100
AcDbLine
 10
281.0
 20
169.3048499999999
 30
0.0
 11
281.0
 21
175.06885
 31
0.0
  0
LINE
  5
111
330
1E
100
AcDbEntity
  8
0
100
AcDbLine
 10
281.0
 20
169.3048499999999
 30
0.0
 11
281.0
 21
163.08685
 31
0.0
  0
LINE
  5
112
330
1E
100
AcDbEntity
  8
0
100
AcDbLine
 10
281.0
 20
156.52185
 30
0.0
 11
281.0
 21
149.72285
 31
0.0
  0
LINE
  5
113
330
1E
100
AcDbEntity
  8
0
100
AcDbLine
 10
281.0
 20
156.52185
 30
0.0
 11
281.0
 21
163.08685
 31
0.0
  0
LINE
  5
114
330
1E
100
AcDbEntity
  8
0
100
AcDbLine
 10
281.0
 20
142.8048499999999
 30
0.0
 11
281.0
 21
149.72285
 31
0.0
  0
LINE
  5
115
330
1E
100
AcDbEntity
  8
0
100
AcDbLine
 10
281.0
 20
142.8048499999999
 30
0.0
 11
281.0
 21
135.88685
 31
0.0
  0
LINE
  5
116
330
1E
100
AcDbEntity
  8
0
100
AcDbLine
 10
309.0
 20
126.80485
 30
0.0
 11
503.0
 21
126.80485
 31
0.0
  0
LINE
  5
117
330
1E
100
AcDbEntity
  8
0
100
AcDbLine
 10
309.0
 20
116.30485
 30
0.0
 11
309.0
 21
122.52285
 31
0.0
  0
LINE
  5
118
330
1E
100
AcDbEntity
  8
0
100
AcDbLine
 10
309.0
 20
116.30485
 30
0.0
 11
309.0
 21
110.54085
 31
0.0
  0
LINE
  5
119
330
1E
100
AcDbEntity
  8
0
100
AcDbLine
 10
309.0
 20
122.52285
 30
0.0
 11
309.0
 21
129.08785
 31
0.0
  0
LINE
  5
11A
330
1E
100
AcDbEntity
  8
0
100
AcDbLine
 10
309.0
 20
122.52285
 30
0.0
 11
309.0
 21
116.30485
 31
0.0
  0
LINE
  5
11B
330
1E
100
AcDbEntity
  8
0
100
AcDbLine
 10
309.0
 20
135.88685
 30
0.0
 11
309.0
 21
129.08785
 31
0.0
  0
LINE
  5
11C
330
1E
100
AcDbEntity
  8
0
100
AcDbLine
 10
309.0
 20
135.88685
 30
0.0
 11
309.0
 21
142.8048499999999
 31
0.0
  0
LINE
  5
11D
330
1E
100
AcDbEntity
  8
0
100
AcDbLine
 10
309.0
 20
129.08785
 30
0.0
 11
309.0
 21
135.88685
 31
0.0
  0
LINE
  5
11E
330
1E
100
AcDbEntity
  8
0
100
AcDbLine
 10
309.0
 20
129.08785
 30
0.0
 11
309.0
 21
122.52285
 31
0.0
  0
LINE
  5
11F
330
1E
100
AcDbEntity
  8
0
100
AcDbLine
 10
309.0
 20
142.8048499999999
 30
0.0
 11
309.0
 21
149.72285
 31
0.0
  0
LINE
  5
120
330
1E
100
AcDbEntity
  8
0
100
AcDbLine
 10
309.0
 20
142.8048499999999
 30
0.0
 11
309.0
 21
135.88685
 31
0.0
  0
LINE
  5
121
330
1E
100
AcDbEntity
  8
0
100
AcDbLine
 10
309.0
 20
158.61385
 30
0.0
 11
350.0
 21
158.61385
 31
0.0
  0
LINE
  5
122
330
1E
100
AcDbEntity
  8
0
100
AcDbLine
 10
309.0
 20
158.3048499999999
 30
0.0
 11
350.0
 21
158.3048499999999
 31
0.0
  0
LINE
  5
123
330
1E
100
AcDbEntity
  8
0
100
AcDbLine
 10
309.0
 20
168.918363513514
 30
0.0
 11
310.1999999999999
 21
169.40485
 31
0.0
  0
LINE
  5
124
330
1E
100
AcDbEntity
  8
0
100
AcDbLine
 10
309.0
 20
169.3048499999999
 30
0.0
 11
309.0
 21
175.06885
 31
0.0
  0
LINE
  5
125
330
1E
100
AcDbEntity
  8
0
100
AcDbLine
 10
309.0
 20
169.3048499999999
 30
0.0
 11
309.0
 21
163.08685
 31
0.0
  0
LINE
  5
126
330
1E
100
AcDbEntity
  8
0
100
AcDbLine
 10
309.0
 20
163.08685
 30
0.0
 11
309.0
 21
156.52185
 31
0.0
  0
LINE
  5
127
330
1E
100
AcDbEntity
  8
0
100
AcDbLine
 10
309.0
 20
163.08685
 30
0.0
 11
309.0
 21
169.3048499999999
 31
0.0
  0
LINE
  5
128
330
1E
100
AcDbEntity
  8
0
100
AcDbLine
 10
350.0
 20
158.61385
 30
0.0
 11
503.0
 21
158.61385
 31
0.0
  0
LINE
  5
129
330
1E
100
AcDbEntity
  8
0
100
AcDbLine
 10
350.0
 20
158.3048499999999
 30
0.0
 11
503.0
 21
158.3048499999999
 31
0.0
  0
LINE
  5
12A
330
1E
100
AcDbEntity
  8
0
100
AcDbLine
 10
405.0
 20
166.3048499999999
 30
0.0
 11
412.6
 21
167.40485
 31
0.0
  0
LINE
  5
12B
330
1E
100
AcDbEntity
  8
0
100
AcDbLine
 10
405.0
 20
165.8048499999999
 30
0.0
 11
412.6999999999999
 21
166.90485
 31
0.0
  0
LINE
  5
12C
330
1E
100
AcDbEntity
  8
0
100
AcDbLine
 10
502.3399999999999
 20
163.77085
 30
0.0
 11
503.0
 21
163.1097217948719
 31
0.0
  0
LINE
  5
12D
330
1E
100
AcDbEntity
  8
0
100
AcDbLine
 10
501.98
 20
163.8468499999999
 30
0.0
 11
503.0
 21
162.81155
 31
0.0
  0
LINE
  5
12E
330
1E
100
AcDbEntity
  8
0
100
AcDbLine
 10
412.8
 20
166.4048499999999
 30
0.0
 11
420.1999999999999
 21
169.40485
 31
0.0
  0
LINE
  5
12F
330
1E
100
AcDbEntity
  8
0
100
AcDbLine
 10
405.0
 20
165.3048499999999
 30
0.0
 11
412.8
 21
166.4048499999999
 31
0.0
  0
LINE
  5
130
330
1E
100
AcDbEntity
  8
0
100
AcDbLine
 10
397.3999999999999
 20
167.40485
 30
0.0
 11
405.0
 21
166.3048499999999
 31
0.0
  0
LINE
  5
131
330
1E
100
AcDbEntity
  8
0
100
AcDbLine
 10
397.3
 20
166.90485
 30
0.0
 11
405.0
 21
165.8048499999999
 31
0.0
  0
LINE
  5
132
330
1E
100
AcDbEntity
  8
0
100
AcDbLine
 10
412.6
 20
167.40485
 30
0.0
 11
419.7
 21
170.3048499999999
 31
0.0
  0
LINE
  5
133
330
1E
100
AcDbEntity
  8
0
100
AcDbLine
 10
500.8999999999999
 20
166.4368499999999
 30
0.0
 11
502.3399999999999
 21
163.77085
 31
0.0
  0
LINE
  5
134
330
1E
100
AcDbEntity
  8
0
100
AcDbLine
 10
500.36
 20
169.33185
 30
0.0
 11
500.8999999999999
 21
166.4368499999999
 31
0.0
  0
LINE
  5
135
330
1E
100
AcDbEntity
  8
0
100
AcDbLine
 10
500.36
 20
169.33185
 30
0.0
 11
500.8999999999999
 21
172.2278499999999
 31
0.0
  0
LINE
  5
136
330
1E
100
AcDbEntity
  8
0
100
AcDbLine
 10
500.54
 20
166.60485
 30
0.0
 11
501.98
 21
163.8468499999999
 31
0.0
  0
LINE
  5
137
330
1E
100
AcDbEntity
  8
0
100
AcDbLine
 10
499.8
 20
169.40485
 30
0.0
 11
500.04423804514
 21
169.3058345762949
 31
0.0
  0
LINE
  5
138
330
1E
100
AcDbEntity
  8
0
100
AcDbLine
 10
420.1999999999999
 20
169.40485
 30
0.0
 11
426.4999999999999
 21
174.30485
 31
0.0
  0
LINE
  5
139
330
1E
100
AcDbEntity
  8
0
100
AcDbLine
 10
412.6999999999999
 20
166.90485
 30
0.0
 11
419.8999999999999
 21
169.8048499999999
 31
0.0
  0
LINE
  5
13A
330
1E
100
AcDbEntity
  8
0
100
AcDbLine
 10
397.1999999999999
 20
166.4048499999999
 30
0.0
 11
405.0
 21
165.3048499999999
 31
0.0
  0
LINE
  5
13B
330
1E
100
AcDbEntity
  8
0
100
AcDbLine
 10
389.8
 20
169.40485
 30
0.0
 11
397.1999999999999
 21
166.4048499999999
 31
0.0
  0
LINE
  5
13C
330
1E
100
AcDbEntity
  8
0
100
AcDbLine
 10
310.1999999999999
 20
169.40485
 30
0.0
 11
316.5
 21
174.30485
 31
0.0
  0
LINE
  5
13D
330
1E
100
AcDbEntity
  8
0
100
AcDbLine
 10
309.0
 20
156.52185
 30
0.0
 11
309.0
 21
149.72285
 31
0.0
  0
LINE
  5
13E
330
1E
100
AcDbEntity
  8
0
100
AcDbLine
 10
309.0
 20
156.52185
 30
0.0
 11
309.0
 21
163.08685
 31
0.0
  0
LINE
  5
13F
330
1E
100
AcDbEntity
  8
0
100
AcDbLine
 10
309.0
 20
149.72285
 30
0.0
 11
309.0
 21
156.52185
 31
0.0
  0
LINE
  5
140
330
1E
100
AcDbEntity
  8
0
100
AcDbLine
 10
309.0
 20
149.72285
 30
0.0
 11
309.0
 21
142.8048499999999
 31
0.0
  0
LINE
  5
141
330
1E
100
AcDbEntity
  8
0
100
AcDbLine
 10
281.0
 20
149.72285
 30
0.0
 11
281.0
 21
142.8048499999999
 31
0.0
  0
LINE
  5
142
330
1E
100
AcDbEntity
  8
0
100
AcDbLine
 10
281.0
 20
149.72285
 30
0.0
 11
281.0
 21
156.52185
 31
0.0
  0
LINE
  5
143
330
1E
100
AcDbEntity
  8
0
100
AcDbLine
 10
170.1
 20
169.8048499999999
 30
0.0
 11
177.3
 21
166.90485
 31
0.0
  0
LINE
  5
144
330
1E
100
AcDbEntity
  8
0
100
AcDbLine
 10
170.3
 20
170.3048499999999
 30
0.0
 11
177.4
 21
167.40485
 31
0.0
  0
LINE
  5
145
330
1E
100
AcDbEntity
  8
0
100
AcDbLine
 10
199.9
 20
169.8048499999999
 30
0.0
 11
206.1999999999999
 21
174.60485
 31
0.0
  0
LINE
  5
146
330
1E
100
AcDbEntity
  8
0
100
AcDbLine
 10
199.6999999999999
 20
170.3048499999999
 30
0.0
 11
205.8
 21
175.00485
 31
0.0
  0
LINE
  5
147
330
1E
100
AcDbEntity
  8
0
100
AcDbLine
 10
309.0
 20
169.44235
 30
0.0
 11
309.8999999999999
 21
169.8048499999999
 31
0.0
  0
LINE
  5
148
330
1E
100
AcDbEntity
  8
0
100
AcDbLine
 10
500.0
 20
169.54685
 30
0.0
 11
500.54
 21
166.60485
 31
0.0
  0
LINE
  5
149
330
1E
100
AcDbEntity
  8
0
100
AcDbLine
 10
500.0
 20
169.54685
 30
0.0
 11
500.0
 21
182.056785637664
 31
0.0
  0
LINE
  5
14A
330
1E
100
AcDbEntity
  8
0
100
AcDbLine
 10
500.0
 20
169.54685
 30
0.0
 11
500.54
 21
172.48785
 31
0.0
  0
LINE
  5
14B
330
1E
100
AcDbEntity
  8
0
100
AcDbLine
 10
390.1
 20
169.8048499999999
 30
0.0
 11
397.3
 21
166.90485
 31
0.0
  0
LINE
  5
14C
330
1E
100
AcDbEntity
  8
0
100
AcDbLine
 10
390.3
 20
170.3048499999999
 30
0.0
 11
397.3999999999999
 21
167.40485
 31
0.0
  0
LINE
  5
14D
330
1E
100
AcDbEntity
  8
0
100
AcDbLine
 10
419.7
 20
170.3048499999999
 30
0.0
 11
425.8
 21
175.00485
 31
0.0
  0
LINE
  5
14E
330
1E
100
AcDbEntity
  8
0
100
AcDbLine
 10
419.8999999999999
 20
169.8048499999999
 30
0.0
 11
426.1999999999999
 21
174.60485
 31
0.0
  0
LINE
  5
14F
330
1E
100
AcDbEntity
  8
0
100
AcDbLine
 10
309.8999999999999
 20
169.8048499999999
 30
0.0
 11
316.1999999999999
 21
174.60485
 31
0.0
  0
LINE
  5
150
330
1E
100
AcDbEntity
  8
0
100
AcDbLine
 10
309.6999999999999
 20
170.3048499999999
 30
0.0
 11
315.8
 21
175.00485
 31
0.0
  0
LINE
  5
151
330
1E
100
AcDbEntity
  8
0
100
AcDbLine
 10
309.0
 20
170.018934507042
 30
0.0
 11
309.6999999999999
 21
170.3048499999999
 31
0.0
  0
LINE
  5
152
330
1E
100
AcDbEntity
  8
0
100
AcDbLine
 10
280.3
 20
170.3048499999999
 30
0.0
 11
281.0
 21
170.018934507042
 31
0.0
  0
LINE
  5
153
330
1E
100
AcDbEntity
  8
0
100
AcDbLine
 10
280.1
 20
169.8048499999999
 30
0.0
 11
281.0
 21
169.44235
 31
0.0
  0
LINE
  5
154
330
1E
100
AcDbEntity
  8
0
100
AcDbLine
 10
279.8
 20
169.40485
 30
0.0
 11
281.0
 21
168.918363513514
 31
0.0
  0
LINE
  5
155
330
1E
100
AcDbEntity
  8
0
100
AcDbLine
 10
503.0
 20
168.82185
 30
0.0
 11
503.0
 21
108.3408499999999
 31
0.0
  0
LINE
  5
156
330
1E
100
AcDbEntity
  8
0
100
AcDbLine
 10
503.0
 20
168.82185
 30
0.0
 11
503.384
 21
171.2158499999999
 31
0.0
  0
LINE
  5
157
330
1E
100
AcDbEntity
  8
0
100
AcDbLine
 10
163.4999999999999
 20
174.30485
 30
0.0
 11
169.8
 21
169.40485
 31
0.0
  0
LINE
  5
158
330
1E
100
AcDbEntity
  8
0
100
AcDbLine
 10
163.8
 20
174.60485
 30
0.0
 11
170.1
 21
169.8048499999999
 31
0.0
  0
LINE
  5
159
330
1E
100
AcDbEntity
  8
0
100
AcDbLine
 10
164.1999999999999
 20
175.00485
 30
0.0
 11
170.3
 21
170.3048499999999
 31
0.0
  0
LINE
  5
15A
330
1E
100
AcDbEntity
  8
0
100
AcDbLine
 10
205.8
 20
175.00485
 30
0.0
 11
210.4999999999999
 21
181.10485
 31
0.0
  0
LINE
  5
15B
330
1E
100
AcDbEntity
  8
0
100
AcDbLine
 10
206.1999999999999
 20
174.60485
 30
0.0
 11
211.0
 21
180.90485
 31
0.0
  0
LINE
  5
15C
330
1E
100
AcDbEntity
  8
0
100
AcDbLine
 10
206.4999999999999
 20
174.30485
 30
0.0
 11
211.3999999999999
 21
180.6048499999999
 31
0.0
  0
LINE
  5
15D
330
1E
100
AcDbEntity
  8
0
100
AcDbLine
 10
316.1999999999999
 20
174.60485
 30
0.0
 11
321.0
 21
180.90485
 31
0.0
  0
LINE
  5
15E
330
1E
100
AcDbEntity
  8
0
100
AcDbLine
 10
500.8999999999999
 20
172.2278499999999
 30
0.0
 11
502.3399999999999
 21
174.8938499999999
 31
0.0
  0
LINE
  5
15F
330
1E
100
AcDbEntity
  8
0
100
AcDbLine
 10
500.54
 20
172.48785
 30
0.0
 11
501.98
 21
175.2458499999999
 31
0.0
  0
LINE
  5
160
330
1E
100
AcDbEntity
  8
0
100
AcDbLine
 10
497.9989999999999
 20
173.6398499999999
 30
0.0
 11
500.0
 21
172.254037807276
 31
0.0
  0
LINE
  5
161
330
1E
100
AcDbEntity
  8
0
100
AcDbLine
 10
493.5
 20
174.30485
 30
0.0
 11
499.8
 21
169.40485
 31
0.0
  0
LINE
  5
162
330
1E
100
AcDbEntity
  8
0
100
AcDbLine
 10
426.4999999999999
 20
174.30485
 30
0.0
 11
431.4
 21
180.6048499999999
 31
0.0
  0
LINE
  5
163
330
1E
100
AcDbEntity
  8
0
100
AcDbLine
 10
383.8
 20
174.60485
 30
0.0
 11
390.1
 21
169.8048499999999
 31
0.0
  0
LINE
  5
164
330
1E
100
AcDbEntity
  8
0
100
AcDbLine
 10
493.8
 20
174.60485
 30
0.0
 11
500.0
 21
169.881040476191
 31
0.0
  0
LINE
  5
165
330
1E
100
AcDbEntity
  8
0
100
AcDbLine
 10
426.1999999999999
 20
174.60485
 30
0.0
 11
431.0
 21
180.90485
 31
0.0
  0
LINE
  5
166
330
1E
100
AcDbEntity
  8
0
100
AcDbLine
 10
383.4999999999999
 20
174.30485
 30
0.0
 11
389.8
 21
169.40485
 31
0.0
  0
LINE
  5
167
330
1E
100
AcDbEntity
  8
0
100
AcDbLine
 10
316.5
 20
174.30485
 30
0.0
 11
321.3999999999999
 21
180.6048499999999
 31
0.0
  0
LINE
  5
168
330
1E
100
AcDbEntity
  8
0
100
AcDbLine
 10
384.2
 20
175.00485
 30
0.0
 11
390.3
 21
170.3048499999999
 31
0.0
  0
LINE
  5
169
330
1E
100
AcDbEntity
  8
0
100
AcDbLine
 10
502.3399999999999
 20
174.8938499999999
 30
0.0
 11
504.68
 21
177.23785
 31
0.0
  0
LINE
  5
16A
330
1E
100
AcDbEntity
  8
0
100
AcDbLine
 10
494.2
 20
175.00485
 30
0.0
 11
500.0
 21
170.535997540984
 31
0.0
  0
LINE
  5
16B
330
1E
100
AcDbEntity
  8
0
100
AcDbLine
 10
425.8
 20
175.00485
 30
0.0
 11
430.4999999999999
 21
181.10485
 31
0.0
  0
LINE
  5
16C
330
1E
100
AcDbEntity
  8
0
100
AcDbLine
 10
315.8
 20
175.00485
 30
0.0
 11
320.5
 21
181.10485
 31
0.0
  0
LINE
  5
16D
330
1E
100
AcDbEntity
  8
0
100
AcDbLine
 10
309.0
 20
175.06885
 30
0.0
 11
309.0
 21
169.3048499999999
 31
0.0
  0
LINE
  5
16E
330
1E
100
AcDbEntity
  8
0
100
AcDbLine
 10
309.0
 20
175.06885
 30
0.0
 11
309.0
 21
180.2818499999999
 31
0.0
  0
LINE
  5
16F
330
1E
100
AcDbEntity
  8
0
100
AcDbLine
 10
501.98
 20
175.2458499999999
 30
0.0
 11
504.38
 21
177.68185
 31
0.0
  0
LINE
  5
170
330
1E
100
AcDbEntity
  8
0
100
AcDbLine
 10
281.0
 20
175.06885
 30
0.0
 11
281.0
 21
169.3048499999999
 31
0.0
  0
LINE
  5
171
330
1E
100
AcDbEntity
  8
0
100
AcDbLine
 10
281.0
 20
175.06885
 30
0.0
 11
281.0
 21
180.2818499999999
 31
0.0
  0
LINE
  5
172
330
1E
100
AcDbEntity
  8
0
100
AcDbLine
 10
274.1999999999999
 20
175.00485
 30
0.0
 11
280.3
 21
170.3048499999999
 31
0.0
  0
LINE
  5
173
330
1E
100
AcDbEntity
  8
0
100
AcDbLine
 10
273.7999999999999
 20
174.60485
 30
0.0
 11
280.1
 21
169.8048499999999
 31
0.0
  0
LINE
  5
174
330
1E
100
AcDbEntity
  8
0
100
AcDbLine
 10
273.4999999999999
 20
174.30485
 30
0.0
 11
279.8
 21
169.40485
 31
0.0
  0
LINE
  5
175
330
1E
100
AcDbEntity
  8
0
100
AcDbLine
 10
503.384
 20
171.2158499999999
 30
0.0
 11
504.6319999999999
 21
173.4418499999999
 31
0.0
  0
LINE
  5
176
330
1E
100
AcDbEntity
  8
0
100
AcDbLine
 10
504.6319999999999
 20
173.4418499999999
 30
0.0
 11
506.5519999999999
 21
175.3708499999999
 31
0.0
  0
LINE
  5
177
330
1E
100
AcDbEntity
  8
0
100
AcDbLine
 10
504.68
 20
177.23785
 30
0.0
 11
507.7399999999999
 21
179.02985
 31
0.0
  0
LINE
  5
178
330
1E
100
AcDbEntity
  8
0
100
AcDbLine
 10
495.2149999999999
 20
176.0198499999999
 30
0.0
 11
497.9989999999999
 21
173.6398499999999
 31
0.0
  0
LINE
  5
179
330
1E
100
AcDbEntity
  8
0
100
AcDbLine
 10
506.5519999999999
 20
175.3708499999999
 30
0.0
 11
509.048
 21
176.7948499999999
 31
0.0
  0
LINE
  5
17A
330
1E
100
AcDbEntity
  8
0
100
AcDbLine
 10
509.048
 20
176.7948499999999
 30
0.0
 11
511.928
 21
177.6758499999999
 31
0.0
  0
LINE
  5
17B
330
1E
100
AcDbEntity
  8
0
100
AcDbLine
 10
145.308810726599
 20
181.8048499999999
 30
0.0
 11
145.3088239999999
 21
164.48085
 31
0.0
  0
LINE
  5
17C
330
1E
100
AcDbEntity
  8
0
100
AcDbLine
 10
145.0
 20
181.8048499999999
 30
0.0
 11
145.0
 21
164.48085
 31
0.0
  0
LINE
  5
17D
330
1E
100
AcDbEntity
  8
0
100
AcDbLine
 10
159.0
 20
180.90485
 30
0.0
 11
163.8
 21
174.60485
 31
0.0
  0
LINE
  5
17E
330
1E
100
AcDbEntity
  8
0
100
AcDbLine
 10
158.6374999999999
 20
181.8048499999999
 30
0.0
 11
159.0
 21
180.90485
 31
0.0
  0
LINE
  5
17F
330
1E
100
AcDbEntity
  8
0
100
AcDbLine
 10
159.4999999999999
 20
181.10485
 30
0.0
 11
164.1999999999999
 21
175.00485
 31
0.0
  0
LINE
  5
180
330
1E
100
AcDbEntity
  8
0
100
AcDbLine
 10
159.2140845070419
 20
181.8048499999999
 30
0.0
 11
159.4999999999999
 21
181.10485
 31
0.0
  0
LINE
  5
181
330
1E
100
AcDbEntity
  8
0
100
AcDbLine
 10
158.6
 20
180.6048499999999
 30
0.0
 11
163.4999999999999
 21
174.30485
 31
0.0
  0
LINE
  5
182
330
1E
100
AcDbEntity
  8
0
100
AcDbLine
 10
158.1135135135139
 20
181.8048499999999
 30
0.0
 11
158.6
 21
180.6048499999999
 31
0.0
  0
LINE
  5
183
330
1E
100
AcDbEntity
  8
0
100
AcDbLine
 10
165.1612
 20
181.8048499999999
 30
0.0
 11
168.6042
 21
181.8048499999999
 31
0.0
  0
LINE
  5
184
330
1E
100
AcDbEntity
  8
0
100
AcDbLine
 10
162.0903
 20
181.8048499999999
 30
0.0
 11
165.1612
 21
181.8048499999999
 31
0.0
  0
LINE
  5
185
330
1E
100
AcDbEntity
  8
0
100
AcDbLine
 10
162.0903
 20
181.8048499999999
 30
0.0
 11
170.0
 21
181.8048499999999
 31
0.0
  0
LINE
  5
186
330
1E
100
AcDbEntity
  8
0
100
AcDbLine
 10
134.5013999999999
 20
181.8048499999999
 30
0.0
 11
162.0903
 21
181.8048499999999
 31
0.0
  0
LINE
  5
187
330
1E
100
AcDbEntity
  8
0
100
AcDbLine
 10
134.5013999999999
 20
181.8048499999999
 30
0.0
 11
170.0
 21
181.8048499999999
 31
0.0
  0
LINE
  5
188
330
1E
100
AcDbEntity
  8
0
100
AcDbLine
 10
170.0
 20
181.8048499999999
 30
0.0
 11
185.1590999999999
 21
181.8048499999999
 31
0.0
  0
LINE
  5
189
330
1E
100
AcDbEntity
  8
0
100
AcDbLine
 10
210.4999999999999
 20
181.10485
 30
0.0
 11
213.3999999999999
 21
188.2048499999999
 31
0.0
  0
LINE
  5
18A
330
1E
100
AcDbEntity
  8
0
100
AcDbLine
 10
211.0
 20
180.90485
 30
0.0
 11
213.9
 21
188.10485
 31
0.0
  0
LINE
  5
18B
330
1E
100
AcDbEntity
  8
0
100
AcDbLine
 10
211.3999999999999
 20
180.6048499999999
 30
0.0
 11
214.4
 21
188.00485
 31
0.0
  0
LINE
  5
18C
330
1E
100
AcDbEntity
  8
0
100
AcDbLine
 10
185.1590999999999
 20
181.8048499999999
 30
0.0
 11
188.7181999999999
 21
182.20485
 31
0.0
  0
LINE
  5
18D
330
1E
100
AcDbEntity
  8
0
100
AcDbLine
 10
184.6318
 20
181.8048499999999
 30
0.0
 11
185.1590999999999
 21
181.8048499999999
 31
0.0
  0
LINE
  5
18E
330
1E
100
AcDbEntity
  8
0
100
AcDbLine
 10
182.6545
 20
181.8048499999999
 30
0.0
 11
184.6318
 21
181.8048499999999
 31
0.0
  0
LINE
  5
18F
330
1E
100
AcDbEntity
  8
0
100
AcDbLine
 10
178.9636
 20
181.8048499999999
 30
0.0
 11
182.6545
 21
181.8048499999999
 31
0.0
  0
LINE
  5
190
330
1E
100
AcDbEntity
  8
0
100
AcDbLine
 10
173.2955
 20
181.8048499999999
 30
0.0
 11
178.9636
 21
181.8048499999999
 31
0.0
  0
LINE
  5
191
330
1E
100
AcDbEntity
  8
0
100
AcDbLine
 10
131.0295999999999
 20
182.20485
 30
0.0
 11
134.5013999999999
 21
181.8048499999999
 31
0.0
  0
LINE
  5
192
330
1E
100
AcDbEntity
  8
0
100
AcDbLine
 10
127.8149999999999
 20
183.67185
 30
0.0
 11
131.0295999999999
 21
182.20485
 31
0.0
  0
LINE
  5
193
330
1E
100
AcDbEntity
  8
0
100
AcDbLine
 10
188.7181999999999
 20
182.20485
 30
0.0
 11
192.0136
 21
183.67185
 31
0.0
  0
LINE
  5
194
330
1E
100
AcDbEntity
  8
0
100
AcDbLine
 10
124.8574999999999
 20
185.8048499999999
 30
0.0
 11
127.8149999999999
 21
183.67185
 31
0.0
  0
LINE
  5
195
330
1E
100
AcDbEntity
  8
0
100
AcDbLine
 10
122.8002
 20
188.8718499999999
 30
0.0
 11
124.8574999999999
 21
185.8048499999999
 31
0.0
  0
LINE
  5
196
330
1E
100
AcDbEntity
  8
0
100
AcDbLine
 10
192.0136
 20
183.67185
 30
0.0
 11
195.0454
 21
185.8048499999999
 31
0.0
  0
LINE
  5
197
330
1E
100
AcDbEntity
  8
0
100
AcDbLine
 10
195.0454
 20
185.8048499999999
 30
0.0
 11
197.1545
 21
188.8718499999999
 31
0.0
  0
LINE
  5
198
330
1E
100
AcDbEntity
  8
0
100
AcDbLine
 10
0.0
 20
276.8048499999999
 30
0.0
 11
700.0
 21
276.8048499999999
 31
0.0
  0
LINE
  5
199
330
1E
100
AcDbEntity
  8
0
100
AcDbLine
 10
0.0
 20
276.8048499999999
 30
0.0
 11
145.129965581741
 21
228.103519267872
 31
0.0
  0
LINE
  5
19A
330
1E
100
AcDbEntity
  8
0
100
AcDbLine
 10
0.0000000000000003
 20
276.8048499999999
 30
0.0
 11
700.0
 21
276.8048499999999
 31
0.0
  0
LINE
  5
19B
330
1E
100
AcDbEntity
  8
0
100
AcDbLine
 10
0.0000000000000003
 20
276.8048499999999
 30
0.0
 11
0.0000000000000003
 21
76.80485
 31
0.0
  0
LINE
  5
19C
330
1E
100
AcDbEntity
  8
0
100
AcDbLine
 10
0.0000000000000003
 20
276.8048499999999
 30
0.0
 11
145.129965581741
 21
228.103519267872
 31
0.0
  0
LINE
  5
19D
330
1E
100
AcDbEntity
  8
0
100
AcDbLine
 10
122.8002
 20
202.73785
 30
0.0
 11
124.8574999999999
 21
205.8048499999999
 31
0.0
  0
LINE
  5
19E
330
1E
100
AcDbEntity
  8
0
100
AcDbLine
 10
121.3858
 20
199.40485
 30
0.0
 11
122.8002
 21
202.73785
 31
0.0
  0
LINE
  5
19F
330
1E
100
AcDbEntity
  8
0
100
AcDbLine
 10
127.8149999999999
 20
207.9378499999999
 30
0.0
 11
131.0295999999999
 21
209.4048499999999
 31
0.0
  0
LINE
  5
1A0
330
1E
100
AcDbEntity
  8
0
100
AcDbLine
 10
124.8574999999999
 20
205.8048499999999
 30
0.0
 11
127.8149999999999
 21
207.9378499999999
 31
0.0
  0
LINE
  5
1A1
330
1E
100
AcDbEntity
  8
0
100
AcDbLine
 10
145.308810726599
 20
209.8048499999999
 30
0.0
 11
145.3088239999999
 21
227.12885
 31
0.0
  0
LINE
  5
1A2
330
1E
100
AcDbEntity
  8
0
100
AcDbLine
 10
145.0
 20
209.8048499999999
 30
0.0
 11
145.0
 21
227.12885
 31
0.0
  0
LINE
  5
1A3
330
1E
100
AcDbEntity
  8
0
100
AcDbLine
 10
131.0295999999999
 20
209.4048499999999
 30
0.0
 11
134.5013999999999
 21
209.8048499999999
 31
0.0
  0
LINE
  5
1A4
330
1E
100
AcDbEntity
  8
0
100
AcDbLine
 10
158.1135135135139
 20
209.8048499999999
 30
0.0
 11
158.6
 21
211.0048499999999
 31
0.0
  0
LINE
  5
1A5
330
1E
100
AcDbEntity
  8
0
100
AcDbLine
 10
158.6374999999999
 20
209.8048499999999
 30
0.0
 11
159.0
 21
210.7048499999999
 31
0.0
  0
LINE
  5
1A6
330
1E
100
AcDbEntity
  8
0
100
AcDbLine
 10
159.2140845070419
 20
209.8048499999999
 30
0.0
 11
159.4999999999999
 21
210.50485
 31
0.0
  0
LINE
  5
1A7
330
1E
100
AcDbEntity
  8
0
100
AcDbLine
 10
134.5013999999999
 20
209.8048499999999
 30
0.0
 11
170.0
 21
209.8048499999999
 31
0.0
  0
LINE
  5
1A8
330
1E
100
AcDbEntity
  8
0
100
AcDbLine
 10
170.0
 20
209.8048499999999
 30
0.0
 11
185.1590999999999
 21
209.8048499999999
 31
0.0
  0
LINE
  5
1A9
330
1E
100
AcDbEntity
  8
0
100
AcDbLine
 10
158.6
 20
211.0048499999999
 30
0.0
 11
163.4999999999999
 21
217.3048499999999
 31
0.0
  0
LINE
  5
1AA
330
1E
100
AcDbEntity
  8
0
100
AcDbLine
 10
159.0
 20
210.7048499999999
 30
0.0
 11
163.8
 21
217.00485
 31
0.0
  0
LINE
  5
1AB
330
1E
100
AcDbEntity
  8
0
100
AcDbLine
 10
159.4999999999999
 20
210.50485
 30
0.0
 11
164.1999999999999
 21
216.60485
 31
0.0
  0
LINE
  5
1AC
330
1E
100
AcDbEntity
  8
0
100
AcDbLine
 10
164.1999999999999
 20
216.60485
 30
0.0
 11
170.3
 21
221.3048499999999
 31
0.0
  0
LINE
  5
1AD
330
1E
100
AcDbEntity
  8
0
100
AcDbLine
 10
163.8
 20
217.00485
 30
0.0
 11
170.1
 21
221.80485
 31
0.0
  0
LINE
  5
1AE
330
1E
100
AcDbEntity
  8
0
100
AcDbLine
 10
163.4999999999999
 20
217.3048499999999
 30
0.0
 11
169.8
 21
222.20485
 31
0.0
  0
LINE
  5
1AF
330
1E
100
AcDbEntity
  8
0
100
AcDbLine
 10
170.3
 20
221.3048499999999
 30
0.0
 11
177.4
 21
224.20485
 31
0.0
  0
LINE
  5
1B0
330
1E
100
AcDbEntity
  8
0
100
AcDbLine
 10
170.1
 20
221.80485
 30
0.0
 11
177.3
 21
224.70485
 31
0.0
  0
LINE
  5
1B1
330
1E
100
AcDbEntity
  8
0
100
AcDbLine
 10
145.3088239999999
 20
227.12885
 30
0.0
 11
145.514706
 21
228.67285
 31
0.0
  0
LINE
  5
1B2
330
1E
100
AcDbEntity
  8
0
100
AcDbLine
 10
146.1323499999999
 20
230.0108499999999
 30
0.0
 11
147.0588199999999
 21
231.2458499999999
 31
0.0
  0
LINE
  5
1B3
330
1E
100
AcDbEntity
  8
0
100
AcDbLine
 10
145.514706
 20
228.67285
 30
0.0
 11
146.1323499999999
 21
230.0108499999999
 31
0.0
  0
LINE
  5
1B4
330
1E
100
AcDbEntity
  8
0
100
AcDbLine
 10
145.823529
 20
230.21685
 30
0.0
 11
146.8529399999999
 21
231.45185
 31
0.0
  0
LINE
  5
1B5
330
1E
100
AcDbEntity
  8
0
100
AcDbLine
 10
145.2058819999999
 20
228.67285
 30
0.0
 11
145.823529
 21
230.21685
 31
0.0
  0
LINE
  5
1B6
330
1E
100
AcDbEntity
  8
0
100
AcDbLine
 10
145.0
 20
227.12885
 30
0.0
 11
145.2058819999999
 21
228.67285
 31
0.0
  0
LINE
  5
1B7
330
1E
100
AcDbEntity
  8
0
100
AcDbLine
 10
145.0
 20
227.12885
 30
0.0
 11
145.0
 21
209.8048499999999
 31
0.0
  0
LINE
  5
1B8
330
1E
100
AcDbEntity
  8
0
100
AcDbLine
 10
147.0588199999999
 20
231.2458499999999
 30
0.0
 11
148.2941199999999
 21
232.17285
 31
0.0
  0
LINE
  5
1B9
330
1E
100
AcDbEntity
  8
0
100
AcDbLine
 10
146.8529399999999
 20
231.45185
 30
0.0
 11
148.08823
 21
232.48085
 31
0.0
  0
LINE
  5
1BA
330
1E
100
AcDbEntity
  8
0
100
AcDbLine
 10
148.2941199999999
 20
232.17285
 30
0.0
 11
149.63235
 21
232.7898499999999
 31
0.0
  0
LINE
  5
1BB
330
1E
100
AcDbEntity
  8
0
100
AcDbLine
 10
149.63235
 20
232.7898499999999
 30
0.0
 11
151.17647
 21
232.99585
 31
0.0
  0
LINE
  5
1BC
330
1E
100
AcDbEntity
  8
0
100
AcDbLine
 10
151.17647
 20
232.99585
 30
0.0
 11
350.0
 21
232.99585
 31
0.0
  0
LINE
  5
1BD
330
1E
100
AcDbEntity
  8
0
100
AcDbLine
 10
148.08823
 20
232.48085
 30
0.0
 11
149.63235
 21
233.09885
 31
0.0
  0
LINE
  5
1BE
330
1E
100
AcDbEntity
  8
0
100
AcDbLine
 10
149.63235
 20
233.09885
 30
0.0
 11
151.17647
 21
233.3048499999999
 31
0.0
  0
LINE
  5
1BF
330
1E
100
AcDbEntity
  8
0
100
AcDbLine
 10
151.17647
 20
233.3048499999999
 30
0.0
 11
350.0
 21
233.3048499999999
 31
0.0
  0
LINE
  5
1C0
330
1E
100
AcDbEntity
  8
0
100
AcDbLine
 10
169.8
 20
222.20485
 30
0.0
 11
177.2
 21
225.2048499999999
 31
0.0
  0
LINE
  5
1C1
330
1E
100
AcDbEntity
  8
0
100
AcDbLine
 10
177.4
 20
224.20485
 30
0.0
 11
185.0
 21
225.3048499999999
 31
0.0
  0
LINE
  5
1C2
330
1E
100
AcDbEntity
  8
0
100
AcDbLine
 10
185.0
 20
226.30485
 30
0.0
 11
192.8
 21
225.2048499999999
 31
0.0
  0
LINE
  5
1C3
330
1E
100
AcDbEntity
  8
0
100
AcDbLine
 10
185.0
 20
225.80485
 30
0.0
 11
192.6999999999999
 21
224.70485
 31
0.0
  0
LINE
  5
1C4
330
1E
100
AcDbEntity
  8
0
100
AcDbLine
 10
185.0
 20
225.3048499999999
 30
0.0
 11
192.5999999999999
 21
224.20485
 31
0.0
  0
LINE
  5
1C5
330
1E
100
AcDbEntity
  8
0
100
AcDbLine
 10
177.3
 20
224.70485
 30
0.0
 11
185.0
 21
225.80485
 31
0.0
  0
LINE
  5
1C6
330
1E
100
AcDbEntity
  8
0
100
AcDbLine
 10
177.2
 20
225.2048499999999
 30
0.0
 11
185.0
 21
226.30485
 31
0.0
  0
LINE
  5
1C7
330
1E
100
AcDbEntity
  8
0
100
AcDbLine
 10
185.1590999999999
 20
209.8048499999999
 30
0.0
 11
188.7181999999999
 21
209.4048499999999
 31
0.0
  0
LINE
  5
1C8
330
1E
100
AcDbEntity
  8
0
100
AcDbLine
 10
192.8
 20
225.2048499999999
 30
0.0
 11
200.1999999999999
 21
222.20485
 31
0.0
  0
LINE
  5
1C9
330
1E
100
AcDbEntity
  8
0
100
AcDbLine
 10
192.6999999999999
 20
224.70485
 30
0.0
 11
199.9
 21
221.80485
 31
0.0
  0
LINE
  5
1CA
330
1E
100
AcDbEntity
  8
0
100
AcDbLine
 10
192.5999999999999
 20
224.20485
 30
0.0
 11
199.6999999999999
 21
221.3048499999999
 31
0.0
  0
LINE
  5
1CB
330
1E
100
AcDbEntity
  8
0
100
AcDbLine
 10
188.7181999999999
 20
209.4048499999999
 30
0.0
 11
192.0136
 21
207.9378499999999
 31
0.0
  0
LINE
  5
1CC
330
1E
100
AcDbEntity
  8
0
100
AcDbLine
 10
192.0136
 20
207.9378499999999
 30
0.0
 11
195.0454
 21
205.8048499999999
 31
0.0
  0
LINE
  5
1CD
330
1E
100
AcDbEntity
  8
0
100
AcDbLine
 10
195.0454
 20
205.8048499999999
 30
0.0
 11
197.1545
 21
202.73785
 31
0.0
  0
LINE
  5
1CE
330
1E
100
AcDbEntity
  8
0
100
AcDbLine
 10
197.1545
 20
202.73785
 30
0.0
 11
198.6045
 21
199.40485
 31
0.0
  0
LINE
  5
1CF
330
1E
100
AcDbEntity
  8
0
100
AcDbLine
 10
198.6045
 20
199.40485
 30
0.0
 11
199.0
 21
195.8048499999999
 31
0.0
  0
LINE
  5
1D0
330
1E
100
AcDbEntity
  8
0
100
AcDbLine
 10
121.3858
 20
192.20485
 30
0.0
 11
122.8002
 21
188.8718499999999
 31
0.0
  0
LINE
  5
1D1
330
1E
100
AcDbEntity
  8
0
100
AcDbLine
 10
121.0
 20
195.8048499999999
 30
0.0
 11
121.3858
 21
192.20485
 31
0.0
  0
LINE
  5
1D2
330
1E
100
AcDbEntity
  8
0
100
AcDbLine
 10
121.0
 20
195.8048499999999
 30
0.0
 11
121.3858
 21
199.40485
 31
0.0
  0
LINE
  5
1D3
330
1E
100
AcDbEntity
  8
0
100
AcDbLine
 10
197.1545
 20
188.8718499999999
 30
0.0
 11
198.6045
 21
192.20485
 31
0.0
  0
LINE
  5
1D4
330
1E
100
AcDbEntity
  8
0
100
AcDbLine
 10
200.1999999999999
 20
222.20485
 30
0.0
 11
206.4999999999999
 21
217.3048499999999
 31
0.0
  0
LINE
  5
1D5
330
1E
100
AcDbEntity
  8
0
100
AcDbLine
 10
199.9
 20
221.80485
 30
0.0
 11
206.1999999999999
 21
217.00485
 31
0.0
  0
LINE
  5
1D6
330
1E
100
AcDbEntity
  8
0
100
AcDbLine
 10
206.4999999999999
 20
217.3048499999999
 30
0.0
 11
211.3999999999999
 21
211.0048499999999
 31
0.0
  0
LINE
  5
1D7
330
1E
100
AcDbEntity
  8
0
100
AcDbLine
 10
206.1999999999999
 20
217.00485
 30
0.0
 11
211.0
 21
210.7048499999999
 31
0.0
  0
LINE
  5
1D8
330
1E
100
AcDbEntity
  8
0
100
AcDbLine
 10
205.8
 20
216.60485
 30
0.0
 11
210.4999999999999
 21
210.50485
 31
0.0
  0
LINE
  5
1D9
330
1E
100
AcDbEntity
  8
0
100
AcDbLine
 10
211.3999999999999
 20
211.0048499999999
 30
0.0
 11
214.4
 21
203.60485
 31
0.0
  0
LINE
  5
1DA
330
1E
100
AcDbEntity
  8
0
100
AcDbLine
 10
211.0
 20
210.7048499999999
 30
0.0
 11
213.9
 21
203.50485
 31
0.0
  0
LINE
  5
1DB
330
1E
100
AcDbEntity
  8
0
100
AcDbLine
 10
213.9
 20
203.50485
 30
0.0
 11
215.0
 21
195.8048499999999
 31
0.0
  0
LINE
  5
1DC
330
1E
100
AcDbEntity
  8
0
100
AcDbLine
 10
210.4999999999999
 20
210.50485
 30
0.0
 11
213.3999999999999
 21
203.4048499999999
 31
0.0
  0
LINE
  5
1DD
330
1E
100
AcDbEntity
  8
0
100
AcDbLine
 10
213.3999999999999
 20
203.4048499999999
 30
0.0
 11
214.5
 21
195.8048499999999
 31
0.0
  0
LINE
  5
1DE
330
1E
100
AcDbEntity
  8
0
100
AcDbLine
 10
199.6999999999999
 20
221.3048499999999
 30
0.0
 11
205.8
 21
216.60485
 31
0.0
  0
LINE
  5
1DF
330
1E
100
AcDbEntity
  8
0
100
AcDbLine
 10
213.3999999999999
 20
188.2048499999999
 30
0.0
 11
214.5
 21
195.8048499999999
 31
0.0
  0
LINE
  5
1E0
330
1E
100
AcDbEntity
  8
0
100
AcDbLine
 10
214.4
 20
203.60485
 30
0.0
 11
215.5
 21
195.8048499999999
 31
0.0
  0
LINE
  5
1E1
330
1E
100
AcDbEntity
  8
0
100
AcDbLine
 10
213.9
 20
188.10485
 30
0.0
 11
215.0
 21
195.8048499999999
 31
0.0
  0
LINE
  5
1E2
330
1E
100
AcDbEntity
  8
0
100
AcDbLine
 10
214.4
 20
188.00485
 30
0.0
 11
215.5
 21
195.8048499999999
 31
0.0
  0
LINE
  5
1E3
330
1E
100
AcDbEntity
  8
0
100
AcDbLine
 10
198.6045
 20
192.20485
 30
0.0
 11
199.0
 21
195.8048499999999
 31
0.0
  0
LINE
  5
1E4
330
1E
100
AcDbEntity
  8
0
100
AcDbLine
 10
168.6042
 20
181.8048499999999
 30
0.0
 11
173.2955
 21
181.8048499999999
 31
0.0
  0
LINE
  5
1E5
330
1E
100
AcDbEntity
  8
0
100
AcDbLine
 10
265.5
 20
195.8048499999999
 30
0.0
 11
266.6
 21
188.2048499999999
 31
0.0
  0
LINE
  5
1E6
330
1E
100
AcDbEntity
  8
0
100
AcDbLine
 10
265.5
 20
195.8048499999999
 30
0.0
 11
266.6
 21
203.4048499999999
 31
0.0
  0
LINE
  5
1E7
330
1E
100
AcDbEntity
  8
0
100
AcDbLine
 10
309.0
 20
179.698183333333
 30
0.0
 11
310.1999999999999
 21
180.6048499999999
 31
0.0
  0
LINE
  5
1E8
330
1E
100
AcDbEntity
  8
0
100
AcDbLine
 10
504.38
 20
177.68185
 30
0.0
 11
507.56
 21
179.5198499999999
 31
0.0
  0
LINE
  5
1E9
330
1E
100
AcDbEntity
  8
0
100
AcDbLine
 10
507.7399999999999
 20
179.02985
 30
0.0
 11
511.22
 21
180.1338499999999
 31
0.0
  0
LINE
  5
1EA
330
1E
100
AcDbEntity
  8
0
100
AcDbLine
 10
511.22
 20
180.1338499999999
 30
0.0
 11
515.0
 21
180.54685
 31
0.0
  0
LINE
  5
1EB
330
1E
100
AcDbEntity
  8
0
100
AcDbLine
 10
507.56
 20
179.5198499999999
 30
0.0
 11
511.16
 21
180.62385
 31
0.0
  0
LINE
  5
1EC
330
1E
100
AcDbEntity
  8
0
100
AcDbLine
 10
492.835
 20
178.80385
 30
0.0
 11
495.2149999999999
 21
176.0198499999999
 31
0.0
  0
LINE
  5
1ED
330
1E
100
AcDbEntity
  8
0
100
AcDbLine
 10
309.0
 20
179.130936956522
 30
0.0
 11
310.4999999999999
 21
180.3048499999999
 31
0.0
  0
LINE
  5
1EE
330
1E
100
AcDbEntity
  8
0
100
AcDbLine
 10
310.1999999999999
 20
180.6048499999999
 30
0.0
 11
313.6
 21
185.10485
 31
0.0
  0
LINE
  5
1EF
330
1E
100
AcDbEntity
  8
0
100
AcDbLine
 10
515.0
 20
180.54685
 30
0.0
 11
518.78
 21
180.1338499999999
 31
0.0
  0
LINE
  5
1F0
330
1E
100
AcDbEntity
  8
0
100
AcDbLine
 10
488.6
 20
180.6048499999999
 30
0.0
 11
493.5
 21
174.30485
 31
0.0
  0
LINE
  5
1F1
330
1E
100
AcDbEntity
  8
0
100
AcDbLine
 10
431.4
 20
180.6048499999999
 30
0.0
 11
431.886486486486
 21
181.8048499999999
 31
0.0
  0
LINE
  5
1F2
330
1E
100
AcDbEntity
  8
0
100
AcDbLine
 10
378.6
 20
180.6048499999999
 30
0.0
 11
383.4999999999999
 21
174.30485
 31
0.0
  0
LINE
  5
1F3
330
1E
100
AcDbEntity
  8
0
100
AcDbLine
 10
321.3999999999999
 20
180.6048499999999
 30
0.0
 11
324.3999999999999
 21
188.00485
 31
0.0
  0
LINE
  5
1F4
330
1E
100
AcDbEntity
  8
0
100
AcDbLine
 10
310.4999999999999
 20
180.3048499999999
 30
0.0
 11
314.1
 21
184.90485
 31
0.0
  0
LINE
  5
1F5
330
1E
100
AcDbEntity
  8
0
100
AcDbLine
 10
309.0
 20
180.2818499999999
 30
0.0
 11
309.0
 21
184.85285
 31
0.0
  0
LINE
  5
1F6
330
1E
100
AcDbEntity
  8
0
100
AcDbLine
 10
309.0
 20
180.2818499999999
 30
0.0
 11
309.0
 21
175.06885
 31
0.0
  0
LINE
  5
1F7
330
1E
100
AcDbEntity
  8
0
100
AcDbLine
 10
281.0
 20
180.2818499999999
 30
0.0
 11
281.0
 21
184.85285
 31
0.0
  0
LINE
  5
1F8
330
1E
100
AcDbEntity
  8
0
100
AcDbLine
 10
281.0
 20
180.2818499999999
 30
0.0
 11
281.0
 21
175.06885
 31
0.0
  0
LINE
  5
1F9
330
1E
100
AcDbEntity
  8
0
100
AcDbLine
 10
511.16
 20
180.62385
 30
0.0
 11
515.0
 21
181.0368499999999
 31
0.0
  0
LINE
  5
1FA
330
1E
100
AcDbEntity
  8
0
100
AcDbLine
 10
489.0
 20
180.90485
 30
0.0
 11
493.8
 21
174.60485
 31
0.0
  0
LINE
  5
1FB
330
1E
100
AcDbEntity
  8
0
100
AcDbLine
 10
379.0
 20
180.90485
 30
0.0
 11
383.8
 21
174.60485
 31
0.0
  0
LINE
  5
1FC
330
1E
100
AcDbEntity
  8
0
100
AcDbLine
 10
431.0
 20
180.90485
 30
0.0
 11
431.3625
 21
181.8048499999999
 31
0.0
  0
LINE
  5
1FD
330
1E
100
AcDbEntity
  8
0
100
AcDbLine
 10
321.0
 20
180.90485
 30
0.0
 11
323.8999999999999
 21
188.10485
 31
0.0
  0
LINE
  5
1FE
330
1E
100
AcDbEntity
  8
0
100
AcDbLine
 10
279.8
 20
180.6048499999999
 30
0.0
 11
281.0
 21
179.698183333333
 31
0.0
  0
LINE
  5
1FF
330
1E
100
AcDbEntity
  8
0
100
AcDbLine
 10
279.4999999999999
 20
180.3048499999999
 30
0.0
 11
281.0
 21
179.130936956522
 31
0.0
  0
LINE
  5
200
330
1E
100
AcDbEntity
  8
0
100
AcDbLine
 10
515.0
 20
181.0368499999999
 30
0.0
 11
518.84
 21
180.62385
 31
0.0
  0
LINE
  5
201
330
1E
100
AcDbEntity
  8
0
100
AcDbLine
 10
489.5
 20
181.10485
 30
0.0
 11
494.2
 21
175.00485
 31
0.0
  0
LINE
  5
202
330
1E
100
AcDbEntity
  8
0
100
AcDbLine
 10
379.4999999999999
 20
181.10485
 30
0.0
 11
384.2
 21
175.00485
 31
0.0
  0
LINE
  5
203
330
1E
100
AcDbEntity
  8
0
100
AcDbLine
 10
404.841
 20
181.8048499999999
 30
0.0
 11
405.368
 21
181.8048499999999
 31
0.0
  0
LINE
  5
204
330
1E
100
AcDbEntity
  8
0
100
AcDbLine
 10
404.841
 20
181.8048499999999
 30
0.0
 11
420.0
 21
181.8048499999999
 31
0.0
  0
LINE
  5
205
330
1E
100
AcDbEntity
  8
0
100
AcDbLine
 10
405.368
 20
181.8048499999999
 30
0.0
 11
407.345
 21
181.8048499999999
 31
0.0
  0
LINE
  5
206
330
1E
100
AcDbEntity
  8
0
100
AcDbLine
 10
407.345
 20
181.8048499999999
 30
0.0
 11
411.036
 21
181.8048499999999
 31
0.0
  0
LINE
  5
207
330
1E
100
AcDbEntity
  8
0
100
AcDbLine
 10
411.036
 20
181.8048499999999
 30
0.0
 11
416.704
 21
181.8048499999999
 31
0.0
  0
LINE
  5
208
330
1E
100
AcDbEntity
  8
0
100
AcDbLine
 10
416.704
 20
181.8048499999999
 30
0.0
 11
421.3959999999999
 21
181.8048499999999
 31
0.0
  0
LINE
  5
209
330
1E
100
AcDbEntity
  8
0
100
AcDbLine
 10
420.0
 20
181.8048499999999
 30
0.0
 11
455.499
 21
181.8048499999999
 31
0.0
  0
LINE
  5
20A
330
1E
100
AcDbEntity
  8
0
100
AcDbLine
 10
420.0
 20
181.8048499999999
 30
0.0
 11
427.91
 21
181.8048499999999
 31
0.0
  0
LINE
  5
20B
330
1E
100
AcDbEntity
  8
0
100
AcDbLine
 10
421.3959999999999
 20
181.8048499999999
 30
0.0
 11
424.8389999999999
 21
181.8048499999999
 31
0.0
  0
LINE
  5
20C
330
1E
100
AcDbEntity
  8
0
100
AcDbLine
 10
401.2819999999999
 20
182.20485
 30
0.0
 11
404.841
 21
181.8048499999999
 31
0.0
  0
LINE
  5
20D
330
1E
100
AcDbEntity
  8
0
100
AcDbLine
 10
397.986
 20
183.67185
 30
0.0
 11
401.2819999999999
 21
182.20485
 31
0.0
  0
LINE
  5
20E
330
1E
100
AcDbEntity
  8
0
100
AcDbLine
 10
424.8389999999999
 20
181.8048499999999
 30
0.0
 11
427.91
 21
181.8048499999999
 31
0.0
  0
LINE
  5
20F
330
1E
100
AcDbEntity
  8
0
100
AcDbLine
 10
458.97
 20
182.20485
 30
0.0
 11
462.185
 21
183.67185
 31
0.0
  0
LINE
  5
210
330
1E
100
AcDbEntity
  8
0
100
AcDbLine
 10
500.0
 20
182.056785637664
 30
0.0
 11
500.0
 21
169.54685
 31
0.0
  0
LINE
  5
211
330
1E
100
AcDbEntity
  8
0
100
AcDbLine
 10
490.7219999999999
 20
181.85485
 30
0.0
 11
492.835
 21
178.80385
 31
0.0
  0
LINE
  5
212
330
1E
100
AcDbEntity
  8
0
100
AcDbLine
 10
462.185
 20
183.67185
 30
0.0
 11
465.1419999999999
 21
185.8048499999999
 31
0.0
  0
LINE
  5
213
330
1E
100
AcDbEntity
  8
0
100
AcDbLine
 10
455.499
 20
181.8048499999999
 30
0.0
 11
458.97
 21
182.20485
 31
0.0
  0
LINE
  5
214
330
1E
100
AcDbEntity
  8
0
100
AcDbLine
 10
427.91
 20
181.8048499999999
 30
0.0
 11
455.499
 21
181.8048499999999
 31
0.0
  0
LINE
  5
215
330
1E
100
AcDbEntity
  8
0
100
AcDbLine
 10
430.4999999999999
 20
181.10485
 30
0.0
 11
430.7859154929579
 21
181.8048499999999
 31
0.0
  0
LINE
  5
216
330
1E
100
AcDbEntity
  8
0
100
AcDbLine
 10
320.5
 20
181.10485
 30
0.0
 11
323.3999999999999
 21
188.2048499999999
 31
0.0
  0
LINE
  5
217
330
1E
100
AcDbEntity
  8
0
100
AcDbLine
 10
314.1
 20
184.90485
 30
0.0
 11
316.1999999999999
 21
190.1048499999999
 31
0.0
  0
LINE
  5
218
330
1E
100
AcDbEntity
  8
0
100
AcDbLine
 10
309.0
 20
184.85285
 30
0.0
 11
309.0
 21
180.2818499999999
 31
0.0
  0
LINE
  5
219
330
1E
100
AcDbEntity
  8
0
100
AcDbLine
 10
309.0
 20
184.85285
 30
0.0
 11
309.0
 21
188.7038499999999
 31
0.0
  0
LINE
  5
21A
330
1E
100
AcDbEntity
  8
0
100
AcDbLine
 10
281.0
 20
184.85285
 30
0.0
 11
281.0
 21
180.2818499999999
 31
0.0
  0
LINE
  5
21B
330
1E
100
AcDbEntity
  8
0
100
AcDbLine
 10
281.0
 20
184.85285
 30
0.0
 11
281.0
 21
188.7038499999999
 31
0.0
  0
LINE
  5
21C
330
1E
100
AcDbEntity
  8
0
100
AcDbLine
 10
323.8999999999999
 20
188.10485
 30
0.0
 11
325.0
 21
195.8048499999999
 31
0.0
  0
LINE
  5
21D
330
1E
100
AcDbEntity
  8
0
100
AcDbLine
 10
489.113
 20
185.14185
 30
0.0
 11
490.7219999999999
 21
181.85485
 31
0.0
  0
LINE
  5
21E
330
1E
100
AcDbEntity
  8
0
100
AcDbLine
 10
485.6
 20
188.00485
 30
0.0
 11
488.6
 21
180.6048499999999
 31
0.0
  0
LINE
  5
21F
330
1E
100
AcDbEntity
  8
0
100
AcDbLine
 10
465.1419999999999
 20
185.8048499999999
 30
0.0
 11
467.1999999999999
 21
188.8718499999999
 31
0.0
  0
LINE
  5
220
330
1E
100
AcDbEntity
  8
0
100
AcDbLine
 10
394.9549999999999
 20
185.8048499999999
 30
0.0
 11
397.986
 21
183.67185
 31
0.0
  0
LINE
  5
221
330
1E
100
AcDbEntity
  8
0
100
AcDbLine
 10
486.1
 20
188.10485
 30
0.0
 11
489.0
 21
180.90485
 31
0.0
  0
LINE
  5
222
330
1E
100
AcDbEntity
  8
0
100
AcDbLine
 10
376.1
 20
188.10485
 30
0.0
 11
379.0
 21
180.90485
 31
0.0
  0
LINE
  5
223
330
1E
100
AcDbEntity
  8
0
100
AcDbLine
 10
375.6
 20
188.00485
 30
0.0
 11
378.6
 21
180.6048499999999
 31
0.0
  0
LINE
  5
224
330
1E
100
AcDbEntity
  8
0
100
AcDbLine
 10
324.3999999999999
 20
188.00485
 30
0.0
 11
325.4999999999999
 21
195.8048499999999
 31
0.0
  0
LINE
  5
225
330
1E
100
AcDbEntity
  8
0
100
AcDbLine
 10
313.6
 20
185.10485
 30
0.0
 11
315.7
 21
190.3048499999999
 31
0.0
  0
LINE
  5
226
330
1E
100
AcDbEntity
  8
0
100
AcDbLine
 10
276.3999999999999
 20
185.10485
 30
0.0
 11
279.8
 21
180.6048499999999
 31
0.0
  0
LINE
  5
227
330
1E
100
AcDbEntity
  8
0
100
AcDbLine
 10
275.8999999999999
 20
184.90485
 30
0.0
 11
279.4999999999999
 21
180.3048499999999
 31
0.0
  0
LINE
  5
228
330
1E
100
AcDbEntity
  8
0
100
AcDbLine
 10
269.4999999999999
 20
181.10485
 30
0.0
 11
274.1999999999999
 21
175.00485
 31
0.0
  0
LINE
  5
229
330
1E
100
AcDbEntity
  8
0
100
AcDbLine
 10
269.0
 20
180.90485
 30
0.0
 11
273.7999999999999
 21
174.60485
 31
0.0
  0
LINE
  5
22A
330
1E
100
AcDbEntity
  8
0
100
AcDbLine
 10
268.6
 20
180.6048499999999
 30
0.0
 11
273.4999999999999
 21
174.30485
 31
0.0
  0
LINE
  5
22B
330
1E
100
AcDbEntity
  8
0
100
AcDbLine
 10
486.6
 20
188.2048499999999
 30
0.0
 11
489.5
 21
181.10485
 31
0.0
  0
LINE
  5
22C
330
1E
100
AcDbEntity
  8
0
100
AcDbLine
 10
488.0069999999999
 20
188.42885
 30
0.0
 11
489.113
 21
185.14185
 31
0.0
  0
LINE
  5
22D
330
1E
100
AcDbEntity
  8
0
100
AcDbLine
 10
376.6
 20
188.2048499999999
 30
0.0
 11
379.4999999999999
 21
181.10485
 31
0.0
  0
LINE
  5
22E
330
1E
100
AcDbEntity
  8
0
100
AcDbLine
 10
323.3999999999999
 20
188.2048499999999
 30
0.0
 11
324.5
 21
195.8048499999999
 31
0.0
  0
LINE
  5
22F
330
1E
100
AcDbEntity
  8
0
100
AcDbLine
 10
467.1999999999999
 20
188.8718499999999
 30
0.0
 11
468.614
 21
192.20485
 31
0.0
  0
LINE
  5
230
330
1E
100
AcDbEntity
  8
0
100
AcDbLine
 10
392.845
 20
188.8718499999999
 30
0.0
 11
394.9549999999999
 21
185.8048499999999
 31
0.0
  0
LINE
  5
231
330
1E
100
AcDbEntity
  8
0
100
AcDbLine
 10
316.1999999999999
 20
190.1048499999999
 30
0.0
 11
317.0
 21
195.8048499999999
 31
0.0
  0
LINE
  5
232
330
1E
100
AcDbEntity
  8
0
100
AcDbLine
 10
309.0
 20
188.7038499999999
 30
0.0
 11
309.0
 21
184.85285
 31
0.0
  0
LINE
  5
233
330
1E
100
AcDbEntity
  8
0
100
AcDbLine
 10
309.0
 20
188.7038499999999
 30
0.0
 11
309.0
 21
191.7708499999999
 31
0.0
  0
LINE
  5
234
330
1E
100
AcDbEntity
  8
0
100
AcDbLine
 10
281.0
 20
188.7038499999999
 30
0.0
 11
281.0
 21
184.85285
 31
0.0
  0
LINE
  5
235
330
1E
100
AcDbEntity
  8
0
100
AcDbLine
 10
281.0
 20
188.7038499999999
 30
0.0
 11
281.0
 21
191.7708499999999
 31
0.0
  0
LINE
  5
236
330
1E
100
AcDbEntity
  8
0
100
AcDbLine
 10
281.0
 20
191.7708499999999
 30
0.0
 11
281.0
 21
188.7038499999999
 31
0.0
  0
LINE
  5
237
330
1E
100
AcDbEntity
  8
0
100
AcDbLine
 10
281.0
 20
191.7708499999999
 30
0.0
 11
281.0
 21
193.99885
 31
0.0
  0
LINE
  5
238
330
1E
100
AcDbEntity
  8
0
100
AcDbLine
 10
487.3359999999999
 20
192.08285
 30
0.0
 11
488.0069999999999
 21
188.42885
 31
0.0
  0
LINE
  5
239
330
1E
100
AcDbEntity
  8
0
100
AcDbLine
 10
468.614
 20
192.20485
 30
0.0
 11
469.0
 21
195.8048499999999
 31
0.0
  0
LINE
  5
23A
330
1E
100
AcDbEntity
  8
0
100
AcDbLine
 10
391.3949999999999
 20
192.20485
 30
0.0
 11
392.845
 21
188.8718499999999
 31
0.0
  0
LINE
  5
23B
330
1E
100
AcDbEntity
  8
0
100
AcDbLine
 10
315.7
 20
190.3048499999999
 30
0.0
 11
316.5
 21
195.8048499999999
 31
0.0
  0
LINE
  5
23C
330
1E
100
AcDbEntity
  8
0
100
AcDbLine
 10
309.0
 20
191.7708499999999
 30
0.0
 11
309.0
 21
188.7038499999999
 31
0.0
  0
LINE
  5
23D
330
1E
100
AcDbEntity
  8
0
100
AcDbLine
 10
309.0
 20
191.7708499999999
 30
0.0
 11
309.0
 21
193.99885
 31
0.0
  0
LINE
  5
23E
330
1E
100
AcDbEntity
  8
0
100
AcDbLine
 10
309.0
 20
195.35185
 30
0.0
 11
309.0
 21
193.99885
 31
0.0
  0
LINE
  5
23F
330
1E
100
AcDbEntity
  8
0
100
AcDbLine
 10
309.0
 20
195.35185
 30
0.0
 11
309.0
 21
195.8048499999999
 31
0.0
  0
LINE
  5
240
330
1E
100
AcDbEntity
  8
0
100
AcDbLine
 10
309.0
 20
193.99885
 30
0.0
 11
309.0
 21
191.7708499999999
 31
0.0
  0
LINE
  5
241
330
1E
100
AcDbEntity
  8
0
100
AcDbLine
 10
309.0
 20
193.99885
 30
0.0
 11
309.0
 21
195.35185
 31
0.0
  0
LINE
  5
242
330
1E
100
AcDbEntity
  8
0
100
AcDbLine
 10
281.0
 20
193.99885
 30
0.0
 11
281.0
 21
195.35185
 31
0.0
  0
LINE
  5
243
330
1E
100
AcDbEntity
  8
0
100
AcDbLine
 10
281.0
 20
193.99885
 30
0.0
 11
281.0
 21
191.7708499999999
 31
0.0
  0
LINE
  5
244
330
1E
100
AcDbEntity
  8
0
100
AcDbLine
 10
375.4999999999999
 20
195.8048499999999
 30
0.0
 11
376.6
 21
203.4048499999999
 31
0.0
  0
LINE
  5
245
330
1E
100
AcDbEntity
  8
0
100
AcDbLine
 10
375.4999999999999
 20
195.8048499999999
 30
0.0
 11
376.6
 21
188.2048499999999
 31
0.0
  0
LINE
  5
246
330
1E
100
AcDbEntity
  8
0
100
AcDbLine
 10
375.0
 20
195.8048499999999
 30
0.0
 11
376.1
 21
203.50485
 31
0.0
  0
LINE
  5
247
330
1E
100
AcDbEntity
  8
0
100
AcDbLine
 10
375.0
 20
195.8048499999999
 30
0.0
 11
376.1
 21
188.10485
 31
0.0
  0
LINE
  5
248
330
1E
100
AcDbEntity
  8
0
100
AcDbLine
 10
487.0
 20
195.8048499999999
 30
0.0
 11
487.3359999999999
 21
192.08285
 31
0.0
  0
LINE
  5
249
330
1E
100
AcDbEntity
  8
0
100
AcDbLine
 10
487.0
 20
195.8048499999999
 30
0.0
 11
487.3359999999999
 21
199.52685
 31
0.0
  0
LINE
  5
24A
330
1E
100
AcDbEntity
  8
0
100
AcDbLine
 10
485.5
 20
195.8048499999999
 30
0.0
 11
486.6
 21
188.2048499999999
 31
0.0
  0
LINE
  5
24B
330
1E
100
AcDbEntity
  8
0
100
AcDbLine
 10
485.5
 20
195.8048499999999
 30
0.0
 11
486.6
 21
203.4048499999999
 31
0.0
  0
LINE
  5
24C
330
1E
100
AcDbEntity
  8
0
100
AcDbLine
 10
485.0
 20
195.8048499999999
 30
0.0
 11
486.1
 21
188.10485
 31
0.0
  0
LINE
  5
24D
330
1E
100
AcDbEntity
  8
0
100
AcDbLine
 10
485.0
 20
195.8048499999999
 30
0.0
 11
486.1
 21
203.50485
 31
0.0
  0
LINE
  5
24E
330
1E
100
AcDbEntity
  8
0
100
AcDbLine
 10
484.4999999999999
 20
195.8048499999999
 30
0.0
 11
485.6
 21
188.00485
 31
0.0
  0
LINE
  5
24F
330
1E
100
AcDbEntity
  8
0
100
AcDbLine
 10
484.4999999999999
 20
195.8048499999999
 30
0.0
 11
485.6
 21
203.60485
 31
0.0
  0
LINE
  5
250
330
1E
100
AcDbEntity
  8
0
100
AcDbLine
 10
374.5
 20
195.8048499999999
 30
0.0
 11
375.6
 21
188.00485
 31
0.0
  0
LINE
  5
251
330
1E
100
AcDbEntity
  8
0
100
AcDbLine
 10
374.5
 20
195.8048499999999
 30
0.0
 11
375.6
 21
203.60485
 31
0.0
  0
LINE
  5
253
330
1E
100
AcDbEntity
  8
0
100
AcDbLine
 10
281.0
 20
195.35185
 30
0.0
 11
281.0
 21
195.8048499999999
 31
0.0
  0
LINE
  5
254
330
1E
100
AcDbEntity
  8
0
100
AcDbLine
 10
281.0
 20
195.35185
 30
0.0
 11
281.0
 21
193.99885
 31
0.0
  0
LINE
  5
255
330
1E
100
AcDbEntity
  8
0
100
AcDbLine
 10
274.3
 20
190.3048499999999
 30
0.0
 11
276.3999999999999
 21
185.10485
 31
0.0
  0
LINE
  5
256
330
1E
100
AcDbEntity
  8
0
100
AcDbLine
 10
273.4999999999999
 20
195.8048499999999
 30
0.0
 11
274.3
 21
190.3048499999999
 31
0.0
  0
LINE
  5
257
330
1E
100
AcDbEntity
  8
0
100
AcDbLine
 10
273.4999999999999
 20
195.8048499999999
 30
0.0
 11
274.3
 21
201.30485
 31
0.0
  0
LINE
  5
258
330
1E
100
AcDbEntity
  8
0
100
AcDbLine
 10
273.0
 20
195.8048499999999
 30
0.0
 11
273.7999999999999
 21
190.1048499999999
 31
0.0
  0
LINE
  5
259
330
1E
100
AcDbEntity
  8
0
100
AcDbLine
 10
273.0
 20
195.8048499999999
 30
0.0
 11
273.7999999999999
 21
201.50485
 31
0.0
  0
LINE
  5
25A
330
1E
100
AcDbEntity
  8
0
100
AcDbLine
 10
273.7999999999999
 20
190.1048499999999
 30
0.0
 11
275.8999999999999
 21
184.90485
 31
0.0
  0
LINE
  5
25B
330
1E
100
AcDbEntity
  8
0
100
AcDbLine
 10
266.6
 20
188.2048499999999
 30
0.0
 11
269.4999999999999
 21
181.10485
 31
0.0
  0
LINE
  5
25C
330
1E
100
AcDbEntity
  8
0
100
AcDbLine
 10
266.1
 20
188.10485
 30
0.0
 11
269.0
 21
180.90485
 31
0.0
  0
LINE
  5
25D
330
1E
100
AcDbEntity
  8
0
100
AcDbLine
 10
265.6
 20
188.00485
 30
0.0
 11
268.6
 21
180.6048499999999
 31
0.0
  0
LINE
  5
25E
330
1E
100
AcDbEntity
  8
0
100
AcDbLine
 10
274.3
 20
201.30485
 30
0.0
 11
276.3999999999999
 21
206.50485
 31
0.0
  0
LINE
  5
25F
330
1E
100
AcDbEntity
  8
0
100
AcDbLine
 10
273.7999999999999
 20
201.50485
 30
0.0
 11
275.8999999999999
 21
206.7048499999999
 31
0.0
  0
LINE
  5
260
330
1E
100
AcDbEntity
  8
0
100
AcDbLine
 10
268.6
 20
211.0048499999999
 30
0.0
 11
273.4999999999999
 21
217.3048499999999
 31
0.0
  0
LINE
  5
261
330
1E
100
AcDbEntity
  8
0
100
AcDbLine
 10
269.0
 20
210.7048499999999
 30
0.0
 11
273.7999999999999
 21
217.00485
 31
0.0
  0
LINE
  5
262
330
1E
100
AcDbEntity
  8
0
100
AcDbLine
 10
265.6
 20
203.60485
 30
0.0
 11
268.6
 21
211.0048499999999
 31
0.0
  0
LINE
  5
263
330
1E
100
AcDbEntity
  8
0
100
AcDbLine
 10
266.1
 20
203.50485
 30
0.0
 11
269.0
 21
210.7048499999999
 31
0.0
  0
LINE
  5
264
330
1E
100
AcDbEntity
  8
0
100
AcDbLine
 10
276.3999999999999
 20
206.50485
 30
0.0
 11
279.8
 21
211.0048499999999
 31
0.0
  0
LINE
  5
265
330
1E
100
AcDbEntity
  8
0
100
AcDbLine
 10
279.8
 20
211.0048499999999
 30
0.0
 11
284.2999999999999
 21
214.40485
 31
0.0
  0
LINE
  5
266
330
1E
100
AcDbEntity
  8
0
100
AcDbLine
 10
279.4999999999999
 20
211.30485
 30
0.0
 11
284.1
 21
214.90485
 31
0.0
  0
LINE
  5
267
330
1E
100
AcDbEntity
  8
0
100
AcDbLine
 10
273.7999999999999
 20
217.00485
 30
0.0
 11
280.1
 21
221.80485
 31
0.0
  0
LINE
  5
268
330
1E
100
AcDbEntity
  8
0
100
AcDbLine
 10
273.4999999999999
 20
217.3048499999999
 30
0.0
 11
279.8
 21
222.20485
 31
0.0
  0
LINE
  5
269
330
1E
100
AcDbEntity
  8
0
100
AcDbLine
 10
280.1
 20
221.80485
 30
0.0
 11
287.3
 21
224.70485
 31
0.0
  0
LINE
  5
26A
330
1E
100
AcDbEntity
  8
0
100
AcDbLine
 10
279.8
 20
222.20485
 30
0.0
 11
287.1999999999999
 21
225.2048499999999
 31
0.0
  0
LINE
  5
26B
330
1E
100
AcDbEntity
  8
0
100
AcDbLine
 10
274.1999999999999
 20
216.60485
 30
0.0
 11
280.3
 21
221.3048499999999
 31
0.0
  0
LINE
  5
26C
330
1E
100
AcDbEntity
  8
0
100
AcDbLine
 10
280.3
 20
221.3048499999999
 30
0.0
 11
287.3999999999999
 21
224.20485
 31
0.0
  0
LINE
  5
26D
330
1E
100
AcDbEntity
  8
0
100
AcDbLine
 10
275.8999999999999
 20
206.7048499999999
 30
0.0
 11
279.4999999999999
 21
211.30485
 31
0.0
  0
LINE
  5
26E
330
1E
100
AcDbEntity
  8
0
100
AcDbLine
 10
269.4999999999999
 20
210.50485
 30
0.0
 11
274.1999999999999
 21
216.60485
 31
0.0
  0
LINE
  5
26F
330
1E
100
AcDbEntity
  8
0
100
AcDbLine
 10
266.6
 20
203.4048499999999
 30
0.0
 11
269.4999999999999
 21
210.50485
 31
0.0
  0
LINE
  5
270
330
1E
100
AcDbEntity
  8
0
100
AcDbLine
 10
282.8999999999999
 20
202.8048499999999
 30
0.0
 11
285.1
 21
205.70485
 31
0.0
  0
LINE
  5
271
330
1E
100
AcDbEntity
  8
0
100
AcDbLine
 10
281.4999999999999
 20
199.40485
 30
0.0
 11
282.8999999999999
 21
202.8048499999999
 31
0.0
  0
LINE
  5
274
330
1E
100
AcDbEntity
  8
0
100
AcDbLine
 10
288.0
 20
207.90485
 30
0.0
 11
291.3999999999999
 21
209.30485
 31
0.0
  0
LINE
  5
275
330
1E
100
AcDbEntity
  8
0
100
AcDbLine
 10
285.1
 20
205.70485
 30
0.0
 11
288.0
 21
207.90485
 31
0.0
  0
LINE
  5
276
330
1E
100
AcDbEntity
  8
0
100
AcDbLine
 10
284.2999999999999
 20
214.40485
 30
0.0
 11
289.4999999999999
 21
216.50485
 31
0.0
  0
LINE
  5
277
330
1E
100
AcDbEntity
  8
0
100
AcDbLine
 10
284.1
 20
214.90485
 30
0.0
 11
289.3
 21
217.00485
 31
0.0
  0
LINE
  5
278
330
1E
100
AcDbEntity
  8
0
100
AcDbLine
 10
291.096
 20
211.80485
 30
0.0
 11
291.24
 21
211.80485
 31
0.0
  0
LINE
  5
279
330
1E
100
AcDbEntity
  8
0
100
AcDbLine
 10
291.0
 20
212.03585
 30
0.0
 11
291.096
 21
211.80485
 31
0.0
  0
LINE
  5
27A
330
1E
100
AcDbEntity
  8
0
100
AcDbLine
 10
291.0
 20
212.03585
 30
0.0
 11
291.0
 21
223.57385
 31
0.0
  0
LINE
  5
27B
330
1E
100
AcDbEntity
  8
0
100
AcDbLine
 10
291.24
 20
211.80485
 30
0.0
 11
291.624
 21
211.80485
 31
0.0
  0
LINE
  5
27C
330
1E
100
AcDbEntity
  8
0
100
AcDbLine
 10
391.0
 20
195.8048499999999
 30
0.0
 11
391.3949999999999
 21
199.40485
 31
0.0
  0
LINE
  5
27D
330
1E
100
AcDbEntity
  8
0
100
AcDbLine
 10
391.0
 20
195.8048499999999
 30
0.0
 11
391.3949999999999
 21
192.20485
 31
0.0
  0
LINE
  5
27E
330
1E
100
AcDbEntity
  8
0
100
AcDbLine
 10
292.0
 20
211.80485
 30
0.0
 11
292.0
 21
209.388183333333
 31
0.0
  0
LINE
  5
27F
330
1E
100
AcDbEntity
  8
0
100
AcDbLine
 10
292.0
 20
211.80485
 30
0.0
 11
292.1079999999999
 21
211.80485
 31
0.0
  0
LINE
  5
280
330
1E
100
AcDbEntity
  8
0
100
AcDbLine
 10
292.1079999999999
 20
211.80485
 30
0.0
 11
292.3959999999999
 21
211.80485
 31
0.0
  0
LINE
  5
281
330
1E
100
AcDbEntity
  8
0
100
AcDbLine
 10
292.3959999999999
 20
211.80485
 30
0.0
 11
292.876
 21
211.80485
 31
0.0
  0
LINE
  5
282
330
1E
100
AcDbEntity
  8
0
100
AcDbLine
 10
292.876
 20
211.80485
 30
0.0
 11
293.5119999999999
 21
211.80485
 31
0.0
  0
LINE
  5
283
330
1E
100
AcDbEntity
  8
0
100
AcDbLine
 10
292.0
 20
209.388183333333
 30
0.0
 11
292.0
 21
211.80485
 31
0.0
  0
LINE
  5
284
330
1E
100
AcDbEntity
  8
0
100
AcDbLine
 10
292.2479999999999
 20
211.80485
 30
0.0
 11
293.064
 21
211.80485
 31
0.0
  0
LINE
  5
285
330
1E
100
AcDbEntity
  8
0
100
AcDbLine
 10
293.5119999999999
 20
211.80485
 30
0.0
 11
294.232
 21
211.80485
 31
0.0
  0
LINE
  5
286
330
1E
100
AcDbEntity
  8
0
100
AcDbLine
 10
294.232
 20
211.80485
 30
0.0
 11
295.0
 21
211.80485
 31
0.0
  0
LINE
  5
287
330
1E
100
AcDbEntity
  8
0
100
AcDbLine
 10
293.064
 20
211.80485
 30
0.0
 11
293.992
 21
211.80485
 31
0.0
  0
LINE
  5
288
330
1E
100
AcDbEntity
  8
0
100
AcDbLine
 10
293.992
 20
211.80485
 30
0.0
 11
295.0
 21
211.80485
 31
0.0
  0
LINE
  5
289
330
1E
100
AcDbEntity
  8
0
100
AcDbLine
 10
295.0
 20
211.80485
 30
0.0
 11
296.0079999999999
 21
211.80485
 31
0.0
  0
LINE
  5
28A
330
1E
100
AcDbEntity
  8
0
100
AcDbLine
 10
295.0
 20
211.80485
 30
0.0
 11
295.7679999999999
 21
211.80485
 31
0.0
  0
LINE
  5
28B
330
1E
100
AcDbEntity
  8
0
100
AcDbLine
 10
291.624
 20
211.80485
 30
0.0
 11
292.0
 21
211.80485
 31
0.0
  0
LINE
  5
28C
330
1E
100
AcDbEntity
  8
0
100
AcDbLine
 10
291.624
 20
211.80485
 30
0.0
 11
292.2479999999999
 21
211.80485
 31
0.0
  0
LINE
  5
28D
330
1E
100
AcDbEntity
  8
0
100
AcDbLine
 10
296.4879999999999
 20
211.80485
 30
0.0
 11
297.124
 21
211.80485
 31
0.0
  0
LINE
  5
28E
330
1E
100
AcDbEntity
  8
0
100
AcDbLine
 10
295.7679999999999
 20
211.80485
 30
0.0
 11
296.4879999999999
 21
211.80485
 31
0.0
  0
LINE
  5
28F
330
1E
100
AcDbEntity
  8
0
100
AcDbLine
 10
297.892
 20
211.80485
 30
0.0
 11
298.0
 21
211.80485
 31
0.0
  0
LINE
  5
290
330
1E
100
AcDbEntity
  8
0
100
AcDbLine
 10
298.0
 20
209.388183333333
 30
0.0
 11
298.0
 21
211.80485
 31
0.0
  0
LINE
  5
291
330
1E
100
AcDbEntity
  8
0
100
AcDbLine
 10
297.604
 20
211.80485
 30
0.0
 11
297.892
 21
211.80485
 31
0.0
  0
LINE
  5
292
330
1E
100
AcDbEntity
  8
0
100
AcDbLine
 10
297.124
 20
211.80485
 30
0.0
 11
297.604
 21
211.80485
 31
0.0
  0
LINE
  5
293
330
1E
100
AcDbEntity
  8
0
100
AcDbLine
 10
297.752
 20
211.80485
 30
0.0
 11
298.3759999999999
 21
211.80485
 31
0.0
  0
LINE
  5
294
330
1E
100
AcDbEntity
  8
0
100
AcDbLine
 10
296.9359999999999
 20
211.80485
 30
0.0
 11
297.752
 21
211.80485
 31
0.0
  0
LINE
  5
295
330
1E
100
AcDbEntity
  8
0
100
AcDbLine
 10
296.0079999999999
 20
211.80485
 30
0.0
 11
296.9359999999999
 21
211.80485
 31
0.0
  0
LINE
  5
296
330
1E
100
AcDbEntity
  8
0
100
AcDbLine
 10
298.76
 20
211.80485
 30
0.0
 11
298.904
 21
211.80485
 31
0.0
  0
LINE
  5
297
330
1E
100
AcDbEntity
  8
0
100
AcDbLine
 10
298.904
 20
211.80485
 30
0.0
 11
299.0
 21
212.03585
 31
0.0
  0
LINE
  5
298
330
1E
100
AcDbEntity
  8
0
100
AcDbLine
 10
298.3759999999999
 20
211.80485
 30
0.0
 11
298.76
 21
211.80485
 31
0.0
  0
LINE
  5
299
330
1E
100
AcDbEntity
  8
0
100
AcDbLine
 10
298.0
 20
211.80485
 30
0.0
 11
298.3759999999999
 21
211.80485
 31
0.0
  0
LINE
  5
29A
330
1E
100
AcDbEntity
  8
0
100
AcDbLine
 10
298.0
 20
211.80485
 30
0.0
 11
298.0
 21
209.388183333333
 31
0.0
  0
LINE
  5
29B
330
1E
100
AcDbEntity
  8
0
100
AcDbLine
 10
299.0
 20
212.03585
 30
0.0
 11
299.0
 21
223.57385
 31
0.0
  0
LINE
  5
29C
330
1E
100
AcDbEntity
  8
0
100
AcDbLine
 10
300.4999999999999
 20
216.50485
 30
0.0
 11
305.6999999999999
 21
214.40485
 31
0.0
  0
LINE
  5
29D
330
1E
100
AcDbEntity
  8
0
100
AcDbLine
 10
295.0
 20
209.8048499999999
 30
0.0
 11
298.6
 21
209.30485
 31
0.0
  0
LINE
  5
29E
330
1E
100
AcDbEntity
  8
0
100
AcDbLine
 10
298.6
 20
209.30485
 30
0.0
 11
302.0
 21
207.90485
 31
0.0
  0
LINE
  5
2A1
330
1E
100
AcDbEntity
  8
0
100
AcDbLine
 10
305.6999999999999
 20
214.40485
 30
0.0
 11
310.1999999999999
 21
211.0048499999999
 31
0.0
  0
LINE
  5
2A2
330
1E
100
AcDbEntity
  8
0
100
AcDbLine
 10
305.8999999999999
 20
214.90485
 30
0.0
 11
310.4999999999999
 21
211.30485
 31
0.0
  0
LINE
  5
2A3
330
1E
100
AcDbEntity
  8
0
100
AcDbLine
 10
302.0
 20
207.90485
 30
0.0
 11
304.8999999999999
 21
205.70485
 31
0.0
  0
LINE
  5
2A4
330
1E
100
AcDbEntity
  8
0
100
AcDbLine
 10
304.8999999999999
 20
205.70485
 30
0.0
 11
307.1
 21
202.8048499999999
 31
0.0
  0
LINE
  5
2A5
330
1E
100
AcDbEntity
  8
0
100
AcDbLine
 10
315.7
 20
201.30485
 30
0.0
 11
316.5
 21
195.8048499999999
 31
0.0
  0
LINE
  5
2A6
330
1E
100
AcDbEntity
  8
0
100
AcDbLine
 10
468.614
 20
199.40485
 30
0.0
 11
469.0
 21
195.8048499999999
 31
0.0
  0
LINE
  5
2A7
330
1E
100
AcDbEntity
  8
0
100
AcDbLine
 10
376.6
 20
203.4048499999999
 30
0.0
 11
379.4999999999999
 21
210.50485
 31
0.0
  0
LINE
  5
2A8
330
1E
100
AcDbEntity
  8
0
100
AcDbLine
 10
487.3359999999999
 20
199.52685
 30
0.0
 11
488.0069999999999
 21
203.1808499999999
 31
0.0
  0
LINE
  5
2A9
330
1E
100
AcDbEntity
  8
0
100
AcDbLine
 10
488.0069999999999
 20
203.1808499999999
 30
0.0
 11
489.113
 21
206.4678499999999
 31
0.0
  0
LINE
  5
2AA
330
1E
100
AcDbEntity
  8
0
100
AcDbLine
 10
486.6
 20
203.4048499999999
 30
0.0
 11
489.5
 21
210.50485
 31
0.0
  0
LINE
  5
2AB
330
1E
100
AcDbEntity
  8
0
100
AcDbLine
 10
467.1999999999999
 20
202.73785
 30
0.0
 11
468.614
 21
199.40485
 31
0.0
  0
LINE
  5
2AC
330
1E
100
AcDbEntity
  8
0
100
AcDbLine
 10
392.845
 20
202.73785
 30
0.0
 11
394.9549999999999
 21
205.8048499999999
 31
0.0
  0
LINE
  5
2AD
330
1E
100
AcDbEntity
  8
0
100
AcDbLine
 10
391.3949999999999
 20
199.40485
 30
0.0
 11
392.845
 21
202.73785
 31
0.0
  0
LINE
  5
2AE
330
1E
100
AcDbEntity
  8
0
100
AcDbLine
 10
316.1999999999999
 20
201.50485
 30
0.0
 11
317.0
 21
195.8048499999999
 31
0.0
  0
LINE
  5
2AF
330
1E
100
AcDbEntity
  8
0
100
AcDbLine
 10
310.1999999999999
 20
211.0048499999999
 30
0.0
 11
313.6
 21
206.50485
 31
0.0
  0
LINE
  5
2B0
330
1E
100
AcDbEntity
  8
0
100
AcDbLine
 10
313.6
 20
206.50485
 30
0.0
 11
315.7
 21
201.30485
 31
0.0
  0
LINE
  5
2B1
330
1E
100
AcDbEntity
  8
0
100
AcDbLine
 10
314.1
 20
206.7048499999999
 30
0.0
 11
316.1999999999999
 21
201.50485
 31
0.0
  0
LINE
  5
2B2
330
1E
100
AcDbEntity
  8
0
100
AcDbLine
 10
310.4999999999999
 20
211.30485
 30
0.0
 11
314.1
 21
206.7048499999999
 31
0.0
  0
LINE
  5
2B3
330
1E
100
AcDbEntity
  8
0
100
AcDbLine
 10
486.1
 20
203.50485
 30
0.0
 11
489.0
 21
210.7048499999999
 31
0.0
  0
LINE
  5
2B4
330
1E
100
AcDbEntity
  8
0
100
AcDbLine
 10
485.6
 20
203.60485
 30
0.0
 11
488.6
 21
211.0048499999999
 31
0.0
  0
LINE
  5
2B5
330
1E
100
AcDbEntity
  8
0
100
AcDbLine
 10
375.6
 20
203.60485
 30
0.0
 11
378.6
 21
211.0048499999999
 31
0.0
  0
LINE
  5
2B6
330
1E
100
AcDbEntity
  8
0
100
AcDbLine
 10
376.1
 20
203.50485
 30
0.0
 11
379.0
 21
210.7048499999999
 31
0.0
  0
LINE
  5
2B7
330
1E
100
AcDbEntity
  8
0
100
AcDbLine
 10
323.8999999999999
 20
203.50485
 30
0.0
 11
325.0
 21
195.8048499999999
 31
0.0
  0
LINE
  5
2B8
330
1E
100
AcDbEntity
  8
0
100
AcDbLine
 10
401.2819999999999
 20
209.4048499999999
 30
0.0
 11
404.841
 21
209.8048499999999
 31
0.0
  0
LINE
  5
2B9
330
1E
100
AcDbEntity
  8
0
100
AcDbLine
 10
404.841
 20
209.8048499999999
 30
0.0
 11
420.0
 21
209.8048499999999
 31
0.0
  0
LINE
  5
2BA
330
1E
100
AcDbEntity
  8
0
100
AcDbLine
 10
397.986
 20
207.9378499999999
 30
0.0
 11
401.2819999999999
 21
209.4048499999999
 31
0.0
  0
LINE
  5
2BB
330
1E
100
AcDbEntity
  8
0
100
AcDbLine
 10
394.9549999999999
 20
205.8048499999999
 30
0.0
 11
397.986
 21
207.9378499999999
 31
0.0
  0
LINE
  5
2BC
330
1E
100
AcDbEntity
  8
0
100
AcDbLine
 10
378.6
 20
211.0048499999999
 30
0.0
 11
383.4999999999999
 21
217.3048499999999
 31
0.0
  0
LINE
  5
2BD
330
1E
100
AcDbEntity
  8
0
100
AcDbLine
 10
379.4999999999999
 20
210.50485
 30
0.0
 11
384.2
 21
216.60485
 31
0.0
  0
LINE
  5
2BE
330
1E
100
AcDbEntity
  8
0
100
AcDbLine
 10
379.0
 20
210.7048499999999
 30
0.0
 11
383.8
 21
217.00485
 31
0.0
  0
LINE
  5
2BF
330
1E
100
AcDbEntity
  8
0
100
AcDbLine
 10
420.0
 20
209.8048499999999
 30
0.0
 11
455.499
 21
209.8048499999999
 31
0.0
  0
LINE
  5
2C0
330
1E
100
AcDbEntity
  8
0
100
AcDbLine
 10
489.113
 20
206.4678499999999
 30
0.0
 11
490.7219999999999
 21
209.75485
 31
0.0
  0
LINE
  5
2C1
330
1E
100
AcDbEntity
  8
0
100
AcDbLine
 10
465.1419999999999
 20
205.8048499999999
 30
0.0
 11
467.1999999999999
 21
202.73785
 31
0.0
  0
LINE
  5
2C2
330
1E
100
AcDbEntity
  8
0
100
AcDbLine
 10
431.4
 20
211.0048499999999
 30
0.0
 11
431.886486486486
 21
209.8048499999999
 31
0.0
  0
LINE
  5
2C3
330
1E
100
AcDbEntity
  8
0
100
AcDbLine
 10
431.0
 20
210.7048499999999
 30
0.0
 11
431.3625
 21
209.8048499999999
 31
0.0
  0
LINE
  5
2C4
330
1E
100
AcDbEntity
  8
0
100
AcDbLine
 10
455.499
 20
209.8048499999999
 30
0.0
 11
458.97
 21
209.4048499999999
 31
0.0
  0
LINE
  5
2C5
330
1E
100
AcDbEntity
  8
0
100
AcDbLine
 10
490.7219999999999
 20
209.75485
 30
0.0
 11
492.835
 21
212.8058499999999
 31
0.0
  0
LINE
  5
2C6
330
1E
100
AcDbEntity
  8
0
100
AcDbLine
 10
488.6
 20
211.0048499999999
 30
0.0
 11
493.5
 21
217.3048499999999
 31
0.0
  0
LINE
  5
2C7
330
1E
100
AcDbEntity
  8
0
100
AcDbLine
 10
489.0
 20
210.7048499999999
 30
0.0
 11
493.8
 21
217.00485
 31
0.0
  0
LINE
  5
2C8
330
1E
100
AcDbEntity
  8
0
100
AcDbLine
 10
489.5
 20
210.50485
 30
0.0
 11
494.2
 21
216.60485
 31
0.0
  0
LINE
  5
2C9
330
1E
100
AcDbEntity
  8
0
100
AcDbLine
 10
458.97
 20
209.4048499999999
 30
0.0
 11
462.185
 21
207.9378499999999
 31
0.0
  0
LINE
  5
2CA
330
1E
100
AcDbEntity
  8
0
100
AcDbLine
 10
462.185
 20
207.9378499999999
 30
0.0
 11
465.1419999999999
 21
205.8048499999999
 31
0.0
  0
LINE
  5
2CB
330
1E
100
AcDbEntity
  8
0
100
AcDbLine
 10
430.4999999999999
 20
210.50485
 30
0.0
 11
430.7859154929579
 21
209.8048499999999
 31
0.0
  0
LINE
  5
2CC
330
1E
100
AcDbEntity
  8
0
100
AcDbLine
 10
495.2149999999999
 20
215.58985
 30
0.0
 11
497.9989999999999
 21
217.96985
 31
0.0
  0
LINE
  5
2CD
330
1E
100
AcDbEntity
  8
0
100
AcDbLine
 10
492.835
 20
212.8058499999999
 30
0.0
 11
495.2149999999999
 21
215.58985
 31
0.0
  0
LINE
  5
2CE
330
1E
100
AcDbEntity
  8
0
100
AcDbLine
 10
321.3999999999999
 20
211.0048499999999
 30
0.0
 11
324.3999999999999
 21
203.60485
 31
0.0
  0
LINE
  5
2CF
330
1E
100
AcDbEntity
  8
0
100
AcDbLine
 10
321.0
 20
210.7048499999999
 30
0.0
 11
323.8999999999999
 21
203.50485
 31
0.0
  0
LINE
  5
2D0
330
1E
100
AcDbEntity
  8
0
100
AcDbLine
 10
324.3999999999999
 20
203.60485
 30
0.0
 11
325.4999999999999
 21
195.8048499999999
 31
0.0
  0
LINE
  5
2D1
330
1E
100
AcDbEntity
  8
0
100
AcDbLine
 10
320.5
 20
210.50485
 30
0.0
 11
323.3999999999999
 21
203.4048499999999
 31
0.0
  0
LINE
  5
2D2
330
1E
100
AcDbEntity
  8
0
100
AcDbLine
 10
323.3999999999999
 20
203.4048499999999
 30
0.0
 11
324.5
 21
195.8048499999999
 31
0.0
  0
LINE
  5
2D3
330
1E
100
AcDbEntity
  8
0
100
AcDbLine
 10
307.1
 20
202.8048499999999
 30
0.0
 11
308.4999999999999
 21
199.40485
 31
0.0
  0
LINE
  5
2D4
330
1E
100
AcDbEntity
  8
0
100
AcDbLine
 10
309.0
 20
195.8048499999999
 30
0.0
 11
309.0
 21
195.35185
 31
0.0
  0
LINE
  5
2D5
330
1E
100
AcDbEntity
  8
0
100
AcDbLine
 10
291.3999999999999
 20
209.30485
 30
0.0
 11
295.0
 21
209.8048499999999
 31
0.0
  0
LINE
  5
2D6
330
1E
100
AcDbEntity
  8
0
100
AcDbLine
 10
299.0
 20
216.7230318181819
 30
0.0
 11
300.4999999999999
 21
216.50485
 31
0.0
  0
LINE
  5
2D7
330
1E
100
AcDbEntity
  8
0
100
AcDbLine
 10
300.7
 20
217.00485
 30
0.0
 11
305.8999999999999
 21
214.90485
 31
0.0
  0
LINE
  5
2D8
330
1E
100
AcDbEntity
  8
0
100
AcDbLine
 10
291.096
 20
223.80485
 30
0.0
 11
291.24
 21
223.80485
 31
0.0
  0
LINE
  5
2D9
330
1E
100
AcDbEntity
  8
0
100
AcDbLine
 10
291.24
 20
223.80485
 30
0.0
 11
291.624
 21
223.80485
 31
0.0
  0
LINE
  5
2DA
330
1E
100
AcDbEntity
  8
0
100
AcDbLine
 10
291.624
 20
223.80485
 30
0.0
 11
292.2479999999999
 21
223.80485
 31
0.0
  0
LINE
  5
2DB
330
1E
100
AcDbEntity
  8
0
100
AcDbLine
 10
292.2479999999999
 20
223.80485
 30
0.0
 11
293.064
 21
223.80485
 31
0.0
  0
LINE
  5
2DC
330
1E
100
AcDbEntity
  8
0
100
AcDbLine
 10
293.064
 20
223.80485
 30
0.0
 11
293.992
 21
223.80485
 31
0.0
  0
LINE
  5
2DD
330
1E
100
AcDbEntity
  8
0
100
AcDbLine
 10
293.992
 20
223.80485
 30
0.0
 11
295.0
 21
223.80485
 31
0.0
  0
LINE
  5
2DE
330
1E
100
AcDbEntity
  8
0
100
AcDbLine
 10
298.76
 20
223.80485
 30
0.0
 11
298.904
 21
223.80485
 31
0.0
  0
LINE
  5
2DF
330
1E
100
AcDbEntity
  8
0
100
AcDbLine
 10
298.3759999999999
 20
223.80485
 30
0.0
 11
298.76
 21
223.80485
 31
0.0
  0
LINE
  5
2E0
330
1E
100
AcDbEntity
  8
0
100
AcDbLine
 10
297.752
 20
223.80485
 30
0.0
 11
298.3759999999999
 21
223.80485
 31
0.0
  0
LINE
  5
2E1
330
1E
100
AcDbEntity
  8
0
100
AcDbLine
 10
296.9359999999999
 20
223.80485
 30
0.0
 11
297.752
 21
223.80485
 31
0.0
  0
LINE
  5
2E2
330
1E
100
AcDbEntity
  8
0
100
AcDbLine
 10
296.0079999999999
 20
223.80485
 30
0.0
 11
296.9359999999999
 21
223.80485
 31
0.0
  0
LINE
  5
2E3
330
1E
100
AcDbEntity
  8
0
100
AcDbLine
 10
295.0
 20
223.80485
 30
0.0
 11
296.0079999999999
 21
223.80485
 31
0.0
  0
LINE
  5
2E4
330
1E
100
AcDbEntity
  8
0
100
AcDbLine
 10
291.0
 20
223.57385
 30
0.0
 11
291.096
 21
223.80485
 31
0.0
  0
LINE
  5
2E5
330
1E
100
AcDbEntity
  8
0
100
AcDbLine
 10
291.0
 20
223.57385
 30
0.0
 11
291.0
 21
212.03585
 31
0.0
  0
LINE
  5
2E6
330
1E
100
AcDbEntity
  8
0
100
AcDbLine
 10
299.0
 20
223.57385
 30
0.0
 11
299.0
 21
212.03585
 31
0.0
  0
LINE
  5
2E7
330
1E
100
AcDbEntity
  8
0
100
AcDbLine
 10
298.904
 20
223.80485
 30
0.0
 11
299.0
 21
223.57385
 31
0.0
  0
LINE
  5
2E8
330
1E
100
AcDbEntity
  8
0
100
AcDbLine
 10
299.0
 20
217.2434464912279
 30
0.0
 11
300.7
 21
217.00485
 31
0.0
  0
LINE
  5
2E9
330
1E
100
AcDbEntity
  8
0
100
AcDbLine
 10
384.2
 20
216.60485
 30
0.0
 11
390.3
 21
221.3048499999999
 31
0.0
  0
LINE
  5
2EA
330
1E
100
AcDbEntity
  8
0
100
AcDbLine
 10
383.8
 20
217.00485
 30
0.0
 11
390.1
 21
221.80485
 31
0.0
  0
LINE
  5
2EB
330
1E
100
AcDbEntity
  8
0
100
AcDbLine
 10
493.8
 20
217.00485
 30
0.0
 11
500.1
 21
221.80485
 31
0.0
  0
LINE
  5
2EC
330
1E
100
AcDbEntity
  8
0
100
AcDbLine
 10
494.2
 20
216.60485
 30
0.0
 11
500.3
 21
221.3048499999999
 31
0.0
  0
LINE
  5
2ED
330
1E
100
AcDbEntity
  8
0
100
AcDbLine
 10
426.1999999999999
 20
217.00485
 30
0.0
 11
431.0
 21
210.7048499999999
 31
0.0
  0
LINE
  5
2EE
330
1E
100
AcDbEntity
  8
0
100
AcDbLine
 10
425.8
 20
216.60485
 30
0.0
 11
430.4999999999999
 21
210.50485
 31
0.0
  0
LINE
  5
2EF
330
1E
100
AcDbEntity
  8
0
100
AcDbLine
 10
390.3
 20
221.3048499999999
 30
0.0
 11
397.3999999999999
 21
224.20485
 31
0.0
  0
LINE
  5
2F0
330
1E
100
AcDbEntity
  8
0
100
AcDbLine
 10
383.4999999999999
 20
217.3048499999999
 30
0.0
 11
389.8
 21
222.20485
 31
0.0
  0
LINE
  5
2F1
330
1E
100
AcDbEntity
  8
0
100
AcDbLine
 10
497.9989999999999
 20
217.96985
 30
0.0
 11
501.05
 21
220.08285
 31
0.0
  0
LINE
  5
2F2
330
1E
100
AcDbEntity
  8
0
100
AcDbLine
 10
501.05
 20
220.08285
 30
0.0
 11
504.337
 21
221.6918499999999
 31
0.0
  0
LINE
  5
2F3
330
1E
100
AcDbEntity
  8
0
100
AcDbLine
 10
493.5
 20
217.3048499999999
 30
0.0
 11
499.8
 21
222.20485
 31
0.0
  0
LINE
  5
2F4
330
1E
100
AcDbEntity
  8
0
100
AcDbLine
 10
500.3
 20
221.3048499999999
 30
0.0
 11
507.3999999999999
 21
224.20485
 31
0.0
  0
LINE
  5
2F5
330
1E
100
AcDbEntity
  8
0
100
AcDbLine
 10
426.4999999999999
 20
217.3048499999999
 30
0.0
 11
431.4
 21
211.0048499999999
 31
0.0
  0
LINE
  5
2F6
330
1E
100
AcDbEntity
  8
0
100
AcDbLine
 10
419.7
 20
221.3048499999999
 30
0.0
 11
425.8
 21
216.60485
 31
0.0
  0
LINE
  5
2F7
330
1E
100
AcDbEntity
  8
0
100
AcDbLine
 10
316.5
 20
217.3048499999999
 30
0.0
 11
321.3999999999999
 21
211.0048499999999
 31
0.0
  0
LINE
  5
2F8
330
1E
100
AcDbEntity
  8
0
100
AcDbLine
 10
316.1999999999999
 20
217.00485
 30
0.0
 11
321.0
 21
210.7048499999999
 31
0.0
  0
LINE
  5
2F9
330
1E
100
AcDbEntity
  8
0
100
AcDbLine
 10
315.8
 20
216.60485
 30
0.0
 11
320.5
 21
210.50485
 31
0.0
  0
LINE
  5
2FA
330
1E
100
AcDbEntity
  8
0
100
AcDbLine
 10
390.1
 20
221.80485
 30
0.0
 11
397.3
 21
224.70485
 31
0.0
  0
LINE
  5
2FB
330
1E
100
AcDbEntity
  8
0
100
AcDbLine
 10
389.8
 20
222.20485
 30
0.0
 11
397.1999999999999
 21
225.2048499999999
 31
0.0
  0
LINE
  5
2FC
330
1E
100
AcDbEntity
  8
0
100
AcDbLine
 10
504.337
 20
221.6918499999999
 30
0.0
 11
507.624
 21
222.79785
 31
0.0
  0
LINE
  5
2FD
330
1E
100
AcDbEntity
  8
0
100
AcDbLine
 10
500.1
 20
221.80485
 30
0.0
 11
507.3
 21
224.70485
 31
0.0
  0
LINE
  5
2FE
330
1E
100
AcDbEntity
  8
0
100
AcDbLine
 10
499.8
 20
222.20485
 30
0.0
 11
507.2
 21
225.2048499999999
 31
0.0
  0
LINE
  5
2FF
330
1E
100
AcDbEntity
  8
0
100
AcDbLine
 10
420.1999999999999
 20
222.20485
 30
0.0
 11
426.4999999999999
 21
217.3048499999999
 31
0.0
  0
LINE
  5
300
330
1E
100
AcDbEntity
  8
0
100
AcDbLine
 10
419.8999999999999
 20
221.80485
 30
0.0
 11
426.1999999999999
 21
217.00485
 31
0.0
  0
LINE
  5
301
330
1E
100
AcDbEntity
  8
0
100
AcDbLine
 10
397.3999999999999
 20
224.20485
 30
0.0
 11
405.0
 21
225.3048499999999
 31
0.0
  0
LINE
  5
302
330
1E
100
AcDbEntity
  8
0
100
AcDbLine
 10
507.624
 20
222.79785
 30
0.0
 11
511.2779999999999
 21
223.46885
 31
0.0
  0
LINE
  5
303
330
1E
100
AcDbEntity
  8
0
100
AcDbLine
 10
515.0
 20
223.80485
 30
0.0
 11
518.7219999999999
 21
223.46885
 31
0.0
  0
LINE
  5
304
330
1E
100
AcDbEntity
  8
0
100
AcDbLine
 10
511.2779999999999
 20
223.46885
 30
0.0
 11
515.0
 21
223.80485
 31
0.0
  0
LINE
  5
305
330
1E
100
AcDbEntity
  8
0
100
AcDbLine
 10
507.3999999999999
 20
224.20485
 30
0.0
 11
515.0
 21
225.3048499999999
 31
0.0
  0
LINE
  5
306
330
1E
100
AcDbEntity
  8
0
100
AcDbLine
 10
412.6
 20
224.20485
 30
0.0
 11
419.7
 21
221.3048499999999
 31
0.0
  0
LINE
  5
307
330
1E
100
AcDbEntity
  8
0
100
AcDbLine
 10
310.1999999999999
 20
222.20485
 30
0.0
 11
316.5
 21
217.3048499999999
 31
0.0
  0
LINE
  5
308
330
1E
100
AcDbEntity
  8
0
100
AcDbLine
 10
309.8999999999999
 20
221.80485
 30
0.0
 11
316.1999999999999
 21
217.00485
 31
0.0
  0
LINE
  5
309
330
1E
100
AcDbEntity
  8
0
100
AcDbLine
 10
309.6999999999999
 20
221.3048499999999
 30
0.0
 11
315.8
 21
216.60485
 31
0.0
  0
LINE
  5
30A
330
1E
100
AcDbEntity
  8
0
100
AcDbLine
 10
302.6
 20
224.20485
 30
0.0
 11
309.6999999999999
 21
221.3048499999999
 31
0.0
  0
LINE
  5
30B
330
1E
100
AcDbEntity
  8
0
100
AcDbLine
 10
289.4999999999999
 20
216.50485
 30
0.0
 11
291.0
 21
216.7230318181819
 31
0.0
  0
LINE
  5
30C
330
1E
100
AcDbEntity
  8
0
100
AcDbLine
 10
289.3
 20
217.00485
 30
0.0
 11
291.0
 21
217.2434464912279
 31
0.0
  0
LINE
  5
30D
330
1E
100
AcDbEntity
  8
0
100
AcDbLine
 10
507.3
 20
224.70485
 30
0.0
 11
515.0
 21
225.80485
 31
0.0
  0
LINE
  5
30E
330
1E
100
AcDbEntity
  8
0
100
AcDbLine
 10
397.3
 20
224.70485
 30
0.0
 11
405.0
 21
225.80485
 31
0.0
  0
LINE
  5
30F
330
1E
100
AcDbEntity
  8
0
100
AcDbLine
 10
412.6999999999999
 20
224.70485
 30
0.0
 11
419.8999999999999
 21
221.80485
 31
0.0
  0
LINE
  5
310
330
1E
100
AcDbEntity
  8
0
100
AcDbLine
 10
302.7
 20
224.70485
 30
0.0
 11
309.8999999999999
 21
221.80485
 31
0.0
  0
LINE
  5
311
330
1E
100
AcDbEntity
  8
0
100
AcDbLine
 10
295.0
 20
226.30485
 30
0.0
 11
302.8
 21
225.2048499999999
 31
0.0
  0
LINE
  5
312
330
1E
100
AcDbEntity
  8
0
100
AcDbLine
 10
295.0
 20
225.80485
 30
0.0
 11
302.7
 21
224.70485
 31
0.0
  0
LINE
  5
313
330
1E
100
AcDbEntity
  8
0
100
AcDbLine
 10
397.1999999999999
 20
225.2048499999999
 30
0.0
 11
405.0
 21
226.30485
 31
0.0
  0
LINE
  5
314
330
1E
100
AcDbEntity
  8
0
100
AcDbLine
 10
507.2
 20
225.2048499999999
 30
0.0
 11
515.0
 21
226.30485
 31
0.0
  0
LINE
  5
315
330
1E
100
AcDbEntity
  8
0
100
AcDbLine
 10
412.8
 20
225.2048499999999
 30
0.0
 11
420.1999999999999
 21
222.20485
 31
0.0
  0
LINE
  5
316
330
1E
100
AcDbEntity
  8
0
100
AcDbLine
 10
350.0
 20
232.99585
 30
0.0
 11
548.8240000000001
 21
232.99585
 31
0.0
  0
LINE
  5
317
330
1E
100
AcDbEntity
  8
0
100
AcDbLine
 10
350.0
 20
233.3048499999999
 30
0.0
 11
548.8240000000001
 21
233.3048499999999
 31
0.0
  0
LINE
  5
318
330
1E
100
AcDbEntity
  8
0
100
AcDbLine
 10
405.0
 20
226.30485
 30
0.0
 11
412.8
 21
225.2048499999999
 31
0.0
  0
LINE
  5
319
330
1E
100
AcDbEntity
  8
0
100
AcDbLine
 10
405.0
 20
225.80485
 30
0.0
 11
412.6999999999999
 21
224.70485
 31
0.0
  0
LINE
  5
31A
330
1E
100
AcDbEntity
  8
0
100
AcDbLine
 10
515.0
 20
225.3048499999999
 30
0.0
 11
522.5999999999999
 21
224.20485
 31
0.0
  0
LINE
  5
31B
330
1E
100
AcDbEntity
  8
0
100
AcDbLine
 10
515.0
 20
226.30485
 30
0.0
 11
522.7999999999999
 21
225.2048499999999
 31
0.0
  0
LINE
  5
31C
330
1E
100
AcDbEntity
  8
0
100
AcDbLine
 10
515.0
 20
225.80485
 30
0.0
 11
522.7
 21
224.70485
 31
0.0
  0
LINE
  5
31D
330
1E
100
AcDbEntity
  8
0
100
AcDbLine
 10
405.0
 20
225.3048499999999
 30
0.0
 11
412.6
 21
224.20485
 31
0.0
  0
LINE
  5
31E
330
1E
100
AcDbEntity
  8
0
100
AcDbLine
 10
302.8
 20
225.2048499999999
 30
0.0
 11
310.1999999999999
 21
222.20485
 31
0.0
  0
LINE
  5
31F
330
1E
100
AcDbEntity
  8
0
100
AcDbLine
 10
295.0
 20
225.3048499999999
 30
0.0
 11
302.6
 21
224.20485
 31
0.0
  0
LINE
  5
320
330
1E
100
AcDbEntity
  8
0
100
AcDbLine
 10
287.3
 20
224.70485
 30
0.0
 11
295.0
 21
225.80485
 31
0.0
  0
LINE
  5
321
330
1E
100
AcDbEntity
  8
0
100
AcDbLine
 10
287.1999999999999
 20
225.2048499999999
 30
0.0
 11
295.0
 21
226.30485
 31
0.0
  0
LINE
  5
322
330
1E
100
AcDbEntity
  8
0
100
AcDbLine
 10
287.3999999999999
 20
224.20485
 30
0.0
 11
295.0
 21
225.3048499999999
 31
0.0
  0
LINE
  5
323
330
1E
100
AcDbEntity
  8
0
100
AcDbLine
 10
281.0
 20
195.8048499999999
 30
0.0
 11
281.031594364626
 21
195.5773705746969
 31
0.0
  0
LINE
  5
324
330
1E
100
AcDbEntity
  8
0
100
AcDbLine
 10
281.0
 20
195.8048499999999
 30
0.0
 11
281.0
 21
195.35185
 31
0.0
  0
LINE
  5
325
330
1E
100
AcDbEntity
  8
0
100
AcDbLine
 10
265.0
 20
195.8048499999999
 30
0.0
 11
266.1
 21
188.10485
 31
0.0
  0
LINE
  5
326
330
1E
100
AcDbEntity
  8
0
100
AcDbLine
 10
265.0
 20
195.8048499999999
 30
0.0
 11
266.1
 21
203.50485
 31
0.0
  0
LINE
  5
327
330
1E
100
AcDbEntity
  8
0
100
AcDbLine
 10
264.5
 20
195.8048499999999
 30
0.0
 11
265.6
 21
188.00485
 31
0.0
  0
LINE
  5
328
330
1E
100
AcDbEntity
  8
0
100
AcDbLine
 10
264.5
 20
195.8048499999999
 30
0.0
 11
265.6
 21
203.60485
 31
0.0
  0
LINE
  5
329
330
1E
100
AcDbEntity
  8
0
100
AcDbLine
 10
511.928
 20
177.6758499999999
 30
0.0
 11
515.0
 21
178.01185
 31
0.0
  0
LINE
  5
32A
330
1E
100
AcDbEntity
  8
0
100
AcDbLine
 10
515.0
 20
178.01185
 30
0.0
 11
518.0719999999999
 21
177.6758499999999
 31
0.0
  0
LINE
  5
32B
330
1E
100
AcDbEntity
  8
0
100
AcDbLine
 10
515.0
 20
113.7828499999999
 30
0.0
 11
518.0719999999999
 21
113.58485
 31
0.0
  0
LINE
  5
32C
330
1E
100
AcDbEntity
  8
0
100
AcDbLine
 10
515.0
 20
112.28385
 30
0.0
 11
517.2080000000001
 21
112.12685
 31
0.0
  0
LINE
  5
32D
330
1E
100
AcDbEntity
  8
0
100
AcDbLine
 10
515.0
 20
99.70085
 30
0.0
 11
521.4229999999999
 21
99.23785
 31
0.0
  0
LINE
  5
32E
330
1E
100
AcDbEntity
  8
0
100
AcDbLine
 10
515.0
 20
99.46184999999999
 30
0.0
 11
521.35
 21
98.99885000000001
 31
0.0
  0
LINE
  5
32F
330
1E
100
AcDbEntity
  8
0
100
AcDbLine
 10
515.0
 20
9.07015000000003
 30
0.0
 11
521.4229999999999
 21
9.53265000000003
 31
0.0
  0
LINE
  5
330
330
1E
100
AcDbEntity
  8
0
100
AcDbLine
 10
521.4229999999999
 20
0.6577500000000311
 30
0.0
 11
527.9199999999999
 21
1.84865000000003
 31
0.0
  0
LINE
  5
331
330
1E
100
AcDbEntity
  8
0
100
AcDbLine
 10
545.365
 20
9.588650000000029
 30
0.0
 11
550.328
 21
13.49215
 31
0.0
  0
LINE
  5
332
330
1E
100
AcDbEntity
  8
0
100
AcDbLine
 10
539.8909999999999
 20
6.280650000000029
 30
0.0
 11
545.365
 21
9.588650000000029
 31
0.0
  0
LINE
  5
333
330
1E
100
AcDbEntity
  8
0
100
AcDbLine
 10
534.1239999999999
 20
3.700950000000029
 30
0.0
 11
539.8909999999999
 21
6.280650000000029
 31
0.0
  0
LINE
  5
334
330
1E
100
AcDbEntity
  8
0
100
AcDbLine
 10
527.9199999999999
 20
1.84865000000003
 30
0.0
 11
534.1239999999999
 21
3.700950000000029
 31
0.0
  0
LINE
  5
335
330
1E
100
AcDbEntity
  8
0
100
AcDbLine
 10
521.4229999999999
 20
9.53265000000003
 30
0.0
 11
527.9199999999999
 21
10.72365
 31
0.0
  0
LINE
  5
336
330
1E
100
AcDbEntity
  8
0
100
AcDbLine
 10
523.6399999999999
 20
98.83143981068192
 30
0.0
 11
523.6399999999999
 21
108.3408499999999
 31
0.0
  0
LINE
  5
337
330
1E
100
AcDbEntity
  8
0
100
AcDbLine
 10
527.409
 20
97.87385
 30
0.0
 11
533.832
 21
95.95584999999999
 31
0.0
  0
LINE
  5
338
330
1E
100
AcDbEntity
  8
0
100
AcDbLine
 10
521.144
 20
111.1018499999999
 30
0.0
 11
522.488
 21
110.31185
 31
0.0
  0
LINE
  5
339
330
1E
100
AcDbEntity
  8
0
100
AcDbLine
 10
519.32
 20
111.7318499999999
 30
0.0
 11
521.144
 21
111.1018499999999
 31
0.0
  0
LINE
  5
33A
330
1E
100
AcDbEntity
  8
0
100
AcDbLine
 10
518.0719999999999
 20
177.6758499999999
 30
0.0
 11
520.952
 21
176.7948499999999
 31
0.0
  0
LINE
  5
33B
330
1E
100
AcDbEntity
  8
0
100
AcDbLine
 10
518.78
 20
180.1338499999999
 30
0.0
 11
522.2599999999999
 21
179.02985
 31
0.0
  0
LINE
  5
33C
330
1E
100
AcDbEntity
  8
0
100
AcDbLine
 10
518.7219999999999
 20
223.46885
 30
0.0
 11
522.3759999999999
 21
222.79785
 31
0.0
  0
LINE
  5
33D
330
1E
100
AcDbEntity
  8
0
100
AcDbLine
 10
518.84
 20
180.62385
 30
0.0
 11
522.4400000000001
 21
179.5198499999999
 31
0.0
  0
LINE
  5
33E
330
1E
100
AcDbEntity
  8
0
100
AcDbLine
 10
520.952
 20
176.7948499999999
 30
0.0
 11
523.4479999999999
 21
175.3708499999999
 31
0.0
  0
LINE
  5
33F
330
1E
100
AcDbEntity
  8
0
100
AcDbLine
 10
520.952
 20
113.0738499999999
 30
0.0
 11
523.4479999999999
 21
112.20485
 31
0.0
  0
LINE
  5
340
330
1E
100
AcDbEntity
  8
0
100
AcDbLine
 10
518.0719999999999
 20
113.58485
 30
0.0
 11
520.952
 21
113.0738499999999
 31
0.0
  0
LINE
  5
341
330
1E
100
AcDbEntity
  8
0
100
AcDbLine
 10
517.2080000000001
 20
112.12685
 30
0.0
 11
519.32
 21
111.7318499999999
 31
0.0
  0
LINE
  5
342
330
1E
100
AcDbEntity
  8
0
100
AcDbLine
 10
523.6399999999999
 20
104.6291499999999
 30
0.0
 11
525.3680000000001
 21
105.65785
 31
0.0
  0
LINE
  5
343
330
1E
100
AcDbEntity
  8
0
100
AcDbLine
 10
525.3680000000001
 20
105.65785
 30
0.0
 11
526.616
 21
106.9608499999999
 31
0.0
  0
LINE
  5
344
330
1E
100
AcDbEntity
  8
0
100
AcDbLine
 10
527.0
 20
108.3408499999999
 30
0.0
 11
527.0
 21
168.82185
 31
0.0
  0
LINE
  5
345
330
1E
100
AcDbEntity
  8
0
100
AcDbLine
 10
526.616
 20
106.9608499999999
 30
0.0
 11
527.0
 21
108.3408499999999
 31
0.0
  0
LINE
  5
346
330
1E
100
AcDbEntity
  8
0
100
AcDbLine
 10
526.616
 20
109.7598499999999
 30
0.0
 11
527.0
 21
108.3408499999999
 31
0.0
  0
LINE
  5
347
330
1E
100
AcDbEntity
  8
0
100
AcDbLine
 10
523.6399999999999
 20
108.3408499999999
 30
0.0
 11
523.6399999999999
 21
98.83143981068192
 31
0.0
  0
LINE
  5
348
330
1E
100
AcDbEntity
  8
0
100
AcDbLine
 10
523.3519999999999
 20
109.36485
 30
0.0
 11
523.6399999999999
 21
108.3408499999999
 31
0.0
  0
LINE
  5
349
330
1E
100
AcDbEntity
  8
0
100
AcDbLine
 10
522.3759999999999
 20
222.79785
 30
0.0
 11
525.663
 21
221.6918499999999
 31
0.0
  0
LINE
  5
34A
330
1E
100
AcDbEntity
  8
0
100
AcDbLine
 10
522.2599999999999
 20
179.02985
 30
0.0
 11
525.32
 21
177.23785
 31
0.0
  0
LINE
  5
34B
330
1E
100
AcDbEntity
  8
0
100
AcDbLine
 10
522.4400000000001
 20
179.5198499999999
 30
0.0
 11
525.6199999999999
 21
177.68185
 31
0.0
  0
LINE
  5
34C
330
1E
100
AcDbEntity
  8
0
100
AcDbLine
 10
522.5999999999999
 20
224.20485
 30
0.0
 11
529.7
 21
221.3048499999999
 31
0.0
  0
LINE
  5
34D
330
1E
100
AcDbEntity
  8
0
100
AcDbLine
 10
522.7999999999999
 20
225.2048499999999
 30
0.0
 11
530.2
 21
222.20485
 31
0.0
  0
LINE
  5
34E
330
1E
100
AcDbEntity
  8
0
100
AcDbLine
 10
522.7
 20
224.70485
 30
0.0
 11
529.8999999999999
 21
221.80485
 31
0.0
  0
LINE
  5
34F
330
1E
100
AcDbEntity
  8
0
100
AcDbLine
 10
523.4479999999999
 20
175.3708499999999
 30
0.0
 11
525.3680000000001
 21
173.4418499999999
 31
0.0
  0
LINE
  5
350
330
1E
100
AcDbEntity
  8
0
100
AcDbLine
 10
525.32
 20
177.23785
 30
0.0
 11
527.66
 21
174.8938499999999
 31
0.0
  0
LINE
  5
351
330
1E
100
AcDbEntity
  8
0
100
AcDbLine
 10
527.0
 20
126.80485
 30
0.0
 11
551.0
 21
126.80485
 31
0.0
  0
LINE
  5
352
330
1E
100
AcDbEntity
  8
0
100
AcDbLine
 10
527.0
 20
158.61385
 30
0.0
 11
548.8240000000001
 21
158.61385
 31
0.0
  0
LINE
  5
353
330
1E
100
AcDbEntity
  8
0
100
AcDbLine
 10
527.0
 20
158.3048499999999
 30
0.0
 11
548.8240000000001
 21
158.3048499999999
 31
0.0
  0
LINE
  5
354
330
1E
100
AcDbEntity
  8
0
100
AcDbLine
 10
527.0
 20
163.1097217948719
 30
0.0
 11
527.66
 21
163.77085
 31
0.0
  0
LINE
  5
355
330
1E
100
AcDbEntity
  8
0
100
AcDbLine
 10
527.0
 20
162.81155
 30
0.0
 11
528.0199999999999
 21
163.8468499999999
 31
0.0
  0
LINE
  5
356
330
1E
100
AcDbEntity
  8
0
100
AcDbLine
 10
527.0
 20
168.82185
 30
0.0
 11
527.0
 21
108.3408499999999
 31
0.0
  0
LINE
  5
357
330
1E
100
AcDbEntity
  8
0
100
AcDbLine
 10
525.663
 20
221.6918499999999
 30
0.0
 11
528.95
 21
220.08285
 31
0.0
  0
LINE
  5
358
330
1E
100
AcDbEntity
  8
0
100
AcDbLine
 10
525.6199999999999
 20
177.68185
 30
0.0
 11
528.0199999999999
 21
175.2458499999999
 31
0.0
  0
LINE
  5
359
330
1E
100
AcDbEntity
  8
0
100
AcDbLine
 10
526.616
 20
171.2158499999999
 30
0.0
 11
527.0
 21
168.82185
 31
0.0
  0
LINE
  5
35A
330
1E
100
AcDbEntity
  8
0
100
AcDbLine
 10
525.3680000000001
 20
173.4418499999999
 30
0.0
 11
526.616
 21
171.2158499999999
 31
0.0
  0
LINE
  5
35B
330
1E
100
AcDbEntity
  8
0
100
AcDbLine
 10
525.3680000000001
 20
111.06185
 30
0.0
 11
526.616
 21
109.7598499999999
 31
0.0
  0
LINE
  5
35C
330
1E
100
AcDbEntity
  8
0
100
AcDbLine
 10
523.4479999999999
 20
112.20485
 30
0.0
 11
525.3680000000001
 21
111.06185
 31
0.0
  0
LINE
  5
35D
330
1E
100
AcDbEntity
  8
0
100
AcDbLine
 10
522.488
 20
110.31185
 30
0.0
 11
523.3519999999999
 21
109.36485
 31
0.0
  0
LINE
  5
35E
330
1E
100
AcDbEntity
  8
0
100
AcDbLine
 10
521.4229999999999
 20
99.23785
 30
0.0
 11
527.9199999999999
 21
98.04685
 31
0.0
  0
LINE
  5
35F
330
1E
100
AcDbEntity
  8
0
100
AcDbLine
 10
521.35
 20
98.99885000000001
 30
0.0
 11
527.409
 21
97.87385
 31
0.0
  0
LINE
  5
360
330
1E
100
AcDbEntity
  8
0
100
AcDbLine
 10
550.328
 20
13.49215
 30
0.0
 11
554.635
 21
17.99005
 31
0.0
  0
LINE
  5
361
330
1E
100
AcDbEntity
  8
0
100
AcDbLine
 10
534.1239999999999
 20
12.57595
 30
0.0
 11
539.8909999999999
 21
15.15554999999999
 31
0.0
  0
LINE
  5
362
330
1E
100
AcDbEntity
  8
0
100
AcDbLine
 10
527.9199999999999
 20
10.72365
 30
0.0
 11
534.1239999999999
 21
12.57595
 31
0.0
  0
LINE
  5
363
330
1E
100
AcDbEntity
  8
0
100
AcDbLine
 10
539.5259999999999
 20
93.50785
 30
0.0
 11
544.927
 21
90.19985
 31
0.0
  0
LINE
  5
364
330
1E
100
AcDbEntity
  8
0
100
AcDbLine
 10
527.66
 20
174.8938499999999
 30
0.0
 11
529.1
 21
172.2278499999999
 31
0.0
  0
LINE
  5
365
330
1E
100
AcDbEntity
  8
0
100
AcDbLine
 10
527.66
 20
163.77085
 30
0.0
 11
529.1
 21
166.4368499999999
 31
0.0
  0
LINE
  5
366
330
1E
100
AcDbEntity
  8
0
100
AcDbLine
 10
529.1
 20
166.4368499999999
 30
0.0
 11
529.64
 21
169.33185
 31
0.0
  0
LINE
  5
367
330
1E
100
AcDbEntity
  8
0
100
AcDbLine
 10
529.46
 20
166.60485
 30
0.0
 11
530.0
 21
169.54685
 31
0.0
  0
LINE
  5
368
330
1E
100
AcDbEntity
  8
0
100
AcDbLine
 10
528.0199999999999
 20
163.8468499999999
 30
0.0
 11
529.46
 21
166.60485
 31
0.0
  0
LINE
  5
369
330
1E
100
AcDbEntity
  8
0
100
AcDbLine
 10
530.0
 20
169.54685
 30
0.0
 11
530.0
 21
182.056785637664
 31
0.0
  0
LINE
  5
36A
330
1E
100
AcDbEntity
  8
0
100
AcDbLine
 10
530.2
 20
169.40485
 30
0.0
 11
536.5
 21
174.30485
 31
0.0
  0
LINE
  5
36B
330
1E
100
AcDbEntity
  8
0
100
AcDbLine
 10
530.0
 20
169.88104047619
 30
0.0
 11
536.2
 21
174.60485
 31
0.0
  0
LINE
  5
36C
330
1E
100
AcDbEntity
  8
0
100
AcDbLine
 10
529.9557619548599
 20
169.3058345762949
 30
0.0
 11
530.2
 21
169.40485
 31
0.0
  0
LINE
  5
36D
330
1E
100
AcDbEntity
  8
0
100
AcDbLine
 10
529.1
 20
172.2278499999999
 30
0.0
 11
529.64
 21
169.33185
 31
0.0
  0
LINE
  5
36E
330
1E
100
AcDbEntity
  8
0
100
AcDbLine
 10
528.95
 20
220.08285
 30
0.0
 11
532.0009999999999
 21
217.96985
 31
0.0
  0
LINE
  5
36F
330
1E
100
AcDbEntity
  8
0
100
AcDbLine
 10
529.46
 20
172.48785
 30
0.0
 11
530.0
 21
169.54685
 31
0.0
  0
LINE
  5
370
330
1E
100
AcDbEntity
  8
0
100
AcDbLine
 10
528.0199999999999
 20
175.2458499999999
 30
0.0
 11
529.46
 21
172.48785
 31
0.0
  0
LINE
  5
371
330
1E
100
AcDbEntity
  8
0
100
AcDbLine
 10
529.7
 20
221.3048499999999
 30
0.0
 11
535.7999999999999
 21
216.60485
 31
0.0
  0
LINE
  5
372
330
1E
100
AcDbEntity
  8
0
100
AcDbLine
 10
532.0009999999999
 20
173.6398499999999
 30
0.0
 11
534.785
 21
176.0198499999999
 31
0.0
  0
LINE
  5
373
330
1E
100
AcDbEntity
  8
0
100
AcDbLine
 10
530.0
 20
172.254037807276
 30
0.0
 11
532.0009999999999
 21
173.6398499999999
 31
0.0
  0
LINE
  5
374
330
1E
100
AcDbEntity
  8
0
100
AcDbLine
 10
534.785
 20
176.0198499999999
 30
0.0
 11
537.1649999999999
 21
178.80385
 31
0.0
  0
LINE
  5
375
330
1E
100
AcDbEntity
  8
0
100
AcDbLine
 10
532.0009999999999
 20
217.96985
 30
0.0
 11
534.785
 21
215.58985
 31
0.0
  0
LINE
  5
376
330
1E
100
AcDbEntity
  8
0
100
AcDbLine
 10
534.785
 20
215.58985
 30
0.0
 11
537.1649999999999
 21
212.8058499999999
 31
0.0
  0
LINE
  5
377
330
1E
100
AcDbEntity
  8
0
100
AcDbLine
 10
530.0
 20
182.056785637664
 30
0.0
 11
530.0
 21
169.54685
 31
0.0
  0
LINE
  5
378
330
1E
100
AcDbEntity
  8
0
100
AcDbLine
 10
535.7999999999999
 20
216.60485
 30
0.0
 11
540.5
 21
210.50485
 31
0.0
  0
LINE
  5
379
330
1E
100
AcDbEntity
  8
0
100
AcDbLine
 10
530.2
 20
222.20485
 30
0.0
 11
536.5
 21
217.3048499999999
 31
0.0
  0
LINE
  5
37A
330
1E
100
AcDbEntity
  8
0
100
AcDbLine
 10
529.8999999999999
 20
221.80485
 30
0.0
 11
536.2
 21
217.00485
 31
0.0
  0
LINE
  5
37B
330
1E
100
AcDbEntity
  8
0
100
AcDbLine
 10
530.0
 20
170.535997540984
 30
0.0
 11
535.7999999999999
 21
175.00485
 31
0.0
  0
LINE
  5
37C
330
1E
100
AcDbEntity
  8
0
100
AcDbLine
 10
536.2
 20
217.00485
 30
0.0
 11
541.0
 21
210.7048499999999
 31
0.0
  0
LINE
  5
37D
330
1E
100
AcDbEntity
  8
0
100
AcDbLine
 10
537.1649999999999
 20
178.80385
 30
0.0
 11
539.278
 21
181.85485
 31
0.0
  0
LINE
  5
37E
330
1E
100
AcDbEntity
  8
0
100
AcDbLine
 10
539.278
 20
181.85485
 30
0.0
 11
540.8869999999999
 21
185.14185
 31
0.0
  0
LINE
  5
37F
330
1E
100
AcDbEntity
  8
0
100
AcDbLine
 10
537.1649999999999
 20
212.8058499999999
 30
0.0
 11
539.278
 21
209.75485
 31
0.0
  0
LINE
  5
380
330
1E
100
AcDbEntity
  8
0
100
AcDbLine
 10
539.278
 20
209.75485
 30
0.0
 11
540.8869999999999
 21
206.4678499999999
 31
0.0
  0
LINE
  5
381
330
1E
100
AcDbEntity
  8
0
100
AcDbLine
 10
536.5
 20
217.3048499999999
 30
0.0
 11
541.3999999999999
 21
211.0048499999999
 31
0.0
  0
LINE
  5
382
330
1E
100
AcDbEntity
  8
0
100
AcDbLine
 10
536.2
 20
174.60485
 30
0.0
 11
541.0
 21
180.90485
 31
0.0
  0
LINE
  5
383
330
1E
100
AcDbEntity
  8
0
100
AcDbLine
 10
536.5
 20
174.30485
 30
0.0
 11
541.3999999999999
 21
180.6048499999999
 31
0.0
  0
LINE
  5
384
330
1E
100
AcDbEntity
  8
0
100
AcDbLine
 10
535.7999999999999
 20
175.00485
 30
0.0
 11
540.5
 21
181.10485
 31
0.0
  0
LINE
  5
385
330
1E
100
AcDbEntity
  8
0
100
AcDbLine
 10
534.1239999999999
 20
96.19485
 30
0.0
 11
539.8909999999999
 21
93.61385
 31
0.0
  0
LINE
  5
386
330
1E
100
AcDbEntity
  8
0
100
AcDbLine
 10
527.9199999999999
 20
98.04685
 30
0.0
 11
534.1239999999999
 21
96.19485
 31
0.0
  0
LINE
  5
387
330
1E
100
AcDbEntity
  8
0
100
AcDbLine
 10
533.832
 20
95.95584999999999
 30
0.0
 11
539.5259999999999
 21
93.50785
 31
0.0
  0
LINE
  5
388
330
1E
100
AcDbEntity
  8
0
100
AcDbLine
 10
554.635
 20
17.99005
 30
0.0
 11
558.2849999999999
 21
22.95155
 31
0.0
  0
LINE
  5
389
330
1E
100
AcDbEntity
  8
0
100
AcDbLine
 10
545.365
 20
18.46365
 30
0.0
 11
550.328
 21
22.36714999999999
 31
0.0
  0
LINE
  5
38A
330
1E
100
AcDbEntity
  8
0
100
AcDbLine
 10
539.8909999999999
 20
15.15554999999999
 30
0.0
 11
545.365
 21
18.46365
 31
0.0
  0
LINE
  5
38B
330
1E
100
AcDbEntity
  8
0
100
AcDbLine
 10
550.328
 20
22.36714999999999
 30
0.0
 11
554.635
 21
26.86505
 31
0.0
  0
LINE
  5
38C
330
1E
100
AcDbEntity
  8
0
100
AcDbLine
 10
549.8179999999999
 20
23.25235
 30
0.0
 11
554.0509999999999
 21
27.68425
 31
0.0
  0
LINE
  5
38D
330
1E
100
AcDbEntity
  8
0
100
AcDbLine
 10
558.2849999999999
 20
22.95155
 30
0.0
 11
561.1309999999999
 21
28.17785
 31
0.0
  0
LINE
  5
38E
330
1E
100
AcDbEntity
  8
0
100
AcDbLine
 10
554.635
 20
26.86505
 30
0.0
 11
558.2849999999999
 21
31.82665
 31
0.0
  0
LINE
  5
38F
330
1E
100
AcDbEntity
  8
0
100
AcDbLine
 10
558.2849999999999
 20
31.82665
 30
0.0
 11
561.1309999999999
 21
37.05284999999999
 31
0.0
  0
LINE
  5
390
330
1E
100
AcDbEntity
  8
0
100
AcDbLine
 10
554.0509999999999
 20
27.68425
 30
0.0
 11
557.701
 21
32.57994999999999
 31
0.0
  0
LINE
  5
391
330
1E
100
AcDbEntity
  8
0
100
AcDbLine
 10
557.701
 20
32.57994999999999
 30
0.0
 11
560.4009999999999
 21
37.74025
 31
0.0
  0
LINE
  5
392
330
1E
100
AcDbEntity
  8
0
100
AcDbLine
 10
561.1309999999999
 20
28.17785
 30
0.0
 11
563.1749999999999
 21
33.80084999999999
 31
0.0
  0
LINE
  5
393
330
1E
100
AcDbEntity
  8
0
100
AcDbLine
 10
563.1749999999999
 20
33.80084999999999
 30
0.0
 11
564.489
 21
39.68854999999999
 31
0.0
  0
LINE
  5
394
330
1E
100
AcDbEntity
  8
0
100
AcDbLine
 10
561.1309999999999
 20
37.05284999999999
 30
0.0
 11
563.1749999999999
 21
42.67584999999999
 31
0.0
  0
LINE
  5
395
330
1E
100
AcDbEntity
  8
0
100
AcDbLine
 10
563.1749999999999
 20
42.67584999999999
 30
0.0
 11
564.489
 21
48.56345000000001
 31
0.0
  0
LINE
  5
396
330
1E
100
AcDbEntity
  8
0
100
AcDbLine
 10
560.4009999999999
 20
37.74025
 30
0.0
 11
562.518
 21
43.56195
 31
0.0
  0
LINE
  5
397
330
1E
100
AcDbEntity
  8
0
100
AcDbLine
 10
558.360533907386
 20
76.80485
 30
0.0
 11
700.0
 21
76.80485
 31
0.0
  0
LINE
  5
398
330
1E
100
AcDbEntity
  8
0
100
AcDbLine
 10
558.2849999999999
 20
76.94355
 30
0.0
 11
561.1309999999999
 21
71.71755
 31
0.0
  0
LINE
  5
399
330
1E
100
AcDbEntity
  8
0
100
AcDbLine
 10
541.0
 20
180.90485
 30
0.0
 11
543.9
 21
188.10485
 31
0.0
  0
LINE
  5
39A
330
1E
100
AcDbEntity
  8
0
100
AcDbLine
 10
541.3999999999999
 20
180.6048499999999
 30
0.0
 11
544.3999999999999
 21
188.00485
 31
0.0
  0
LINE
  5
39B
330
1E
100
AcDbEntity
  8
0
100
AcDbLine
 10
540.8869999999999
 20
185.14185
 30
0.0
 11
541.993
 21
188.42885
 31
0.0
  0
LINE
  5
39C
330
1E
100
AcDbEntity
  8
0
100
AcDbLine
 10
541.993
 20
188.42885
 30
0.0
 11
542.6639999999999
 21
192.08285
 31
0.0
  0
LINE
  5
39D
330
1E
100
AcDbEntity
  8
0
100
AcDbLine
 10
542.6639999999999
 20
192.08285
 30
0.0
 11
543.0
 21
195.8048499999999
 31
0.0
  0
LINE
  5
39E
330
1E
100
AcDbEntity
  8
0
100
AcDbLine
 10
540.8869999999999
 20
206.4678499999999
 30
0.0
 11
541.993
 21
203.1808499999999
 31
0.0
  0
LINE
  5
39F
330
1E
100
AcDbEntity
  8
0
100
AcDbLine
 10
541.993
 20
203.1808499999999
 30
0.0
 11
542.6639999999999
 21
199.52685
 31
0.0
  0
LINE
  5
3A0
330
1E
100
AcDbEntity
  8
0
100
AcDbLine
 10
542.6639999999999
 20
199.52685
 30
0.0
 11
543.0
 21
195.8048499999999
 31
0.0
  0
LINE
  5
3A1
330
1E
100
AcDbEntity
  8
0
100
AcDbLine
 10
541.3999999999999
 20
211.0048499999999
 30
0.0
 11
544.3999999999999
 21
203.60485
 31
0.0
  0
LINE
  5
3A2
330
1E
100
AcDbEntity
  8
0
100
AcDbLine
 10
541.0
 20
210.7048499999999
 30
0.0
 11
543.9
 21
203.50485
 31
0.0
  0
LINE
  5
3A3
330
1E
100
AcDbEntity
  8
0
100
AcDbLine
 10
540.5
 20
210.50485
 30
0.0
 11
543.4
 21
203.4048499999999
 31
0.0
  0
LINE
  5
3A4
330
1E
100
AcDbEntity
  8
0
100
AcDbLine
 10
543.4
 20
203.4048499999999
 30
0.0
 11
544.5
 21
195.8048499999999
 31
0.0
  0
LINE
  5
3A5
330
1E
100
AcDbEntity
  8
0
100
AcDbLine
 10
540.5
 20
181.10485
 30
0.0
 11
543.4
 21
188.2048499999999
 31
0.0
  0
LINE
  5
3A6
330
1E
100
AcDbEntity
  8
0
100
AcDbLine
 10
548.8240000000001
 20
158.61385
 30
0.0
 11
550.3680000000001
 21
158.81985
 31
0.0
  0
LINE
  5
3A7
330
1E
100
AcDbEntity
  8
0
100
AcDbLine
 10
543.9
 20
203.50485
 30
0.0
 11
545.0
 21
195.8048499999999
 31
0.0
  0
LINE
  5
3A8
330
1E
100
AcDbEntity
  8
0
100
AcDbLine
 10
548.8240000000001
 20
232.99585
 30
0.0
 11
550.3680000000001
 21
232.7898499999999
 31
0.0
  0
LINE
  5
3A9
330
1E
100
AcDbEntity
  8
0
100
AcDbLine
 10
548.8240000000001
 20
233.3048499999999
 30
0.0
 11
550.3680000000001
 21
233.09885
 31
0.0
  0
LINE
  5
3AA
330
1E
100
AcDbEntity
  8
0
100
AcDbLine
 10
544.3999999999999
 20
203.60485
 30
0.0
 11
545.5
 21
195.8048499999999
 31
0.0
  0
LINE
  5
3AB
330
1E
100
AcDbEntity
  8
0
100
AcDbLine
 10
543.9
 20
188.10485
 30
0.0
 11
545.0
 21
195.8048499999999
 31
0.0
  0
LINE
  5
3AC
330
1E
100
AcDbEntity
  8
0
100
AcDbLine
 10
544.3999999999999
 20
188.00485
 30
0.0
 11
545.5
 21
195.8048499999999
 31
0.0
  0
LINE
  5
3AD
330
1E
100
AcDbEntity
  8
0
100
AcDbLine
 10
543.4
 20
188.2048499999999
 30
0.0
 11
544.5
 21
195.8048499999999
 31
0.0
  0
LINE
  5
3AE
330
1E
100
AcDbEntity
  8
0
100
AcDbLine
 10
545.365
 20
90.30685
 30
0.0
 11
550.328
 21
86.40385
 31
0.0
  0
LINE
  5
3AF
330
1E
100
AcDbEntity
  8
0
100
AcDbLine
 10
539.8909999999999
 20
93.61385
 30
0.0
 11
545.365
 21
90.30685
 31
0.0
  0
LINE
  5
3B0
330
1E
100
AcDbEntity
  8
0
100
AcDbLine
 10
544.927
 20
90.19985
 30
0.0
 11
549.8179999999999
 21
86.36284999999999
 31
0.0
  0
LINE
  5
3B1
330
1E
100
AcDbEntity
  8
0
100
AcDbLine
 10
551.0
 20
126.80485
 30
0.0
 11
700.0
 21
76.80485
 31
0.0
  0
LINE
  5
3B2
330
1E
100
AcDbEntity
  8
0
100
AcDbLine
 10
551.0
 20
126.80485
 30
0.0
 11
551.0
 21
158.7638137305699
 31
0.0
  0
LINE
  5
3B3
330
1E
100
AcDbEntity
  8
0
100
AcDbLine
 10
551.0
 20
158.7638137305699
 30
0.0
 11
551.0
 21
126.80485
 31
0.0
  0
LINE
  5
3B4
330
1E
100
AcDbEntity
  8
0
100
AcDbLine
 10
551.0
 20
158.7638137305699
 30
0.0
 11
551.0
 21
126.80485
 31
0.0
  0
LINE
  5
3B5
330
1E
100
AcDbEntity
  8
0
100
AcDbLine
 10
551.7059999999999
 20
232.17285
 30
0.0
 11
552.941
 21
231.2458499999999
 31
0.0
  0
LINE
  5
3B6
330
1E
100
AcDbEntity
  8
0
100
AcDbLine
 10
550.3680000000001
 20
232.7898499999999
 30
0.0
 11
551.7059999999999
 21
232.17285
 31
0.0
  0
LINE
  5
3B7
330
1E
100
AcDbEntity
  8
0
100
AcDbLine
 10
550.3680000000001
 20
233.09885
 30
0.0
 11
551.9119999999999
 21
232.48085
 31
0.0
  0
LINE
  5
3B8
330
1E
100
AcDbEntity
  8
0
100
AcDbLine
 10
551.9119999999999
 20
232.48085
 30
0.0
 11
553.1469999999999
 21
231.45185
 31
0.0
  0
LINE
  5
3B9
330
1E
100
AcDbEntity
  8
0
100
AcDbLine
 10
551.7059999999999
 20
159.4368499999999
 30
0.0
 11
552.941
 21
160.36385
 31
0.0
  0
LINE
  5
3BA
330
1E
100
AcDbEntity
  8
0
100
AcDbLine
 10
550.3680000000001
 20
158.81985
 30
0.0
 11
551.7059999999999
 21
159.4368499999999
 31
0.0
  0
LINE
  5
3BB
330
1E
100
AcDbEntity
  8
0
100
AcDbLine
 10
552.941
 20
231.2458499999999
 30
0.0
 11
553.868
 21
230.0108499999999
 31
0.0
  0
LINE
  5
3BC
330
1E
100
AcDbEntity
  8
0
100
AcDbLine
 10
553.868
 20
230.0108499999999
 30
0.0
 11
554.485
 21
228.67285
 31
0.0
  0
LINE
  5
3BD
330
1E
100
AcDbEntity
  8
0
100
AcDbLine
 10
553.1469999999999
 20
231.45185
 30
0.0
 11
554.1759999999999
 21
230.21685
 31
0.0
  0
LINE
  5
3BE
330
1E
100
AcDbEntity
  8
0
100
AcDbLine
 10
552.941
 20
160.36385
 30
0.0
 11
553.868
 21
161.59885
 31
0.0
  0
LINE
  5
3BF
330
1E
100
AcDbEntity
  8
0
100
AcDbLine
 10
553.868
 20
161.59885
 30
0.0
 11
554.485
 21
162.9368499999999
 31
0.0
  0
LINE
  5
3C0
330
1E
100
AcDbEntity
  8
0
100
AcDbLine
 10
553.1469999999999
 20
160.15785
 30
0.0
 11
554.1759999999999
 21
161.39285
 31
0.0
  0
LINE
  5
3C1
330
1E
100
AcDbEntity
  8
0
100
AcDbLine
 10
551.9119999999999
 20
159.12885
 30
0.0
 11
553.1469999999999
 21
160.15785
 31
0.0
  0
LINE
  5
3C2
330
1E
100
AcDbEntity
  8
0
100
AcDbLine
 10
550.3680000000001
 20
158.51085
 30
0.0
 11
551.9119999999999
 21
159.12885
 31
0.0
  0
LINE
  5
3C3
330
1E
100
AcDbEntity
  8
0
100
AcDbLine
 10
550.328
 20
86.40385
 30
0.0
 11
554.635
 21
81.90485
 31
0.0
  0
LINE
  5
3C4
330
1E
100
AcDbEntity
  8
0
100
AcDbLine
 10
549.8179999999999
 20
86.36284999999999
 30
0.0
 11
554.0509999999999
 21
81.93085000000001
 31
0.0
  0
LINE
  5
3C5
330
1E
100
AcDbEntity
  8
0
100
AcDbLine
 10
554.485
 20
228.67285
 30
0.0
 11
554.691
 21
227.12885
 31
0.0
  0
LINE
  5
3C6
330
1E
100
AcDbEntity
  8
0
100
AcDbLine
 10
554.691
 20
227.12885
 30
0.0
 11
554.691
 21
195.8048499999999
 31
0.0
  0
LINE
  5
3C7
330
1E
100
AcDbEntity
  8
0
100
AcDbLine
 10
554.1759999999999
 20
230.21685
 30
0.0
 11
554.7939999999999
 21
228.67285
 31
0.0
  0
LINE
  5
3C8
330
1E
100
AcDbEntity
  8
0
100
AcDbLine
 10
554.691
 20
164.48085
 30
0.0
 11
554.691
 21
195.8048499999999
 31
0.0
  0
LINE
  5
3C9
330
1E
100
AcDbEntity
  8
0
100
AcDbLine
 10
554.485
 20
162.9368499999999
 30
0.0
 11
554.691
 21
164.48085
 31
0.0
  0
LINE
  5
3CA
330
1E
100
AcDbEntity
  8
0
100
AcDbLine
 10
554.7939999999999
 20
228.67285
 30
0.0
 11
555.0
 21
227.12885
 31
0.0
  0
LINE
  5
3CB
330
1E
100
AcDbEntity
  8
0
100
AcDbLine
 10
554.691
 20
195.8048499999999
 30
0.0
 11
554.691
 21
164.48085
 31
0.0
  0
LINE
  5
3CC
330
1E
100
AcDbEntity
  8
0
100
AcDbLine
 10
554.691
 20
195.8048499999999
 30
0.0
 11
554.691
 21
227.12885
 31
0.0
  0
LINE
  5
3CD
330
1E
100
AcDbEntity
  8
0
100
AcDbLine
 10
554.1759999999999
 20
161.39285
 30
0.0
 11
554.7939999999999
 21
162.9368499999999
 31
0.0
  0
LINE
  5
3CE
330
1E
100
AcDbEntity
  8
0
100
AcDbLine
 10
555.0
 20
195.8048499999999
 30
0.0
 11
555.0
 21
227.12885
 31
0.0
  0
LINE
  5
3CF
330
1E
100
AcDbEntity
  8
0
100
AcDbLine
 10
554.86996312137
 20
228.103495342742
 30
0.0
 11
700.0
 21
276.8048499999999
 31
0.0
  0
LINE
  5
3D0
330
1E
100
AcDbEntity
  8
0
100
AcDbLine
 10
555.0
 20
227.12885
 30
0.0
 11
555.0
 21
195.8048499999999
 31
0.0
  0
LINE
  5
3D1
330
1E
100
AcDbEntity
  8
0
100
AcDbLine
 10
554.7939999999999
 20
162.9368499999999
 30
0.0
 11
555.0
 21
164.48085
 31
0.0
  0
LINE
  5
3D2
330
1E
100
AcDbEntity
  8
0
100
AcDbLine
 10
554.635
 20
81.90485
 30
0.0
 11
558.2849999999999
 21
76.94355
 31
0.0
  0
LINE
  5
3D3
330
1E
100
AcDbEntity
  8
0
100
AcDbLine
 10
554.0509999999999
 20
81.93085000000001
 30
0.0
 11
557.701
 21
77.03545
 31
0.0
  0
LINE
  5
3D4
330
1E
100
AcDbEntity
  8
0
100
AcDbLine
 10
557.701
 20
77.03545
 30
0.0
 11
560.4009999999999
 21
71.87545
 31
0.0
  0
LINE
  5
3D5
330
1E
100
AcDbEntity
  8
0
100
AcDbLine
 10
561.1309999999999
 20
71.71755
 30
0.0
 11
563.1749999999999
 21
66.09445
 31
0.0
  0
LINE
  5
3D6
330
1E
100
AcDbEntity
  8
0
100
AcDbLine
 10
563.1749999999999
 20
66.09445
 30
0.0
 11
564.489
 21
60.20675
 31
0.0
  0
LINE
  5
3D7
330
1E
100
AcDbEntity
  8
0
100
AcDbLine
 10
560.4009999999999
 20
71.87545
 30
0.0
 11
562.518
 21
66.05385
 31
0.0
  0
LINE
  5
3D8
330
1E
100
AcDbEntity
  8
0
100
AcDbLine
 10
562.518
 20
66.05385
 30
0.0
 11
563.759
 21
60.56315
 31
0.0
  0
LINE
  5
3D9
330
1E
100
AcDbEntity
  8
0
100
AcDbLine
 10
563.759
 20
60.56315
 30
0.0
 11
564.2699999999999
 21
54.80785
 31
0.0
  0
LINE
  5
3DA
330
1E
100
AcDbEntity
  8
0
100
AcDbLine
 10
562.518
 20
43.56195
 30
0.0
 11
563.759
 21
49.05205000000011
 31
0.0
  0
LINE
  5
3DB
330
1E
100
AcDbEntity
  8
0
100
AcDbLine
 10
565.0
 20
45.51025
 30
0.0
 11
565.0
 21
54.38525
 31
0.0
  0
LINE
  5
3DC
330
1E
100
AcDbEntity
  8
0
100
AcDbLine
 10
564.489
 20
39.68854999999999
 30
0.0
 11
565.0
 21
45.51025
 31
0.0
  0
LINE
  5
3DD
330
1E
100
AcDbEntity
  8
0
100
AcDbLine
 10
700.0
 20
276.8048499999999
 30
0.0
 11
700.0
 21
76.80485
 31
0.0
  0
LINE
  5
3DE
330
1E
100
AcDbEntity
  8
0
100
AcDbLine
 10
700.0
 20
76.80485
 30
0.0
 11
700.0
 21
276.8048499999999
 31
0.0
  0
LINE
  5
3DF
330
1E
100
AcDbEntity
  8
0
100
AcDbLine
 10
565.0
 20
54.38525
 30
0.0
 11
565.0
 21
45.51025
 31
0.0
  0
LINE
  5
3E0
330
1E
100
AcDbEntity
  8
0
100
AcDbLine
 10
564.489
 20
60.20675
 30
0.0
 11
565.0
 21
54.38525
 31
0.0
  0
LINE
  5
3E1
330
1E
100
AcDbEntity
  8
0
100
AcDbLine
 10
564.489
 20
48.56345000000001
 30
0.0
 11
565.0
 21
54.38525
 31
0.0
  0
LINE
  5
3E2
330
1E
100
AcDbEntity
  8
0
100
AcDbLine
 10
563.759
 20
49.05205000000011
 30
0.0
 11
564.2699999999999
 21
54.80785
 31
0.0
  0
LINE
  5
3E3
330
1E
100
AcDbEntity
  8
0
100
AcDbLine
 10
544.927
 20
19.41575
 30
0.0
 11
549.8179999999999
 21
23.25235
 31
0.0
  0
LINE
  5
3E4
330
1E
100
AcDbEntity
  8
0
100
AcDbLine
 10
539.5259999999999
 20
16.10775
 30
0.0
 11
544.927
 21
19.41575
 31
0.0
  0
LINE
  5
3E5
330
1E
100
AcDbEntity
  8
0
100
AcDbLine
 10
533.832
 20
13.65995
 30
0.0
 11
539.5259999999999
 21
16.10775
 31
0.0
  0
LINE
  5
3E6
330
1E
100
AcDbEntity
  8
0
100
AcDbLine
 10
527.409
 20
11.74174999999999
 30
0.0
 11
533.832
 21
13.65995
 31
0.0
  0
LINE
  5
3E7
330
1E
100
AcDbEntity
  8
0
100
AcDbLine
 10
521.35
 20
10.61674999999999
 30
0.0
 11
527.409
 21
11.74174999999999
 31
0.0
  0
LINE
  5
3E8
330
1E
100
AcDbEntity
  8
0
100
AcDbLine
 10
515.0
 20
10.15414999999999
 30
0.0
 11
521.35
 21
10.61674999999999
 31
0.0
  0
LINE
  5
3ED
330
1E
100
AcDbEntity
  8
0
100
AcDbLine
 10
145.2058819999999
 20
162.9368499999999
 30
0.0
 11
145.0
 21
164.48085
 31
0.0
  0
LINE
  5
3EE
330
1E
100
AcDbEntity
  8
0
100
AcDbLine
 10
145.823529
 20
161.39285
 30
0.0
 11
146.8529399999999
 21
160.15785
 31
0.0
  0
LINE
  5
3EF
330
1E
100
AcDbEntity
  8
0
100
AcDbLine
 10
148.08823
 20
159.12885
 30
0.0
 11
149.0
 21
158.7639341514909
 31
0.0
  0
LINE
  5
3F0
330
1E
100
AcDbEntity
  8
0
100
AcDbLine
 10
149.0
 20
158.7639341514909
 30
0.0
 11
151.17647
 21
158.3048499999999
 31
0.0
  0
LINE
  5
3F1
330
1E
100
AcDbEntity
  8
0
100
AcDbLine
 10
281.0
 20
195.8048499999999
 30
0.0
 11
281.4999999999999
 21
199.40485
 31
0.0
  0
LINE
  5
3F2
330
1E
100
AcDbEntity
  8
0
100
AcDbLine
 10
309.0
 20
195.8048499999999
 30
0.0
 11
308.4999999999999
 21
199.40485
 31
0.0
  0
LINE
  5
3F3
330
1E
100
AcDbEntity
  8
0
100
AcDbLine
 10
548.8240000000001
 20
158.3048499999999
 30
0.0
 11
550.3680000000001
 21
158.51085
 31
0.0
  0
LINE
  5
3F4
330
1E
100
AcDbEntity
  8
0
100
AcDbLine
 10
555.0
 20
164.48085
 30
0.0
 11
555.0
 21
195.8048499999999
 31
0.0
  0
ENDSEC
  0
SECTION
  2
OBJECTS
  0
DICTIONARY
  5
C
330
0
100
AcDbDictionary
281
     1
  3
ACAD_GROUP
350
D
  3
ACAD_LAYOUT
350
19
  3
ACAD_MLINESTYLE
350
16
  3
ACAD_PLOTSETTINGS
350
18
  3
ACAD_PLOTSTYLENAME
350
E
  3
AcDbVariableDictionary
350
3F5
  0
DICTIONARY
  5
D
102
{ACAD_REACTORS
330
C
102
}
330
C
100
AcDbDictionary
281
     1
  0
DICTIONARY
  5
19
102
{ACAD_REACTORS
330
C
102
}
330
C
100
AcDbDictionary
281
     1
  3
Layout1
350
1D
  3
Model
350
21
  0
DICTIONARY
  5
16
102
{ACAD_REACTORS
330
C
102
}
330
C
100
AcDbDictionary
281
     1
  3
Standard
350
17
  0
DICTIONARY
  5
18
102
{ACAD_REACTORS
330
C
102
}
330
C
100
AcDbDictionary
281
     1
  0
ACDBDICTIONARYWDFLT
  5
E
102
{ACAD_REACTORS
330
C
102
}
330
C
100
AcDbDictionary
281
     1
  3
Normal
350
F
100
AcDbDictionaryWithDefault
340
F
  0
DICTIONARY
  5
3F5
102
{ACAD_REACTORS
330
C
102
}
330
C
100
AcDbDictionary
281
     1
  3
DIMASSOC
350
3F6
  0
LAYOUT
  5
1D
102
{ACAD_REACTORS
330
19
102
}
330
19
100
AcDbPlotSettings
  1

  2
hp deskjet 980c series
  4

  6

 40
0.0
 41
0.0
 42
0.0
 43
0.0
 44
0.0
 45
0.0
 46
0.0
 47
0.0
 48
0.0
 49
0.0
140
0.0
141
0.0
142
1.0
143
1.0
 70
   688
 72
     0
 73
     0
 74
     5
  7

 75
    16
147
1.0
148
0.0
149
0.0
100
AcDbLayout
  1
Layout1
 70
     1
 71
     1
 10
0.0
 20
0.0
 11
12.0
 21
9.0
 12
0.0
 22
0.0
 32
0.0
 14
1.000000000000000E+20
 24
1.000000000000000E+20
 34
1.000000000000000E+20
 15
-1.000000000000000E+20
 25
-1.000000000000000E+20
 35
-1.000000000000000E+20
146
0.0
 13
0.0
 23
0.0
 33
0.0
 16
1.0
 26
0.0
 36
0.0
 17
0.0
 27
1.0
 37
0.0
 76
     0
330
1A
  0
LAYOUT
  5
21
102
{ACAD_REACTORS
330
19
102
}
330
19
100
AcDbPlotSettings
  1

  2
hp deskjet 980c series
  4

  6

 40
0.0
 41
0.0
 42
0.0
 43
0.0
 44
0.0
 45
0.0
 46
0.0
 47
0.0
 48
0.0
 49
0.0
140
0.0
141
0.0
142
1.0
143
1.0
 70
  1712
 72
     0
 73
     0
 74
     0
  7

 75
     0
147
1.0
148
0.0
149
0.0
100
AcDbLayout
  1
Model
 70
     1
 71
     0
 10
0.0
 20
0.0
 11
12.0
 21
9.0
 12
0.0
 22
0.0
 32
0.0
 14
0.0
 24
0.0
 34
0.0
 15
0.0
 25
0.0
 35
0.0
146
0.0
 13
0.0
 23
0.0
 33
0.0
 16
1.0
 26
0.0
 36
0.0
 17
0.0
 27
1.0
 37
0.0
 76
     0
330
1E
  0
MLINESTYLE
  5
17
102
{ACAD_REACTORS
330
16
102
}
330
16
100
AcDbMlineStyle
  2
STANDARD
 70
     0
  3

 62
   256
 51
90.0
 52
90.0
 71
     2
 49
0.5
 62
   256
  6
BYLAYER
 49
-0.5
 62
   256
  6
BYLAYER
  0
ACDBPLACEHOLDER
  5
F
102
{ACAD_REACTORS
330
E
102
}
330
E
  0
DICTIONARYVAR
  5
3F6
102
{ACAD_REACTORS
330
3F5
102
}
330
3F5
100
DictionaryVariables
280
     0
  1
1
  0
ENDSEC
  0
EOF
