  0
SECTION
  2
HEADER
  9
$ACADVER
  1
AC1015
  9
$ACADMAINTVER
 70
    13
  9
$DWGCODEPAGE
  3
ANSI_1252
  9
$INSBASE
 10
0.0
 20
0.0
 30
0.0
  9
$EXTMIN
 10
0.0000000000000074
 20
0.0000174999999979
 30
0.0
  9
$EXTMAX
 10
266.0
 20
209.9999825
 30
0.0
  9
$LIMMIN
 10
0.0
 20
0.0
  9
$LIMMAX
 10
12.0
 20
9.0
  9
$ORTHOMODE
 70
     0
  9
$REGENMODE
 70
     1
  9
$FILLMODE
 70
     1
  9
$QTEXTMODE
 70
     0
  9
$MIRRTEXT
 70
     1
  9
$LTSCALE
 40
1.0
  9
$ATTMODE
 70
     1
  9
$TEXTSIZE
 40
0.2
  9
$TRACEWID
 40
0.05
  9
$TEXTSTYLE
  7
Standard
  9
$CLAYER
  8
0
  9
$CELTYPE
  6
Continuous
  9
$CECOLOR
 62
   256
  9
$CELTSCALE
 40
1.0
  9
$DISPSILH
 70
     0
  9
$DIMSCALE
 40
1.0
  9
$DIMASZ
 40
0.18
  9
$DIMEXO
 40
0.0625
  9
$DIMDLI
 40
0.38
  9
$DIMRND
 40
0.0
  9
$DIMDLE
 40
0.0
  9
$DIMEXE
 40
0.18
  9
$DIMTP
 40
0.0
  9
$DIMTM
 40
0.0
  9
$DIMTXT
 40
0.18
  9
$DIMCEN
 40
0.09
  9
$DIMTSZ
 40
0.0
  9
$DIMTOL
 70
     0
  9
$DIMLIM
 70
     0
  9
$DIMTIH
 70
     1
  9
$DIMTOH
 70
     1
  9
$DIMSE1
 70
     0
  9
$DIMSE2
 70
     0
  9
$DIMTAD
 70
     0
  9
$DIMZIN
 70
     0
  9
$DIMBLK
  1

  9
$DIMASO
 70
     1
  9
$DIMSHO
 70
     1
  9
$DIMPOST
  1

  9
$DIMAPOST
  1

  9
$DIMALT
 70
     0
  9
$DIMALTD
 70
     2
  9
$DIMALTF
 40
25.4
  9
$DIMLFAC
 40
1.0
  9
$DIMTOFL
 70
     0
  9
$DIMTVP
 40
0.0
  9
$DIMTIX
 70
     0
  9
$DIMSOXD
 70
     0
  9
$DIMSAH
 70
     0
  9
$DIMBLK1
  1

  9
$DIMBLK2
  1

  9
$DIMSTYLE
  2
Standard
  9
$DIMCLRD
 70
     0
  9
$DIMCLRE
 70
     0
  9
$DIMCLRT
 70
     0
  9
$DIMTFAC
 40
1.0
  9
$DIMGAP
 40
0.09
  9
$DIMJUST
 70
     0
  9
$DIMSD1
 70
     0
  9
$DIMSD2
 70
     0
  9
$DIMTOLJ
 70
     1
  9
$DIMTZIN
 70
     0
  9
$DIMALTZ
 70
     0
  9
$DIMALTTZ
 70
     0
  9
$DIMUPT
 70
     0
  9
$DIMDEC
 70
     4
  9
$DIMTDEC
 70
     4
  9
$DIMALTU
 70
     2
  9
$DIMALTTD
 70
     2
  9
$DIMTXSTY
  7
Standard
  9
$DIMAUNIT
 70
     0
  9
$DIMADEC
 70
     0
  9
$DIMALTRND
 40
0.0
  9
$DIMAZIN
 70
     0
  9
$DIMDSEP
 70
    46
  9
$DIMATFIT
 70
     3
  9
$DIMFRAC
 70
     0
  9
$DIMLDRBLK
  1

  9
$DIMLUNIT
 70
     2
  9
$DIMLWD
 70
    -2
  9
$DIMLWE
 70
    -2
  9
$DIMTMOVE
 70
     0
  9
$LUNITS
 70
     2
  9
$LUPREC
 70
     4
  9
$SKETCHINC
 40
0.1
  9
$FILLETRAD
 40
0.0
  9
$AUNITS
 70
     0
  9
$AUPREC
 70
     0
  9
$MENU
  1
.
  9
$ELEVATION
 40
0.0
  9
$PELEVATION
 40
0.0
  9
$THICKNESS
 40
0.0
  9
$LIMCHECK
 70
     0
  9
$CHAMFERA
 40
0.0
  9
$CHAMFERB
 40
0.0
  9
$CHAMFERC
 40
0.0
  9
$CHAMFERD
 40
0.0
  9
$SKPOLY
 70
     0
  9
$TDCREATE
 40
2454637.769149456
  9
$TDUCREATE
 40
2454637.685816122
  9
$TDUPDATE
 40
2454637.784911898
  9
$TDUUPDATE
 40
2454637.701578565
  9
$TDINDWG
 40
0.0044247222
  9
$TDUSRTIMER
 40
0.0044247222
  9
$USRTIMER
 70
     1
  9
$ANGBASE
 50
0.0
  9
$ANGDIR
 70
     0
  9
$PDMODE
 70
     0
  9
$PDSIZE
 40
0.0
  9
$PLINEWID
 40
0.0
  9
$SPLFRAME
 70
     0
  9
$SPLINETYPE
 70
     6
  9
$SPLINESEGS
 70
     8
  9
$HANDSEED
  5
1EF
  9
$SURFTAB1
 70
     6
  9
$SURFTAB2
 70
     6
  9
$SURFTYPE
 70
     6
  9
$SURFU
 70
     6
  9
$SURFV
 70
     6
  9
$UCSBASE
  2

  9
$UCSNAME
  2

  9
$UCSORG
 10
0.0
 20
0.0
 30
0.0
  9
$UCSXDIR
 10
1.0
 20
0.0
 30
0.0
  9
$UCSYDIR
 10
0.0
 20
1.0
 30
0.0
  9
$UCSORTHOREF
  2

  9
$UCSORTHOVIEW
 70
     1
  9
$UCSORGTOP
 10
0.0
 20
0.0
 30
0.0
  9
$UCSORGBOTTOM
 10
0.0
 20
0.0
 30
0.0
  9
$UCSORGLEFT
 10
0.0
 20
0.0
 30
0.0
  9
$UCSORGRIGHT
 10
0.0
 20
0.0
 30
0.0
  9
$UCSORGFRONT
 10
0.0
 20
0.0
 30
0.0
  9
$UCSORGBACK
 10
0.0
 20
0.0
 30
0.0
  9
$PUCSBASE
  2

  9
$PUCSNAME
  2

  9
$PUCSORG
 10
0.0
 20
0.0
 30
0.0
  9
$PUCSXDIR
 10
1.0
 20
0.0
 30
0.0
  9
$PUCSYDIR
 10
0.0
 20
1.0
 30
0.0
  9
$PUCSORTHOREF
  2

  9
$PUCSORTHOVIEW
 70
     0
  9
$PUCSORGTOP
 10
0.0
 20
0.0
 30
0.0
  9
$PUCSORGBOTTOM
 10
0.0
 20
0.0
 30
0.0
  9
$PUCSORGLEFT
 10
0.0
 20
0.0
 30
0.0
  9
$PUCSORGRIGHT
 10
0.0
 20
0.0
 30
0.0
  9
$PUCSORGFRONT
 10
0.0
 20
0.0
 30
0.0
  9
$PUCSORGBACK
 10
0.0
 20
0.0
 30
0.0
  9
$USERI1
 70
     0
  9
$USERI2
 70
     0
  9
$USERI3
 70
     0
  9
$USERI4
 70
     0
  9
$USERI5
 70
     0
  9
$USERR1
 40
0.0
  9
$USERR2
 40
0.0
  9
$USERR3
 40
0.0
  9
$USERR4
 40
0.0
  9
$USERR5
 40
0.0
  9
$WORLDVIEW
 70
     1
  9
$SHADEDGE
 70
     3
  9
$SHADEDIF
 70
    70
  9
$TILEMODE
 70
     1
  9
$MAXACTVP
 70
    64
  9
$PINSBASE
 10
0.0
 20
0.0
 30
0.0
  9
$PLIMCHECK
 70
     0
  9
$PEXTMIN
 10
1.000000000000000E+20
 20
1.000000000000000E+20
 30
1.000000000000000E+20
  9
$PEXTMAX
 10
-1.000000000000000E+20
 20
-1.000000000000000E+20
 30
-1.000000000000000E+20
  9
$PLIMMIN
 10
0.0
 20
0.0
  9
$PLIMMAX
 10
12.0
 20
9.0
  9
$UNITMODE
 70
     0
  9
$VISRETAIN
 70
     1
  9
$PLINEGEN
 70
     0
  9
$PSLTSCALE
 70
     1
  9
$TREEDEPTH
 70
  3020
  9
$CMLSTYLE
  2
Standard
  9
$CMLJUST
 70
     0
  9
$CMLSCALE
 40
1.0
  9
$PROXYGRAPHICS
 70
     1
  9
$MEASUREMENT
 70
     0
  9
$CELWEIGHT
370
    -1
  9
$ENDCAPS
280
     0
  9
$JOINSTYLE
280
     0
  9
$LWDISPLAY
290
     0
  9
$INSUNITS
 70
     0
  9
$HYPERLINKBASE
  1

  9
$STYLESHEET
  1

  9
$XEDIT
290
     1
  9
$CEPSNTYPE
380
     0
  9
$PSTYLEMODE
290
     1
  9
$FINGERPRINTGUID
  2
{5B259EDA-D7AD-47EA-A471-4460E3A1B2B3}
  9
$VERSIONGUID
  2
{57B778CD-3492-40DA-838D-AA9F2AB9A531}
  9
$EXTNAMES
290
     1
  9
$PSVPSCALE
 40
0.0
  9
$OLESTARTUP
290
     0
  0
ENDSEC
  0
SECTION
  2
CLASSES
  0
CLASS
  1
ACDBDICTIONARYWDFLT
  2
AcDbDictionaryWithDefault
  3
AutoCAD 2000
 90
        0
280
     0
281
     0
  0
CLASS
  1
ACDBPLACEHOLDER
  2
AcDbPlaceHolder
  3
AutoCAD 2000
 90
        0
280
     0
281
     0
  0
CLASS
  1
LAYOUT
  2
AcDbLayout
  3
AutoCAD 2000
 90
        0
280
     0
281
     0
  0
CLASS
  1
DICTIONARYVAR
  2
AcDbDictionaryVar
  3
AutoCAD 2000
 90
        0
280
     0
281
     0
  0
ENDSEC
  0
SECTION
  2
TABLES
  0
TABLE
  2
VPORT
  5
8
330
0
100
AcDbSymbolTable
 70
     2
  0
VPORT
  5
1EE
330
8
100
AcDbSymbolTableRecord
100
AcDbViewportTableRecord
  2
*Active
 70
     0
 10
0.0
 20
0.0
 11
1.0
 21
1.0
 12
133.0
 22
105.0
 13
0.0
 23
0.0
 14
1.0
 24
1.0
 15
0.0
 25
0.0
 16
0.0
 26
0.0
 36
1.0
 17
0.0
 27
0.0
 37
0.0
 40
211.6112179283887
 41
2.043533930857874
 42
50.0
 43
0.0
 44
0.0
 50
0.0
 51
0.0
 71
     0
 72
   100
 73
     1
 74
     3
 75
     0
 76
     0
 77
     0
 78
     0
281
     0
 65
     1
110
0.0
120
0.0
130
0.0
111
1.0
121
0.0
131
0.0
112
0.0
122
1.0
132
0.0
 79
     1
146
0.0
  0
ENDTAB
  0
TABLE
  2
LTYPE
  5
5
330
0
100
AcDbSymbolTable
 70
     1
  0
LTYPE
  5
13
330
5
100
AcDbSymbolTableRecord
100
AcDbLinetypeTableRecord
  2
ByBlock
 70
     0
  3

 72
    65
 73
     0
 40
0.0
  0
LTYPE
  5
14
330
5
100
AcDbSymbolTableRecord
100
AcDbLinetypeTableRecord
  2
ByLayer
 70
     0
  3

 72
    65
 73
     0
 40
0.0
  0
LTYPE
  5
15
330
5
100
AcDbSymbolTableRecord
100
AcDbLinetypeTableRecord
  2
Continuous
 70
     0
  3
Solid line
 72
    65
 73
     0
 40
0.0
  0
ENDTAB
  0
TABLE
  2
LAYER
  5
2
330
0
100
AcDbSymbolTable
 70
     1
  0
LAYER
  5
10
330
2
100
AcDbSymbolTableRecord
100
AcDbLayerTableRecord
  2
0
 70
     0
 62
     7
  6
Continuous
370
    -3
390
F
  0
ENDTAB
  0
TABLE
  2
STYLE
  5
3
330
0
100
AcDbSymbolTable
 70
     1
  0
STYLE
  5
11
330
3
100
AcDbSymbolTableRecord
100
AcDbTextStyleTableRecord
  2
Standard
 70
     0
 40
0.0
 41
1.0
 50
0.0
 71
     0
 42
0.2
  3
txt
  4

  0
ENDTAB
  0
TABLE
  2
VIEW
  5
6
330
0
100
AcDbSymbolTable
 70
     0
  0
ENDTAB
  0
TABLE
  2
UCS
  5
7
330
0
100
AcDbSymbolTable
 70
     0
  0
ENDTAB
  0
TABLE
  2
APPID
  5
9
330
0
100
AcDbSymbolTable
 70
     1
  0
APPID
  5
12
330
9
100
AcDbSymbolTableRecord
100
AcDbRegAppTableRecord
  2
ACAD
 70
     0
  0
ENDTAB
  0
TABLE
  2
DIMSTYLE
  5
A
330
0
100
AcDbSymbolTable
 70
     1
100
AcDbDimStyleTable
 71
     0
  0
DIMSTYLE
105
1E0
330
A
100
AcDbSymbolTableRecord
100
AcDbDimStyleTableRecord
  2
Standard
 70
     0
340
11
  0
ENDTAB
  0
TABLE
  2
BLOCK_RECORD
  5
1
330
0
100
AcDbSymbolTable
 70
     0
  0
BLOCK_RECORD
  5
1E
330
1
100
AcDbSymbolTableRecord
100
AcDbBlockTableRecord
  2
*Model_Space
340
21
  0
BLOCK_RECORD
  5
1A
330
1
100
AcDbSymbolTableRecord
100
AcDbBlockTableRecord
  2
*Paper_Space
340
1D
  0
ENDTAB
  0
ENDSEC
  0
SECTION
  2
BLOCKS
  0
BLOCK
  5
1F
330
1E
100
AcDbEntity
  8
0
100
AcDbBlockBegin
  2
*Model_Space
 70
     0
 10
0.0
 20
0.0
 30
0.0
  3
*Model_Space
  1

  0
ENDBLK
  5
20
330
1E
100
AcDbEntity
  8
0
100
AcDbBlockEnd
  0
BLOCK
  5
1B
330
1A
100
AcDbEntity
 67
     1
  8
0
100
AcDbBlockBegin
  2
*Paper_Space
 70
     0
 10
0.0
 20
0.0
 30
0.0
  3
*Paper_Space
  1

  0
ENDBLK
  5
1C
330
1A
100
AcDbEntity
 67
     1
  8
0
100
AcDbBlockEnd
  0
ENDSEC
  0
SECTION
  2
ENTITIES
  0
LINE
  5
22
330
1E
100
AcDbEntity
  8
0
100
AcDbLine
 10
102.0
 20
17.4589825
 30
0.0
 11
102.0
 21
20.3051825
 31
0.0
  0
LINE
  5
23
330
1E
100
AcDbEntity
  8
0
100
AcDbLine
 10
102.0
 20
17.4589825
 30
0.0
 11
102.0
 21
15.2693825
 31
0.0
  0
LINE
  5
24
330
1E
100
AcDbEntity
  8
0
100
AcDbLine
 10
102.0
 20
15.2693825
 30
0.0
 11
102.4679999999999
 21
12.1946825
 31
0.0
  0
LINE
  5
25
330
1E
100
AcDbEntity
  8
0
100
AcDbLine
 10
102.0
 20
15.2693825
 30
0.0
 11
102.0
 21
17.4589825
 31
0.0
  0
LINE
  5
26
330
1E
100
AcDbEntity
  8
0
100
AcDbLine
 10
102.0
 20
31.0110825
 30
0.0
 11
102.0
 21
35.0986825
 31
0.0
  0
LINE
  5
27
330
1E
100
AcDbEntity
  8
0
100
AcDbLine
 10
102.0
 20
31.0110825
 30
0.0
 11
102.0
 21
27.1396825
 31
0.0
  0
LINE
  5
28
330
1E
100
AcDbEntity
  8
0
100
AcDbLine
 10
102.0
 20
35.0986825
 30
0.0
 11
102.0
 21
39.33228249999999
 31
0.0
  0
LINE
  5
29
330
1E
100
AcDbEntity
  8
0
100
AcDbLine
 10
102.0
 20
35.0986825
 30
0.0
 11
102.0
 21
31.0110825
 31
0.0
  0
LINE
  5
2A
330
1E
100
AcDbEntity
  8
0
100
AcDbLine
 10
102.0
 20
39.33228249999999
 30
0.0
 11
102.0
 21
43.6396825
 31
0.0
  0
LINE
  5
2B
330
1E
100
AcDbEntity
  8
0
100
AcDbLine
 10
102.0
 20
39.33228249999999
 30
0.0
 11
102.0
 21
35.0986825
 31
0.0
  0
LINE
  5
2C
330
1E
100
AcDbEntity
  8
0
100
AcDbLine
 10
102.0
 20
27.1396825
 30
0.0
 11
102.0
 21
23.5505825
 31
0.0
  0
LINE
  5
2D
330
1E
100
AcDbEntity
  8
0
100
AcDbLine
 10
102.0
 20
27.1396825
 30
0.0
 11
102.0
 21
31.0110825
 31
0.0
  0
LINE
  5
2E
330
1E
100
AcDbEntity
  8
0
100
AcDbLine
 10
102.0
 20
20.3051825
 30
0.0
 11
102.0
 21
23.5505825
 31
0.0
  0
LINE
  5
2F
330
1E
100
AcDbEntity
  8
0
100
AcDbLine
 10
102.0
 20
20.3051825
 30
0.0
 11
102.0
 21
17.4589825
 31
0.0
  0
LINE
  5
30
330
1E
100
AcDbEntity
  8
0
100
AcDbLine
 10
102.0
 20
23.5505825
 30
0.0
 11
102.0
 21
20.3051825
 31
0.0
  0
LINE
  5
31
330
1E
100
AcDbEntity
  8
0
100
AcDbLine
 10
102.0
 20
23.5505825
 30
0.0
 11
102.0
 21
27.1396825
 31
0.0
  0
LINE
  5
32
330
1E
100
AcDbEntity
  8
0
100
AcDbLine
 10
0.0000000000000074
 20
122.6439824999999
 30
0.0
 11
0.0000000000000074
 21
120.6679824999999
 31
0.0
  0
LINE
  5
33
330
1E
100
AcDbEntity
  8
0
100
AcDbLine
 10
0.0000000000000074
 20
122.6439824999999
 30
0.0
 11
0.0000000000000074
 21
125.7939825
 31
0.0
  0
LINE
  5
34
330
1E
100
AcDbEntity
  8
0
100
AcDbLine
 10
0.0000000000000074
 20
120.6679824999999
 30
0.0
 11
0.0000000000000074
 21
119.9259824999999
 31
0.0
  0
LINE
  5
35
330
1E
100
AcDbEntity
  8
0
100
AcDbLine
 10
0.0000000000000074
 20
120.6679824999999
 30
0.0
 11
0.0000000000000074
 21
122.6439824999999
 31
0.0
  0
LINE
  5
36
330
1E
100
AcDbEntity
  8
0
100
AcDbLine
 10
0.0000000000000074
 20
125.7939825
 30
0.0
 11
0.0000000000000074
 21
129.9939824999998
 31
0.0
  0
LINE
  5
37
330
1E
100
AcDbEntity
  8
0
100
AcDbLine
 10
0.0000000000000074
 20
125.7939825
 30
0.0
 11
0.0000000000000074
 21
122.6439824999999
 31
0.0
  0
LINE
  5
38
330
1E
100
AcDbEntity
  8
0
100
AcDbLine
 10
0.0000000000000074
 20
129.9939824999998
 30
0.0
 11
0.0000000000000074
 21
125.7939825
 31
0.0
  0
LINE
  5
39
330
1E
100
AcDbEntity
  8
0
100
AcDbLine
 10
0.0000000000000074
 20
129.9939824999998
 30
0.0
 11
0.0000000000000074
 21
134.8119824999999
 31
0.0
  0
LINE
  5
3A
330
1E
100
AcDbEntity
  8
0
100
AcDbLine
 10
0.0000000000000074
 20
157.3559824999998
 30
0.0
 11
0.0000000000000074
 21
154.2059825
 31
0.0
  0
LINE
  5
3B
330
1E
100
AcDbEntity
  8
0
100
AcDbLine
 10
0.0000000000000074
 20
157.3559824999998
 30
0.0
 11
0.0000000000000074
 21
159.3319825
 31
0.0
  0
LINE
  5
3C
330
1E
100
AcDbEntity
  8
0
100
AcDbLine
 10
0.0000000000000074
 20
159.3319825
 30
0.0
 11
0.0000000000000074
 21
157.3559824999998
 31
0.0
  0
LINE
  5
3D
330
1E
100
AcDbEntity
  8
0
100
AcDbLine
 10
0.0000000000000074
 20
159.3319825
 30
0.0
 11
0.0000000000000074
 21
160.0739824999999
 31
0.0
  0
LINE
  5
3E
330
1E
100
AcDbEntity
  8
0
100
AcDbLine
 10
0.0000000000000074
 20
154.2059825
 30
0.0
 11
0.0000000000000074
 21
150.0059824999999
 31
0.0
  0
LINE
  5
3F
330
1E
100
AcDbEntity
  8
0
100
AcDbLine
 10
0.0000000000000074
 20
154.2059825
 30
0.0
 11
0.0000000000000074
 21
157.3559824999998
 31
0.0
  0
LINE
  5
40
330
1E
100
AcDbEntity
  8
0
100
AcDbLine
 10
0.0000000000000074
 20
150.0059824999999
 30
0.0
 11
0.0000000000000074
 21
145.1879824999999
 31
0.0
  0
LINE
  5
41
330
1E
100
AcDbEntity
  8
0
100
AcDbLine
 10
0.0000000000000074
 20
150.0059824999999
 30
0.0
 11
0.0000000000000074
 21
154.2059825
 31
0.0
  0
LINE
  5
42
330
1E
100
AcDbEntity
  8
0
100
AcDbLine
 10
0.0000000000000074
 20
145.1879824999999
 30
0.0
 11
0.0000000000000074
 21
139.9999824999998
 31
0.0
  0
LINE
  5
43
330
1E
100
AcDbEntity
  8
0
100
AcDbLine
 10
0.0000000000000074
 20
145.1879824999999
 30
0.0
 11
0.0000000000000074
 21
150.0059824999999
 31
0.0
  0
LINE
  5
44
330
1E
100
AcDbEntity
  8
0
100
AcDbLine
 10
0.0000000000000074
 20
134.8119824999999
 30
0.0
 11
0.0000000000000074
 21
129.9939824999998
 31
0.0
  0
LINE
  5
45
330
1E
100
AcDbEntity
  8
0
100
AcDbLine
 10
0.0000000000000074
 20
134.8119824999999
 30
0.0
 11
0.0000000000000074
 21
139.9999824999998
 31
0.0
  0
LINE
  5
46
330
1E
100
AcDbEntity
  8
0
100
AcDbLine
 10
0.0000000000000074
 20
139.9999824999998
 30
0.0
 11
0.0000000000000074
 21
134.8119824999999
 31
0.0
  0
LINE
  5
47
330
1E
100
AcDbEntity
  8
0
100
AcDbLine
 10
0.0000000000000074
 20
139.9999824999998
 30
0.0
 11
0.0000000000000074
 21
145.1879824999999
 31
0.0
  0
LINE
  5
48
330
1E
100
AcDbEntity
  8
0
100
AcDbLine
 10
0.0000000000000074
 20
119.9259824999999
 30
0.0
 11
0.326087000000008
 21
119.3089824999999
 31
0.0
  0
LINE
  5
49
330
1E
100
AcDbEntity
  8
0
100
AcDbLine
 10
0.0000000000000074
 20
119.9259824999999
 30
0.0
 11
0.0000000000000074
 21
120.6679824999999
 31
0.0
  0
LINE
  5
4A
330
1E
100
AcDbEntity
  8
0
100
AcDbLine
 10
0.9782610000000071
 20
118.9999825
 30
0.0
 11
102.0
 21
118.9999825
 31
0.0
  0
LINE
  5
4B
330
1E
100
AcDbEntity
  8
0
100
AcDbLine
 10
0.326087000000008
 20
122.0879824999999
 30
0.0
 11
0.326087000000008
 21
120.0499825
 31
0.0
  0
LINE
  5
4C
330
1E
100
AcDbEntity
  8
0
100
AcDbLine
 10
0.326087000000008
 20
122.0879824999999
 30
0.0
 11
0.326087000000008
 21
125.3619824999999
 31
0.0
  0
LINE
  5
4D
330
1E
100
AcDbEntity
  8
0
100
AcDbLine
 10
0.326087000000008
 20
120.0499825
 30
0.0
 11
0.326087000000008
 21
119.3089824999999
 31
0.0
  0
LINE
  5
4E
330
1E
100
AcDbEntity
  8
0
100
AcDbLine
 10
0.326087000000008
 20
120.0499825
 30
0.0
 11
0.326087000000008
 21
122.0879824999999
 31
0.0
  0
LINE
  5
4F
330
1E
100
AcDbEntity
  8
0
100
AcDbLine
 10
0.326087000000008
 20
125.3619824999999
 30
0.0
 11
0.326087000000008
 21
129.6849825
 31
0.0
  0
LINE
  5
50
330
1E
100
AcDbEntity
  8
0
100
AcDbLine
 10
0.326087000000008
 20
125.3619824999999
 30
0.0
 11
0.326087000000008
 21
122.0879824999999
 31
0.0
  0
LINE
  5
51
330
1E
100
AcDbEntity
  8
0
100
AcDbLine
 10
0.326087000000008
 20
129.6849825
 30
0.0
 11
0.326087000000008
 21
125.3619824999999
 31
0.0
  0
LINE
  5
52
330
1E
100
AcDbEntity
  8
0
100
AcDbLine
 10
0.326087000000008
 20
129.6849825
 30
0.0
 11
0.326087000000008
 21
134.6879825
 31
0.0
  0
LINE
  5
53
330
1E
100
AcDbEntity
  8
0
100
AcDbLine
 10
0.326087000000008
 20
134.6879825
 30
0.0
 11
0.326087000000008
 21
129.6849825
 31
0.0
  0
LINE
  5
54
330
1E
100
AcDbEntity
  8
0
100
AcDbLine
 10
0.326087000000008
 20
134.6879825
 30
0.0
 11
0.326087000000008
 21
139.9999824999998
 31
0.0
  0
LINE
  5
55
330
1E
100
AcDbEntity
  8
0
100
AcDbLine
 10
0.326087000000008
 20
157.9119825
 30
0.0
 11
0.326087000000008
 21
154.6379824999999
 31
0.0
  0
LINE
  5
56
330
1E
100
AcDbEntity
  8
0
100
AcDbLine
 10
0.326087000000008
 20
157.9119825
 30
0.0
 11
0.326087000000008
 21
159.9499825
 31
0.0
  0
LINE
  5
57
330
1E
100
AcDbEntity
  8
0
100
AcDbLine
 10
0.326087000000008
 20
159.9499825
 30
0.0
 11
0.326087000000008
 21
157.9119825
 31
0.0
  0
LINE
  5
58
330
1E
100
AcDbEntity
  8
0
100
AcDbLine
 10
0.326087000000008
 20
159.9499825
 30
0.0
 11
0.326087000000008
 21
160.6909824999999
 31
0.0
  0
LINE
  5
59
330
1E
100
AcDbEntity
  8
0
100
AcDbLine
 10
0.326087000000008
 20
154.6379824999999
 30
0.0
 11
0.326087000000008
 21
150.3149824999999
 31
0.0
  0
LINE
  5
5A
330
1E
100
AcDbEntity
  8
0
100
AcDbLine
 10
0.326087000000008
 20
154.6379824999999
 30
0.0
 11
0.326087000000008
 21
157.9119825
 31
0.0
  0
LINE
  5
5B
330
1E
100
AcDbEntity
  8
0
100
AcDbLine
 10
0.326087000000008
 20
150.3149824999999
 30
0.0
 11
0.326087000000008
 21
145.3119824999999
 31
0.0
  0
LINE
  5
5C
330
1E
100
AcDbEntity
  8
0
100
AcDbLine
 10
0.326087000000008
 20
150.3149824999999
 30
0.0
 11
0.326087000000008
 21
154.6379824999999
 31
0.0
  0
LINE
  5
5D
330
1E
100
AcDbEntity
  8
0
100
AcDbLine
 10
0.326087000000008
 20
145.3119824999999
 30
0.0
 11
0.326087000000008
 21
139.9999824999998
 31
0.0
  0
LINE
  5
5E
330
1E
100
AcDbEntity
  8
0
100
AcDbLine
 10
0.326087000000008
 20
145.3119824999999
 30
0.0
 11
0.326087000000008
 21
150.3149824999999
 31
0.0
  0
LINE
  5
5F
330
1E
100
AcDbEntity
  8
0
100
AcDbLine
 10
0.326087000000008
 20
139.9999824999998
 30
0.0
 11
0.326087000000008
 21
134.6879825
 31
0.0
  0
LINE
  5
60
330
1E
100
AcDbEntity
  8
0
100
AcDbLine
 10
0.326087000000008
 20
139.9999824999998
 30
0.0
 11
0.326087000000008
 21
145.3119824999999
 31
0.0
  0
LINE
  5
61
330
1E
100
AcDbEntity
  8
0
100
AcDbLine
 10
0.326087000000008
 20
119.3089824999999
 30
0.0
 11
0.9782610000000071
 21
118.9999825
 31
0.0
  0
LINE
  5
62
330
1E
100
AcDbEntity
  8
0
100
AcDbLine
 10
0.326087000000008
 20
119.3089824999999
 30
0.0
 11
0.326087000000008
 21
120.0499825
 31
0.0
  0
LINE
  5
63
330
1E
100
AcDbEntity
  8
0
100
AcDbLine
 10
0.9782610000000047
 20
118.9999825
 30
0.0
 11
102.0
 21
118.9999825
 31
0.0
  0
LINE
  5
64
330
1E
100
AcDbEntity
  8
0
100
AcDbLine
 10
0.0000000000000074
 20
160.0739824999999
 30
0.0
 11
0.326087000000008
 21
160.6909824999999
 31
0.0
  0
LINE
  5
65
330
1E
100
AcDbEntity
  8
0
100
AcDbLine
 10
0.0000000000000074
 20
160.0739824999999
 30
0.0
 11
0.0000000000000074
 21
159.3319825
 31
0.0
  0
LINE
  5
66
330
1E
100
AcDbEntity
  8
0
100
AcDbLine
 10
0.9782610000000047
 20
160.9999824999999
 30
0.0
 11
25.0
 21
160.9999824999999
 31
0.0
  0
LINE
  5
67
330
1E
100
AcDbEntity
  8
0
100
AcDbLine
 10
0.326087000000008
 20
160.6909824999999
 30
0.0
 11
0.9782610000000071
 21
160.9999824999999
 31
0.0
  0
LINE
  5
68
330
1E
100
AcDbEntity
  8
0
100
AcDbLine
 10
0.326087000000008
 20
160.6909824999999
 30
0.0
 11
0.326087000000008
 21
159.9499825
 31
0.0
  0
LINE
  5
69
330
1E
100
AcDbEntity
  8
0
100
AcDbLine
 10
25.0
 20
160.9999824999999
 30
0.0
 11
25.0
 21
183.9999824999999
 31
0.0
  0
LINE
  5
6A
330
1E
100
AcDbEntity
  8
0
100
AcDbLine
 10
101.8399999999999
 20
136.4719824999999
 30
0.0
 11
103.184
 21
133.2239825
 31
0.0
  0
LINE
  5
6B
330
1E
100
AcDbEntity
  8
0
100
AcDbLine
 10
101.5039999999999
 20
136.4159824999999
 30
0.0
 11
102.848
 21
133.0559824999999
 31
0.0
  0
LINE
  5
6C
330
1E
100
AcDbEntity
  8
0
100
AcDbLine
 10
101.336
 20
139.9999824999998
 30
0.0
 11
101.8399999999999
 21
143.5279825
 31
0.0
  0
LINE
  5
6D
330
1E
100
AcDbEntity
  8
0
100
AcDbLine
 10
101.336
 20
139.9999824999998
 30
0.0
 11
101.8399999999999
 21
136.4719824999999
 31
0.0
  0
LINE
  5
6E
330
1E
100
AcDbEntity
  8
0
100
AcDbLine
 10
101.8399999999999
 20
143.5279825
 30
0.0
 11
103.184
 21
146.7759824999999
 31
0.0
  0
LINE
  5
6F
330
1E
100
AcDbEntity
  8
0
100
AcDbLine
 10
101.0
 20
139.9999824999998
 30
0.0
 11
101.5039999999999
 21
143.5839824999999
 31
0.0
  0
LINE
  5
70
330
1E
100
AcDbEntity
  8
0
100
AcDbLine
 10
101.0
 20
139.9999824999998
 30
0.0
 11
101.5039999999999
 21
136.4159824999999
 31
0.0
  0
LINE
  5
71
330
1E
100
AcDbEntity
  8
0
100
AcDbLine
 10
101.5039999999999
 20
143.5839824999999
 30
0.0
 11
102.848
 21
146.9439825
 31
0.0
  0
LINE
  5
72
330
1E
100
AcDbEntity
  8
0
100
AcDbLine
 10
101.5039999999999
 20
143.5839824999999
 30
0.0
 11
102.848
 21
146.9439825
 31
0.0
  0
LINE
  5
73
330
1E
100
AcDbEntity
  8
0
100
AcDbLine
 10
55.0
 20
160.9999824999999
 30
0.0
 11
115.0
 21
160.9999824999999
 31
0.0
  0
LINE
  5
74
330
1E
100
AcDbEntity
  8
0
100
AcDbLine
 10
10.5
 20
209.9999825
 30
0.0
 11
11.5412
 21
209.9999825
 31
0.0
  0
LINE
  5
75
330
1E
100
AcDbEntity
  8
0
100
AcDbLine
 10
10.5
 20
209.9999825
 30
0.0
 11
10.5
 21
185.1539824999999
 31
0.0
  0
LINE
  5
76
330
1E
100
AcDbEntity
  8
0
100
AcDbLine
 10
27.02939999999999
 20
183.9999824999999
 30
0.0
 11
29.4118
 21
183.9999824999999
 31
0.0
  0
LINE
  5
77
330
1E
100
AcDbEntity
  8
0
100
AcDbLine
 10
25.52939999999999
 20
183.9999824999999
 30
0.0
 11
27.02939999999999
 21
183.9999824999999
 31
0.0
  0
LINE
  5
78
330
1E
100
AcDbEntity
  8
0
100
AcDbLine
 10
25.0
 20
183.9999824999999
 30
0.0
 11
25.0
 21
160.9999824999999
 31
0.0
  0
LINE
  5
79
330
1E
100
AcDbEntity
  8
0
100
AcDbLine
 10
25.0
 20
183.9999824999999
 30
0.0
 11
25.52939999999999
 21
183.9999824999999
 31
0.0
  0
LINE
  5
7A
330
1E
100
AcDbEntity
  8
0
100
AcDbLine
 10
29.4118
 20
183.9999824999999
 30
0.0
 11
32.5441
 21
183.9999824999999
 31
0.0
  0
LINE
  5
7B
330
1E
100
AcDbEntity
  8
0
100
AcDbLine
 10
32.5441
 20
183.9999824999999
 30
0.0
 11
36.16179999999999
 21
183.9999824999999
 31
0.0
  0
LINE
  5
7C
330
1E
100
AcDbEntity
  8
0
100
AcDbLine
 10
36.16179999999999
 20
183.9999824999999
 30
0.0
 11
40.0
 21
183.9999824999999
 31
0.0
  0
LINE
  5
7D
330
1E
100
AcDbEntity
  8
0
100
AcDbLine
 10
50.5882
 20
183.9999824999999
 30
0.0
 11
52.9706
 21
183.9999824999999
 31
0.0
  0
LINE
  5
7E
330
1E
100
AcDbEntity
  8
0
100
AcDbLine
 10
52.9706
 20
183.9999824999999
 30
0.0
 11
54.4706
 21
183.9999824999999
 31
0.0
  0
LINE
  5
7F
330
1E
100
AcDbEntity
  8
0
100
AcDbLine
 10
54.4706
 20
183.9999824999999
 30
0.0
 11
55.0
 21
183.9999824999999
 31
0.0
  0
LINE
  5
80
330
1E
100
AcDbEntity
  8
0
100
AcDbLine
 10
47.45589999999999
 20
183.9999824999999
 30
0.0
 11
50.5882
 21
183.9999824999999
 31
0.0
  0
LINE
  5
81
330
1E
100
AcDbEntity
  8
0
100
AcDbLine
 10
43.8382
 20
183.9999824999999
 30
0.0
 11
47.45589999999999
 21
183.9999824999999
 31
0.0
  0
LINE
  5
82
330
1E
100
AcDbEntity
  8
0
100
AcDbLine
 10
40.0
 20
183.9999824999999
 30
0.0
 11
43.8382
 21
183.9999824999999
 31
0.0
  0
LINE
  5
83
330
1E
100
AcDbEntity
  8
0
100
AcDbLine
 10
59.95589999999999
 20
183.9999824999999
 30
0.0
 11
64.38089999999999
 21
183.9999824999999
 31
0.0
  0
LINE
  5
84
330
1E
100
AcDbEntity
  8
0
100
AcDbLine
 10
64.38089999999999
 20
183.9999824999999
 30
0.0
 11
67.1574
 21
183.9999824999999
 31
0.0
  0
LINE
  5
85
330
1E
100
AcDbEntity
  8
0
100
AcDbLine
 10
68.19849999999999
 20
183.9999824999999
 30
0.0
 11
69.0662
 21
184.3849825
 31
0.0
  0
LINE
  5
86
330
1E
100
AcDbEntity
  8
0
100
AcDbLine
 10
67.1574
 20
183.9999824999999
 30
0.0
 11
68.19849999999999
 21
183.9999824999999
 31
0.0
  0
LINE
  5
87
330
1E
100
AcDbEntity
  8
0
100
AcDbLine
 10
55.0
 20
183.9999824999999
 30
0.0
 11
59.95589999999999
 21
183.9999824999999
 31
0.0
  0
LINE
  5
88
330
1E
100
AcDbEntity
  8
0
100
AcDbLine
 10
55.0
 20
183.9999824999999
 30
0.0
 11
55.0
 21
160.9999824999999
 31
0.0
  0
LINE
  5
89
330
1E
100
AcDbEntity
  8
0
100
AcDbLine
 10
20.0441
 20
183.9999824999999
 30
0.0
 11
25.0
 21
183.9999824999999
 31
0.0
  0
LINE
  5
8A
330
1E
100
AcDbEntity
  8
0
100
AcDbLine
 10
15.6191
 20
183.9999824999999
 30
0.0
 11
20.0441
 21
183.9999824999999
 31
0.0
  0
LINE
  5
8B
330
1E
100
AcDbEntity
  8
0
100
AcDbLine
 10
14.8382
 20
184.3849825
 30
0.0
 11
19.4368
 21
184.3849825
 31
0.0
  0
LINE
  5
8C
330
1E
100
AcDbEntity
  8
0
100
AcDbLine
 10
11.975
 20
184.3849825
 30
0.0
 11
14.8382
 21
184.3849825
 31
0.0
  0
LINE
  5
8D
330
1E
100
AcDbEntity
  8
0
100
AcDbLine
 10
19.4368
 20
184.3849825
 30
0.0
 11
25.5103
 21
184.3849825
 31
0.0
  0
LINE
  5
8E
330
1E
100
AcDbEntity
  8
0
100
AcDbLine
 10
25.5103
 20
184.3849825
 30
0.0
 11
32.5382
 21
184.3849825
 31
0.0
  0
LINE
  5
8F
330
1E
100
AcDbEntity
  8
0
100
AcDbLine
 10
32.5382
 20
184.3849825
 30
0.0
 11
40.0
 21
184.3849825
 31
0.0
  0
LINE
  5
90
330
1E
100
AcDbEntity
  8
0
100
AcDbLine
 10
60.5632
 20
184.3849825
 30
0.0
 11
65.1618
 21
184.3849825
 31
0.0
  0
LINE
  5
91
330
1E
100
AcDbEntity
  8
0
100
AcDbLine
 10
65.1618
 20
184.3849825
 30
0.0
 11
68.02500000000001
 21
184.3849825
 31
0.0
  0
LINE
  5
92
330
1E
100
AcDbEntity
  8
0
100
AcDbLine
 10
68.02500000000001
 20
184.3849825
 30
0.0
 11
69.0662
 21
184.3849825
 31
0.0
  0
LINE
  5
93
330
1E
100
AcDbEntity
  8
0
100
AcDbLine
 10
54.4897
 20
184.3849825
 30
0.0
 11
60.5632
 21
184.3849825
 31
0.0
  0
LINE
  5
94
330
1E
100
AcDbEntity
  8
0
100
AcDbLine
 10
47.46179999999998
 20
184.3849825
 30
0.0
 11
54.4897
 21
184.3849825
 31
0.0
  0
LINE
  5
95
330
1E
100
AcDbEntity
  8
0
100
AcDbLine
 10
40.0
 20
184.3849825
 30
0.0
 11
47.46179999999998
 21
184.3849825
 31
0.0
  0
LINE
  5
96
330
1E
100
AcDbEntity
  8
0
100
AcDbLine
 10
69.0662
 20
184.3849825
 30
0.0
 11
69.5
 21
185.1539824999999
 31
0.0
  0
LINE
  5
97
330
1E
100
AcDbEntity
  8
0
100
AcDbLine
 10
12.8427
 20
183.9999824999999
 30
0.0
 11
15.6191
 21
183.9999824999999
 31
0.0
  0
LINE
  5
98
330
1E
100
AcDbEntity
  8
0
100
AcDbLine
 10
11.8015
 20
183.9999824999999
 30
0.0
 11
12.8427
 21
183.9999824999999
 31
0.0
  0
LINE
  5
99
330
1E
100
AcDbEntity
  8
0
100
AcDbLine
 10
14.49119999999999
 20
209.9999825
 30
0.0
 11
19.1765
 21
209.9999825
 31
0.0
  0
LINE
  5
9A
330
1E
100
AcDbEntity
  8
0
100
AcDbLine
 10
11.5412
 20
209.9999825
 30
0.0
 11
14.49119999999999
 21
209.9999825
 31
0.0
  0
LINE
  5
9B
330
1E
100
AcDbEntity
  8
0
100
AcDbLine
 10
19.1765
 20
209.9999825
 30
0.0
 11
25.3368
 21
209.9999825
 31
0.0
  0
LINE
  5
9C
330
1E
100
AcDbEntity
  8
0
100
AcDbLine
 10
25.3368
 20
209.9999825
 30
0.0
 11
32.4515
 21
209.9999825
 31
0.0
  0
LINE
  5
9D
330
1E
100
AcDbEntity
  8
0
100
AcDbLine
 10
32.4515
 20
209.9999825
 30
0.0
 11
40.0
 21
209.9999825
 31
0.0
  0
LINE
  5
9E
330
1E
100
AcDbEntity
  8
0
100
AcDbLine
 10
40.0
 20
209.9999825
 30
0.0
 11
47.5485
 21
209.9999825
 31
0.0
  0
LINE
  5
9F
330
1E
100
AcDbEntity
  8
0
100
AcDbLine
 10
69.5
 20
185.1539824999999
 30
0.0
 11
69.5
 21
209.9999825
 31
0.0
  0
LINE
  5
A0
330
1E
100
AcDbEntity
  8
0
100
AcDbLine
 10
60.8235
 20
209.9999825
 30
0.0
 11
65.50879999999999
 21
209.9999825
 31
0.0
  0
LINE
  5
A1
330
1E
100
AcDbEntity
  8
0
100
AcDbLine
 10
65.50879999999999
 20
209.9999825
 30
0.0
 11
68.4588
 21
209.9999825
 31
0.0
  0
LINE
  5
A2
330
1E
100
AcDbEntity
  8
0
100
AcDbLine
 10
68.4588
 20
209.9999825
 30
0.0
 11
69.5
 21
209.9999825
 31
0.0
  0
LINE
  5
A3
330
1E
100
AcDbEntity
  8
0
100
AcDbLine
 10
54.6632
 20
209.9999825
 30
0.0
 11
60.8235
 21
209.9999825
 31
0.0
  0
LINE
  5
A4
330
1E
100
AcDbEntity
  8
0
100
AcDbLine
 10
47.5485
 20
209.9999825
 30
0.0
 11
54.6632
 21
209.9999825
 31
0.0
  0
LINE
  5
A5
330
1E
100
AcDbEntity
  8
0
100
AcDbLine
 10
69.5
 20
209.9999825
 30
0.0
 11
69.5
 21
185.1539824999999
 31
0.0
  0
LINE
  5
A6
330
1E
100
AcDbEntity
  8
0
100
AcDbLine
 10
10.9338
 20
184.3849825
 30
0.0
 11
11.8015
 21
183.9999824999999
 31
0.0
  0
LINE
  5
A7
330
1E
100
AcDbEntity
  8
0
100
AcDbLine
 10
10.9338
 20
184.3849825
 30
0.0
 11
11.975
 21
184.3849825
 31
0.0
  0
LINE
  5
A8
330
1E
100
AcDbEntity
  8
0
100
AcDbLine
 10
10.5
 20
185.1539824999999
 30
0.0
 11
10.5
 21
209.9999825
 31
0.0
  0
LINE
  5
A9
330
1E
100
AcDbEntity
  8
0
100
AcDbLine
 10
10.5
 20
185.1539824999999
 30
0.0
 11
10.9338
 21
184.3849825
 31
0.0
  0
LINE
  5
AA
330
1E
100
AcDbEntity
  8
0
100
AcDbLine
 10
55.0
 20
160.9999824999999
 30
0.0
 11
115.0
 21
160.9999824999999
 31
0.0
  0
LINE
  5
AB
330
1E
100
AcDbEntity
  8
0
100
AcDbLine
 10
55.0
 20
160.9999824999999
 30
0.0
 11
55.0
 21
183.9999824999999
 31
0.0
  0
LINE
  5
AC
330
1E
100
AcDbEntity
  8
0
100
AcDbLine
 10
0.9782610000000071
 20
160.9999824999999
 30
0.0
 11
25.0
 21
160.9999824999999
 31
0.0
  0
LINE
  5
AD
330
1E
100
AcDbEntity
  8
0
100
AcDbLine
 10
102.0
 20
43.6396825
 30
0.0
 11
102.0
 21
118.9999825
 31
0.0
  0
LINE
  5
AE
330
1E
100
AcDbEntity
  8
0
100
AcDbLine
 10
102.0
 20
43.6396825
 30
0.0
 11
102.0
 21
39.33228249999999
 31
0.0
  0
LINE
  5
AF
330
1E
100
AcDbEntity
  8
0
100
AcDbLine
 10
102.0
 20
15.0142825
 30
0.0
 11
102.4679999999999
 21
11.9395825
 31
0.0
  0
LINE
  5
B0
330
1E
100
AcDbEntity
  8
0
100
AcDbLine
 10
102.0
 20
15.0142825
 30
0.0
 11
102.0
 21
12.0104825
 31
0.0
  0
LINE
  5
B1
330
1E
100
AcDbEntity
  8
0
100
AcDbLine
 10
102.0
 20
15.0142825
 30
0.0
 11
102.019414697608
 21
15.1418304257802
 31
0.0
  0
LINE
  5
B2
330
1E
100
AcDbEntity
  8
0
100
AcDbLine
 10
102.0
 20
12.0104825
 30
0.0
 11
102.4999999999999
 21
8.961652499999997
 31
0.0
  0
LINE
  5
B3
330
1E
100
AcDbEntity
  8
0
100
AcDbLine
 10
102.0
 20
12.0104825
 30
0.0
 11
102.0
 21
15.0142825
 31
0.0
  0
LINE
  5
B4
330
1E
100
AcDbEntity
  8
0
100
AcDbLine
 10
115.0
 20
0.0000174999999979
 30
0.0
 11
118.3
 21
0.4619564999999981
 31
0.0
  0
LINE
  5
B5
330
1E
100
AcDbEntity
  8
0
100
AcDbLine
 10
115.0
 20
0.0000174999999979
 30
0.0
 11
118.3
 21
0.4619564999999981
 31
0.0
  0
LINE
  5
B6
330
1E
100
AcDbEntity
  8
0
100
AcDbLine
 10
118.3
 20
0.4619564999999981
 30
0.0
 11
121.5
 21
1.5706125
 31
0.0
  0
LINE
  5
B7
330
1E
100
AcDbEntity
  8
0
100
AcDbLine
 10
121.5
 20
1.5706125
 30
0.0
 11
124.1999999999999
 21
3.510762499999998
 31
0.0
  0
LINE
  5
B8
330
1E
100
AcDbEntity
  8
0
100
AcDbLine
 10
115.0
 20
3.0038225
 30
0.0
 11
118.3279999999998
 21
3.4361925
 31
0.0
  0
LINE
  5
B9
330
1E
100
AcDbEntity
  8
0
100
AcDbLine
 10
118.3279999999998
 20
3.4361925
 30
0.0
 11
121.448
 21
4.5891925
 31
0.0
  0
LINE
  5
BA
330
1E
100
AcDbEntity
  8
0
100
AcDbLine
 10
115.0
 20
3.258942499999998
 30
0.0
 11
118.3279999999998
 21
3.691312499999998
 31
0.0
  0
LINE
  5
BB
330
1E
100
AcDbEntity
  8
0
100
AcDbLine
 10
111.6999999999999
 20
0.4619564999999981
 30
0.0
 11
115.0
 21
0.0000174999999979
 31
0.0
  0
LINE
  5
BC
330
1E
100
AcDbEntity
  8
0
100
AcDbLine
 10
111.6999999999999
 20
0.4619564999999981
 30
0.0
 11
115.0
 21
0.0000174999999979
 31
0.0
  0
LINE
  5
BD
330
1E
100
AcDbEntity
  8
0
100
AcDbLine
 10
124.1999999999999
 20
3.510762499999998
 30
0.0
 11
126.2999999999999
 21
6.005232499999999
 31
0.0
  0
LINE
  5
BE
330
1E
100
AcDbEntity
  8
0
100
AcDbLine
 10
111.672
 20
3.4361925
 30
0.0
 11
115.0
 21
3.0038225
 31
0.0
  0
LINE
  5
BF
330
1E
100
AcDbEntity
  8
0
100
AcDbLine
 10
108.4999999999999
 20
1.5706125
 30
0.0
 11
111.6999999999999
 21
0.4619564999999981
 31
0.0
  0
LINE
  5
C0
330
1E
100
AcDbEntity
  8
0
100
AcDbLine
 10
105.796
 20
6.765982499999998
 30
0.0
 11
108.552
 21
4.8443125
 31
0.0
  0
LINE
  5
C1
330
1E
100
AcDbEntity
  8
0
100
AcDbLine
 10
121.448
 20
4.5891925
 30
0.0
 11
124.204
 21
6.510862499999999
 31
0.0
  0
LINE
  5
C2
330
1E
100
AcDbEntity
  8
0
100
AcDbLine
 10
118.3279999999998
 20
3.691312499999998
 30
0.0
 11
121.448
 21
4.8443125
 31
0.0
  0
LINE
  5
C3
330
1E
100
AcDbEntity
  8
0
100
AcDbLine
 10
111.672
 20
3.691312499999998
 30
0.0
 11
115.0
 21
3.258942499999998
 31
0.0
  0
LINE
  5
C4
330
1E
100
AcDbEntity
  8
0
100
AcDbLine
 10
126.2999999999999
 20
6.005232499999999
 30
0.0
 11
127.5
 21
8.961652499999997
 31
0.0
  0
LINE
  5
C5
330
1E
100
AcDbEntity
  8
0
100
AcDbLine
 10
124.204
 20
6.510862499999999
 30
0.0
 11
126.2839999999999
 21
9.0570725
 31
0.0
  0
LINE
  5
C6
330
1E
100
AcDbEntity
  8
0
100
AcDbLine
 10
121.448
 20
4.8443125
 30
0.0
 11
124.204
 21
6.765982499999998
 31
0.0
  0
LINE
  5
C7
330
1E
100
AcDbEntity
  8
0
100
AcDbLine
 10
127.5
 20
8.961652499999997
 30
0.0
 11
128.0
 21
12.0104825
 31
0.0
  0
LINE
  5
C8
330
1E
100
AcDbEntity
  8
0
100
AcDbLine
 10
124.204
 20
6.765982499999998
 30
0.0
 11
126.2839999999999
 21
9.3121925
 31
0.0
  0
LINE
  5
C9
330
1E
100
AcDbEntity
  8
0
100
AcDbLine
 10
108.552
 20
4.8443125
 30
0.0
 11
111.672
 21
3.691312499999998
 31
0.0
  0
LINE
  5
CA
330
1E
100
AcDbEntity
  8
0
100
AcDbLine
 10
108.552
 20
4.5891925
 30
0.0
 11
111.672
 21
3.4361925
 31
0.0
  0
LINE
  5
CB
330
1E
100
AcDbEntity
  8
0
100
AcDbLine
 10
105.796
 20
6.510862499999999
 30
0.0
 11
108.552
 21
4.5891925
 31
0.0
  0
LINE
  5
CC
330
1E
100
AcDbEntity
  8
0
100
AcDbLine
 10
105.8
 20
3.510762499999998
 30
0.0
 11
108.4999999999999
 21
1.5706125
 31
0.0
  0
LINE
  5
CD
330
1E
100
AcDbEntity
  8
0
100
AcDbLine
 10
103.7
 20
6.005232499999999
 30
0.0
 11
105.8
 21
3.510762499999998
 31
0.0
  0
LINE
  5
CE
330
1E
100
AcDbEntity
  8
0
100
AcDbLine
 10
102.4679999999999
 20
12.1946825
 30
0.0
 11
103.716
 21
9.3121925
 31
0.0
  0
LINE
  5
CF
330
1E
100
AcDbEntity
  8
0
100
AcDbLine
 10
126.2839999999999
 20
9.0570725
 30
0.0
 11
127.532
 21
11.9395825
 31
0.0
  0
LINE
  5
D0
330
1E
100
AcDbEntity
  8
0
100
AcDbLine
 10
103.184
 20
133.2239825
 30
0.0
 11
105.3679999999999
 21
130.3679824999999
 31
0.0
  0
LINE
  5
D1
330
1E
100
AcDbEntity
  8
0
100
AcDbLine
 10
102.848
 20
133.0559824999999
 30
0.0
 11
105.088
 21
130.0879824999998
 31
0.0
  0
LINE
  5
D2
330
1E
100
AcDbEntity
  8
0
100
AcDbLine
 10
103.184
 20
146.7759824999999
 30
0.0
 11
105.3679999999999
 21
149.6319825
 31
0.0
  0
LINE
  5
D3
330
1E
100
AcDbEntity
  8
0
100
AcDbLine
 10
102.848
 20
146.9439825
 30
0.0
 11
105.088
 21
149.9119825
 31
0.0
  0
LINE
  5
D4
330
1E
100
AcDbEntity
  8
0
100
AcDbLine
 10
127.532
 20
11.9395825
 30
0.0
 11
128.0
 21
15.0142825
 31
0.0
  0
LINE
  5
D5
330
1E
100
AcDbEntity
  8
0
100
AcDbLine
 10
126.2839999999999
 20
9.3121925
 30
0.0
 11
127.532
 21
12.1946825
 31
0.0
  0
LINE
  5
D6
330
1E
100
AcDbEntity
  8
0
100
AcDbLine
 10
128.0
 20
12.0104825
 30
0.0
 11
128.0
 21
15.0142825
 31
0.0
  0
LINE
  5
D7
330
1E
100
AcDbEntity
  8
0
100
AcDbLine
 10
128.0
 20
15.2693825
 30
0.0
 11
128.0
 21
17.4589825
 31
0.0
  0
LINE
  5
D8
330
1E
100
AcDbEntity
  8
0
100
AcDbLine
 10
128.0
 20
15.0142825
 30
0.0
 11
128.0
 21
12.0104825
 31
0.0
  0
LINE
  5
D9
330
1E
100
AcDbEntity
  8
0
100
AcDbLine
 10
127.980585302392
 20
15.1418304257802
 30
0.0
 11
128.0
 21
15.0142825
 31
0.0
  0
LINE
  5
DA
330
1E
100
AcDbEntity
  8
0
100
AcDbLine
 10
128.0
 20
20.3051825
 30
0.0
 11
128.0
 21
23.5505825
 31
0.0
  0
LINE
  5
DB
330
1E
100
AcDbEntity
  8
0
100
AcDbLine
 10
128.0
 20
20.3051825
 30
0.0
 11
128.0
 21
17.4589825
 31
0.0
  0
LINE
  5
DC
330
1E
100
AcDbEntity
  8
0
100
AcDbLine
 10
128.0
 20
17.4589825
 30
0.0
 11
128.0
 21
15.2693825
 31
0.0
  0
LINE
  5
DD
330
1E
100
AcDbEntity
  8
0
100
AcDbLine
 10
128.0
 20
17.4589825
 30
0.0
 11
128.0
 21
20.3051825
 31
0.0
  0
LINE
  5
DE
330
1E
100
AcDbEntity
  8
0
100
AcDbLine
 10
127.532
 20
12.1946825
 30
0.0
 11
128.0
 21
15.2693825
 31
0.0
  0
LINE
  5
DF
330
1E
100
AcDbEntity
  8
0
100
AcDbLine
 10
128.0
 20
27.1396825
 30
0.0
 11
128.0
 21
23.5505825
 31
0.0
  0
LINE
  5
E0
330
1E
100
AcDbEntity
  8
0
100
AcDbLine
 10
128.0
 20
27.1396825
 30
0.0
 11
128.0
 21
31.0110825
 31
0.0
  0
LINE
  5
E1
330
1E
100
AcDbEntity
  8
0
100
AcDbLine
 10
128.0
 20
23.5505825
 30
0.0
 11
128.0
 21
20.3051825
 31
0.0
  0
LINE
  5
E2
330
1E
100
AcDbEntity
  8
0
100
AcDbLine
 10
128.0
 20
23.5505825
 30
0.0
 11
128.0
 21
27.1396825
 31
0.0
  0
LINE
  5
E3
330
1E
100
AcDbEntity
  8
0
100
AcDbLine
 10
128.0
 20
31.0110825
 30
0.0
 11
128.0
 21
27.1396825
 31
0.0
  0
LINE
  5
E4
330
1E
100
AcDbEntity
  8
0
100
AcDbLine
 10
128.0
 20
31.0110825
 30
0.0
 11
128.0
 21
35.0986825
 31
0.0
  0
LINE
  5
E5
330
1E
100
AcDbEntity
  8
0
100
AcDbLine
 10
128.0
 20
39.33228249999999
 30
0.0
 11
128.0
 21
43.6396825
 31
0.0
  0
LINE
  5
E6
330
1E
100
AcDbEntity
  8
0
100
AcDbLine
 10
128.0
 20
39.33228249999999
 30
0.0
 11
128.0
 21
35.0986825
 31
0.0
  0
LINE
  5
E7
330
1E
100
AcDbEntity
  8
0
100
AcDbLine
 10
128.0
 20
35.0986825
 30
0.0
 11
128.0
 21
39.33228249999999
 31
0.0
  0
LINE
  5
E8
330
1E
100
AcDbEntity
  8
0
100
AcDbLine
 10
128.0
 20
35.0986825
 30
0.0
 11
128.0
 21
31.0110825
 31
0.0
  0
LINE
  5
E9
330
1E
100
AcDbEntity
  8
0
100
AcDbLine
 10
128.0
 20
43.6396825
 30
0.0
 11
128.0
 21
118.9999825
 31
0.0
  0
LINE
  5
EA
330
1E
100
AcDbEntity
  8
0
100
AcDbLine
 10
128.0
 20
43.6396825
 30
0.0
 11
128.0
 21
39.33228249999999
 31
0.0
  0
LINE
  5
EB
330
1E
100
AcDbEntity
  8
0
100
AcDbLine
 10
265.7579999999999
 20
62.34008249999998
 30
0.0
 11
266.0
 21
62.8501825
 31
0.0
  0
LINE
  5
ED
330
1E
100
AcDbEntity
  8
0
100
AcDbLine
 10
265.3939999999999
 20
61.9999825
 30
0.0
 11
265.7579999999999
 21
62.34008249999998
 31
0.0
  0
LINE
  5
EE
330
1E
100
AcDbEntity
  8
0
100
AcDbLine
 10
263.5759999999998
 20
61.9999825
 30
0.0
 11
265.3939999999999
 21
61.9999825
 31
0.0
  0
LINE
  5
F2
330
1E
100
AcDbEntity
  8
0
100
AcDbLine
 10
263.212
 20
62.51008249999999
 30
0.0
 11
263.5759999999998
 21
61.9999825
 31
0.0
  0
LINE
  5
F5
330
1E
100
AcDbEntity
  8
0
100
AcDbLine
 10
250.7159999999999
 20
118.0289825
 30
0.0
 11
253.242
 21
116.6409824999999
 31
0.0
  0
LINE
  5
F6
330
1E
100
AcDbEntity
  8
0
100
AcDbLine
 10
253.242
 20
116.6409824999999
 30
0.0
 11
256.1269999999999
 21
114.3499824999999
 31
0.0
  0
LINE
  5
F7
330
1E
100
AcDbEntity
  8
0
100
AcDbLine
 10
229.022
 20
118.9999825
 30
0.0
 11
229.674
 21
119.3089824999999
 31
0.0
  0
LINE
  5
F8
330
1E
100
AcDbEntity
  8
0
100
AcDbLine
 10
128.0
 20
118.9999825
 30
0.0
 11
229.022
 21
118.9999825
 31
0.0
  0
LINE
  5
F9
330
1E
100
AcDbEntity
  8
0
100
AcDbLine
 10
128.0
 20
118.9999825
 30
0.0
 11
128.0
 21
43.6396825
 31
0.0
  0
LINE
  5
FA
330
1E
100
AcDbEntity
  8
0
100
AcDbLine
 10
230.0
 20
119.9259824999999
 30
0.0
 11
230.0
 21
120.6679824999999
 31
0.0
  0
LINE
  5
FB
330
1E
100
AcDbEntity
  8
0
100
AcDbLine
 10
229.674
 20
120.0499825
 30
0.0
 11
229.674
 21
122.0879824999999
 31
0.0
  0
LINE
  5
FC
330
1E
100
AcDbEntity
  8
0
100
AcDbLine
 10
229.674
 20
120.0499825
 30
0.0
 11
229.674
 21
119.3089824999999
 31
0.0
  0
LINE
  5
FD
330
1E
100
AcDbEntity
  8
0
100
AcDbLine
 10
229.674
 20
119.3089824999999
 30
0.0
 11
230.0
 21
119.9259824999999
 31
0.0
  0
LINE
  5
FE
330
1E
100
AcDbEntity
  8
0
100
AcDbLine
 10
229.674
 20
119.3089824999999
 30
0.0
 11
229.674
 21
120.0499825
 31
0.0
  0
LINE
  5
FF
330
1E
100
AcDbEntity
  8
0
100
AcDbLine
 10
232.857
 20
120.1779825
 30
0.0
 11
233.0
 21
120.1925327499999
 31
0.0
  0
LINE
  5
100
330
1E
100
AcDbEntity
  8
0
100
AcDbLine
 10
230.0
 20
120.1779825
 30
0.0
 11
232.857
 21
120.1779825
 31
0.0
  0
LINE
  5
101
330
1E
100
AcDbEntity
  8
0
100
AcDbLine
 10
230.0
 20
120.6679824999999
 30
0.0
 11
230.0
 21
122.6439824999999
 31
0.0
  0
LINE
  5
102
330
1E
100
AcDbEntity
  8
0
100
AcDbLine
 10
230.0
 20
120.6679824999999
 30
0.0
 11
230.0
 21
119.9259824999999
 31
0.0
  0
LINE
  5
103
330
1E
100
AcDbEntity
  8
0
100
AcDbLine
 10
233.0
 20
120.1925327499999
 30
0.0
 11
233.0
 21
119.8279824999999
 31
0.0
  0
LINE
  5
104
330
1E
100
AcDbEntity
  8
0
100
AcDbLine
 10
233.0
 20
119.8279824999999
 30
0.0
 11
233.0
 21
121.8259825
 31
0.0
  0
LINE
  5
105
330
1E
100
AcDbEntity
  8
0
100
AcDbLine
 10
233.0
 20
119.8279824999999
 30
0.0
 11
233.0
 21
119.0279824999999
 31
0.0
  0
LINE
  5
106
330
1E
100
AcDbEntity
  8
0
100
AcDbLine
 10
233.0
 20
119.0279824999999
 30
0.0
 11
233.0
 21
119.8279824999999
 31
0.0
  0
LINE
  5
107
330
1E
100
AcDbEntity
  8
0
100
AcDbLine
 10
233.0
 20
119.0279824999999
 30
0.0
 11
247.053
 21
119.0279824999999
 31
0.0
  0
LINE
  5
108
330
1E
100
AcDbEntity
  8
0
100
AcDbLine
 10
247.053
 20
119.0279824999999
 30
0.0
 11
248.3159999999999
 21
118.8279824999999
 31
0.0
  0
LINE
  5
109
330
1E
100
AcDbEntity
  8
0
100
AcDbLine
 10
248.3159999999999
 20
118.8279824999999
 30
0.0
 11
250.7159999999999
 21
118.0289825
 31
0.0
  0
LINE
  5
10B
330
1E
100
AcDbEntity
  8
0
100
AcDbLine
 10
230.0
 20
122.6439824999999
 30
0.0
 11
230.0
 21
125.7939825
 31
0.0
  0
LINE
  5
10C
330
1E
100
AcDbEntity
  8
0
100
AcDbLine
 10
230.0
 20
122.6439824999999
 30
0.0
 11
230.0
 21
120.6679824999999
 31
0.0
  0
LINE
  5
10D
330
1E
100
AcDbEntity
  8
0
100
AcDbLine
 10
229.674
 20
122.0879824999999
 30
0.0
 11
229.674
 21
125.3619824999999
 31
0.0
  0
LINE
  5
10E
330
1E
100
AcDbEntity
  8
0
100
AcDbLine
 10
229.674
 20
122.0879824999999
 30
0.0
 11
229.674
 21
120.0499825
 31
0.0
  0
LINE
  5
10F
330
1E
100
AcDbEntity
  8
0
100
AcDbLine
 10
105.3679999999999
 20
130.3679824999999
 30
0.0
 11
108.2239999999998
 21
128.1839824999998
 31
0.0
  0
LINE
  5
110
330
1E
100
AcDbEntity
  8
0
100
AcDbLine
 10
108.2239999999998
 20
128.1839824999998
 30
0.0
 11
111.472
 21
126.8399824999999
 31
0.0
  0
LINE
  5
111
330
1E
100
AcDbEntity
  8
0
100
AcDbLine
 10
105.088
 20
130.0879824999998
 30
0.0
 11
108.0559999999999
 21
127.8479825
 31
0.0
  0
LINE
  5
112
330
1E
100
AcDbEntity
  8
0
100
AcDbLine
 10
108.0559999999999
 20
127.8479825
 30
0.0
 11
111.416
 21
126.5039824999999
 31
0.0
  0
LINE
  5
113
330
1E
100
AcDbEntity
  8
0
100
AcDbLine
 10
118.5279999999998
 20
126.8399824999999
 30
0.0
 11
121.776
 21
128.1839824999998
 31
0.0
  0
LINE
  5
114
330
1E
100
AcDbEntity
  8
0
100
AcDbLine
 10
115.0
 20
126.3359824999999
 30
0.0
 11
118.5279999999998
 21
126.8399824999999
 31
0.0
  0
LINE
  5
115
330
1E
100
AcDbEntity
  8
0
100
AcDbLine
 10
115.0
 20
125.9999824999999
 30
0.0
 11
118.5839999999999
 21
126.5039824999999
 31
0.0
  0
LINE
  5
116
330
1E
100
AcDbEntity
  8
0
100
AcDbLine
 10
118.5839999999999
 20
126.5039824999999
 30
0.0
 11
121.944
 21
127.8479825
 31
0.0
  0
LINE
  5
117
330
1E
100
AcDbEntity
  8
0
100
AcDbLine
 10
124.632
 20
130.3679824999999
 30
0.0
 11
126.8159999999999
 21
133.2239825
 31
0.0
  0
LINE
  5
118
330
1E
100
AcDbEntity
  8
0
100
AcDbLine
 10
121.776
 20
128.1839824999998
 30
0.0
 11
124.632
 21
130.3679824999999
 31
0.0
  0
LINE
  5
119
330
1E
100
AcDbEntity
  8
0
100
AcDbLine
 10
121.944
 20
127.8479825
 30
0.0
 11
124.912
 21
130.0879824999998
 31
0.0
  0
LINE
  5
11A
330
1E
100
AcDbEntity
  8
0
100
AcDbLine
 10
126.8159999999999
 20
133.2239825
 30
0.0
 11
128.16
 21
136.4719824999999
 31
0.0
  0
LINE
  5
11B
330
1E
100
AcDbEntity
  8
0
100
AcDbLine
 10
127.1519999999999
 20
133.0559824999999
 30
0.0
 11
128.496
 21
136.4159824999999
 31
0.0
  0
LINE
  5
11C
330
1E
100
AcDbEntity
  8
0
100
AcDbLine
 10
124.912
 20
130.0879824999998
 30
0.0
 11
127.1519999999999
 21
133.0559824999999
 31
0.0
  0
LINE
  5
11D
330
1E
100
AcDbEntity
  8
0
100
AcDbLine
 10
111.472
 20
126.8399824999999
 30
0.0
 11
115.0
 21
126.3359824999999
 31
0.0
  0
LINE
  5
11E
330
1E
100
AcDbEntity
  8
0
100
AcDbLine
 10
111.416
 20
126.5039824999999
 30
0.0
 11
115.0
 21
125.9999824999999
 31
0.0
  0
LINE
  5
11F
330
1E
100
AcDbEntity
  8
0
100
AcDbLine
 10
229.674
 20
125.3619824999999
 30
0.0
 11
229.674
 21
129.6849825
 31
0.0
  0
LINE
  5
120
330
1E
100
AcDbEntity
  8
0
100
AcDbLine
 10
229.674
 20
125.3619824999999
 30
0.0
 11
229.674
 21
122.0879824999999
 31
0.0
  0
LINE
  5
121
330
1E
100
AcDbEntity
  8
0
100
AcDbLine
 10
230.0
 20
129.9939824999998
 30
0.0
 11
230.0
 21
125.7939825
 31
0.0
  0
LINE
  5
122
330
1E
100
AcDbEntity
  8
0
100
AcDbLine
 10
230.0
 20
125.7939825
 30
0.0
 11
230.0
 21
134.8119824999999
 31
0.0
  0
LINE
  5
123
330
1E
100
AcDbEntity
  8
0
100
AcDbLine
 10
230.0
 20
125.7939825
 30
0.0
 11
230.0
 21
122.6439824999999
 31
0.0
  0
LINE
  5
124
330
1E
100
AcDbEntity
  8
0
100
AcDbLine
 10
229.674
 20
129.6849825
 30
0.0
 11
229.674
 21
134.6879825
 31
0.0
  0
LINE
  5
125
330
1E
100
AcDbEntity
  8
0
100
AcDbLine
 10
229.674
 20
129.6849825
 30
0.0
 11
229.674
 21
125.3619824999999
 31
0.0
  0
LINE
  5
126
330
1E
100
AcDbEntity
  8
0
100
AcDbLine
 10
128.16
 20
136.4719824999999
 30
0.0
 11
128.664
 21
139.9999824999998
 31
0.0
  0
LINE
  5
127
330
1E
100
AcDbEntity
  8
0
100
AcDbLine
 10
128.496
 20
136.4159824999999
 30
0.0
 11
129.0
 21
139.9999824999998
 31
0.0
  0
LINE
  5
128
330
1E
100
AcDbEntity
  8
0
100
AcDbLine
 10
229.674
 20
139.9999824999998
 30
0.0
 11
229.674
 21
134.6879825
 31
0.0
  0
LINE
  5
129
330
1E
100
AcDbEntity
  8
0
100
AcDbLine
 10
229.674
 20
139.9999824999998
 30
0.0
 11
229.674
 21
145.3119824999999
 31
0.0
  0
LINE
  5
12A
330
1E
100
AcDbEntity
  8
0
100
AcDbLine
 10
230.0
 20
139.9999824999998
 30
0.0
 11
230.0
 21
134.8119824999999
 31
0.0
  0
LINE
  5
12B
330
1E
100
AcDbEntity
  8
0
100
AcDbLine
 10
230.0
 20
139.9999824999998
 30
0.0
 11
230.0
 21
145.1879824999999
 31
0.0
  0
LINE
  5
12C
330
1E
100
AcDbEntity
  8
0
100
AcDbLine
 10
230.0
 20
134.8119824999999
 30
0.0
 11
230.0
 21
139.9999824999998
 31
0.0
  0
LINE
  5
12D
330
1E
100
AcDbEntity
  8
0
100
AcDbLine
 10
229.674
 20
134.6879825
 30
0.0
 11
229.674
 21
139.9999824999998
 31
0.0
  0
LINE
  5
12E
330
1E
100
AcDbEntity
  8
0
100
AcDbLine
 10
229.674
 20
134.6879825
 30
0.0
 11
229.674
 21
129.6849825
 31
0.0
  0
LINE
  5
12F
330
1E
100
AcDbEntity
  8
0
100
AcDbLine
 10
233.0
 20
134.6179824999998
 30
0.0
 11
233.0
 21
140.0139824999999
 31
0.0
  0
LINE
  5
130
330
1E
100
AcDbEntity
  8
0
100
AcDbLine
 10
233.0
 20
129.6209825
 30
0.0
 11
233.0
 21
134.6179824999998
 31
0.0
  0
LINE
  5
131
330
1E
100
AcDbEntity
  8
0
100
AcDbLine
 10
233.0
 20
125.2239824999999
 30
0.0
 11
233.0
 21
129.6209825
 31
0.0
  0
LINE
  5
132
330
1E
100
AcDbEntity
  8
0
100
AcDbLine
 10
233.0
 20
121.8259825
 30
0.0
 11
233.0
 21
125.2239824999999
 31
0.0
  0
LINE
  5
133
330
1E
100
AcDbEntity
  8
0
100
AcDbLine
 10
126.8159999999999
 20
146.7759824999999
 30
0.0
 11
128.16
 21
143.5279825
 31
0.0
  0
LINE
  5
134
330
1E
100
AcDbEntity
  8
0
100
AcDbLine
 10
124.632
 20
149.6319825
 30
0.0
 11
126.8159999999999
 21
146.7759824999999
 31
0.0
  0
LINE
  5
135
330
1E
100
AcDbEntity
  8
0
100
AcDbLine
 10
127.1519999999999
 20
146.9439825
 30
0.0
 11
128.496
 21
143.5839824999999
 31
0.0
  0
LINE
  5
136
330
1E
100
AcDbEntity
  8
0
100
AcDbLine
 10
128.16
 20
143.5279825
 30
0.0
 11
128.664
 21
139.9999824999998
 31
0.0
  0
LINE
  5
137
330
1E
100
AcDbEntity
  8
0
100
AcDbLine
 10
128.496
 20
143.5839824999999
 30
0.0
 11
129.0
 21
139.9999824999998
 31
0.0
  0
LINE
  5
138
330
1E
100
AcDbEntity
  8
0
100
AcDbLine
 10
127.1519999999999
 20
146.9439825
 30
0.0
 11
128.496
 21
143.5839824999999
 31
0.0
  0
LINE
  5
139
330
1E
100
AcDbEntity
  8
0
100
AcDbLine
 10
124.912
 20
149.9119825
 30
0.0
 11
127.1519999999999
 21
146.9439825
 31
0.0
  0
LINE
  5
13A
330
1E
100
AcDbEntity
  8
0
100
AcDbLine
 10
105.3679999999999
 20
149.6319825
 30
0.0
 11
108.2239999999998
 21
151.8159824999998
 31
0.0
  0
LINE
  5
13B
330
1E
100
AcDbEntity
  8
0
100
AcDbLine
 10
105.088
 20
149.9119825
 30
0.0
 11
108.0559999999999
 21
152.1519825
 31
0.0
  0
LINE
  5
13C
330
1E
100
AcDbEntity
  8
0
100
AcDbLine
 10
229.674
 20
150.3149824999999
 30
0.0
 11
229.674
 21
154.6379824999999
 31
0.0
  0
LINE
  5
13D
330
1E
100
AcDbEntity
  8
0
100
AcDbLine
 10
229.674
 20
150.3149824999999
 30
0.0
 11
229.674
 21
145.3119824999999
 31
0.0
  0
LINE
  5
13E
330
1E
100
AcDbEntity
  8
0
100
AcDbLine
 10
230.0
 20
150.0059824999999
 30
0.0
 11
230.0
 21
145.1879824999999
 31
0.0
  0
LINE
  5
13F
330
1E
100
AcDbEntity
  8
0
100
AcDbLine
 10
230.0
 20
145.1879824999999
 30
0.0
 11
230.0
 21
159.2989825
 31
0.0
  0
LINE
  5
140
330
1E
100
AcDbEntity
  8
0
100
AcDbLine
 10
230.0
 20
145.1879824999999
 30
0.0
 11
230.0
 21
139.9999824999998
 31
0.0
  0
LINE
  5
141
330
1E
100
AcDbEntity
  8
0
100
AcDbLine
 10
229.674
 20
145.3119824999999
 30
0.0
 11
229.674
 21
150.3149824999999
 31
0.0
  0
LINE
  5
142
330
1E
100
AcDbEntity
  8
0
100
AcDbLine
 10
229.674
 20
145.3119824999999
 30
0.0
 11
229.674
 21
139.9999824999998
 31
0.0
  0
LINE
  5
143
330
1E
100
AcDbEntity
  8
0
100
AcDbLine
 10
233.0
 20
140.0139824999999
 30
0.0
 11
234.0549999999999
 21
145.4399824999998
 31
0.0
  0
LINE
  5
144
330
1E
100
AcDbEntity
  8
0
100
AcDbLine
 10
234.0549999999999
 20
145.4399824999998
 30
0.0
 11
234.962
 21
150.3849825
 31
0.0
  0
LINE
  5
145
330
1E
100
AcDbEntity
  8
0
100
AcDbLine
 10
108.2239999999998
 20
151.8159824999998
 30
0.0
 11
111.472
 21
153.1599824999998
 31
0.0
  0
LINE
  5
146
330
1E
100
AcDbEntity
  8
0
100
AcDbLine
 10
108.0559999999999
 20
152.1519825
 30
0.0
 11
111.416
 21
153.4959825
 31
0.0
  0
LINE
  5
147
330
1E
100
AcDbEntity
  8
0
100
AcDbLine
 10
121.776
 20
151.8159824999998
 30
0.0
 11
124.632
 21
149.6319825
 31
0.0
  0
LINE
  5
148
330
1E
100
AcDbEntity
  8
0
100
AcDbLine
 10
118.5279999999998
 20
153.1599824999998
 30
0.0
 11
121.776
 21
151.8159824999998
 31
0.0
  0
LINE
  5
149
330
1E
100
AcDbEntity
  8
0
100
AcDbLine
 10
121.944
 20
152.1519825
 30
0.0
 11
124.912
 21
149.9119825
 31
0.0
  0
LINE
  5
14A
330
1E
100
AcDbEntity
  8
0
100
AcDbLine
 10
115.0
 20
153.6639824999999
 30
0.0
 11
118.5279999999998
 21
153.1599824999998
 31
0.0
  0
LINE
  5
14B
330
1E
100
AcDbEntity
  8
0
100
AcDbLine
 10
115.0
 20
153.9999824999999
 30
0.0
 11
118.5839999999999
 21
153.4959825
 31
0.0
  0
LINE
  5
14C
330
1E
100
AcDbEntity
  8
0
100
AcDbLine
 10
118.5839999999999
 20
153.4959825
 30
0.0
 11
121.944
 21
152.1519825
 31
0.0
  0
LINE
  5
14D
330
1E
100
AcDbEntity
  8
0
100
AcDbLine
 10
111.472
 20
153.1599824999998
 30
0.0
 11
115.0
 21
153.6639824999999
 31
0.0
  0
LINE
  5
14E
330
1E
100
AcDbEntity
  8
0
100
AcDbLine
 10
111.416
 20
153.4959825
 30
0.0
 11
115.0
 21
153.9999824999999
 31
0.0
  0
LINE
  5
14F
330
1E
100
AcDbEntity
  8
0
100
AcDbLine
 10
229.674
 20
157.9119825
 30
0.0
 11
229.674
 21
159.9499825
 31
0.0
  0
LINE
  5
150
330
1E
100
AcDbEntity
  8
0
100
AcDbLine
 10
229.674
 20
157.9119825
 30
0.0
 11
229.674
 21
154.6379824999999
 31
0.0
  0
LINE
  5
151
330
1E
100
AcDbEntity
  8
0
100
AcDbLine
 10
229.674
 20
154.6379824999999
 30
0.0
 11
229.674
 21
150.3149824999999
 31
0.0
  0
LINE
  5
152
330
1E
100
AcDbEntity
  8
0
100
AcDbLine
 10
229.674
 20
154.6379824999999
 30
0.0
 11
229.674
 21
157.9119825
 31
0.0
  0
LINE
  5
153
330
1E
100
AcDbEntity
  8
0
100
AcDbLine
 10
234.962
 20
150.3849825
 30
0.0
 11
235.8449999999999
 21
154.8939824999999
 31
0.0
  0
LINE
  5
154
330
1E
100
AcDbEntity
  8
0
100
AcDbLine
 10
235.8449999999999
 20
154.8939824999999
 30
0.0
 11
236.4749999999999
 21
158.1899824999998
 31
0.0
  0
LINE
  5
155
330
1E
100
AcDbEntity
  8
0
100
AcDbLine
 10
175.0
 20
160.9999824999999
 30
0.0
 11
175.0
 21
183.9999824999999
 31
0.0
  0
LINE
  5
156
330
1E
100
AcDbEntity
  8
0
100
AcDbLine
 10
229.674
 20
159.9499825
 30
0.0
 11
229.674
 21
160.6909824999999
 31
0.0
  0
LINE
  5
157
330
1E
100
AcDbEntity
  8
0
100
AcDbLine
 10
229.674
 20
159.9499825
 30
0.0
 11
229.674
 21
157.9119825
 31
0.0
  0
LINE
  5
158
330
1E
100
AcDbEntity
  8
0
100
AcDbLine
 10
230.0
 20
160.0739824999999
 30
0.0
 11
230.0
 21
159.3319825
 31
0.0
  0
LINE
  5
159
330
1E
100
AcDbEntity
  8
0
100
AcDbLine
 10
230.0
 20
159.3319825
 30
0.0
 11
230.0
 21
160.0739824999999
 31
0.0
  0
LINE
  5
15A
330
1E
100
AcDbEntity
  8
0
100
AcDbLine
 10
229.674
 20
160.6909824999999
 30
0.0
 11
230.0
 21
160.0739824999999
 31
0.0
  0
LINE
  5
15B
330
1E
100
AcDbEntity
  8
0
100
AcDbLine
 10
229.674
 20
160.6909824999999
 30
0.0
 11
229.674
 21
159.9499825
 31
0.0
  0
LINE
  5
15C
330
1E
100
AcDbEntity
  8
0
100
AcDbLine
 10
229.022
 20
160.9999824999999
 30
0.0
 11
229.674
 21
160.6909824999999
 31
0.0
  0
LINE
  5
15D
330
1E
100
AcDbEntity
  8
0
100
AcDbLine
 10
205.0
 20
160.9999824999999
 30
0.0
 11
229.022
 21
160.9999824999999
 31
0.0
  0
LINE
  5
15E
330
1E
100
AcDbEntity
  8
0
100
AcDbLine
 10
205.0
 20
160.9999824999999
 30
0.0
 11
205.0
 21
183.9999824999999
 31
0.0
  0
LINE
  5
15F
330
1E
100
AcDbEntity
  8
0
100
AcDbLine
 10
165.619
 20
183.9999824999999
 30
0.0
 11
170.044
 21
183.9999824999999
 31
0.0
  0
LINE
  5
160
330
1E
100
AcDbEntity
  8
0
100
AcDbLine
 10
162.8429999999999
 20
183.9999824999999
 30
0.0
 11
165.619
 21
183.9999824999999
 31
0.0
  0
LINE
  5
161
330
1E
100
AcDbEntity
  8
0
100
AcDbLine
 10
164.8379999999999
 20
184.3849825
 30
0.0
 11
169.437
 21
184.3849825
 31
0.0
  0
LINE
  5
162
330
1E
100
AcDbEntity
  8
0
100
AcDbLine
 10
161.9749999999999
 20
184.3849825
 30
0.0
 11
164.8379999999999
 21
184.3849825
 31
0.0
  0
LINE
  5
163
330
1E
100
AcDbEntity
  8
0
100
AcDbLine
 10
169.437
 20
184.3849825
 30
0.0
 11
175.5099999999999
 21
184.3849825
 31
0.0
  0
LINE
  5
164
330
1E
100
AcDbEntity
  8
0
100
AcDbLine
 10
160.9339999999999
 20
184.3849825
 30
0.0
 11
161.801
 21
183.9999824999999
 31
0.0
  0
LINE
  5
165
330
1E
100
AcDbEntity
  8
0
100
AcDbLine
 10
160.9339999999999
 20
184.3849825
 30
0.0
 11
161.9749999999999
 21
184.3849825
 31
0.0
  0
LINE
  5
166
330
1E
100
AcDbEntity
  8
0
100
AcDbLine
 10
161.801
 20
183.9999824999999
 30
0.0
 11
162.8429999999999
 21
183.9999824999999
 31
0.0
  0
LINE
  5
167
330
1E
100
AcDbEntity
  8
0
100
AcDbLine
 10
160.4999999999999
 20
185.1539824999999
 30
0.0
 11
160.9339999999999
 21
184.3849825
 31
0.0
  0
LINE
  5
168
330
1E
100
AcDbEntity
  8
0
100
AcDbLine
 10
160.4999999999999
 20
185.1539824999999
 30
0.0
 11
160.4999999999999
 21
209.9999825
 31
0.0
  0
LINE
  5
169
330
1E
100
AcDbEntity
  8
0
100
AcDbLine
 10
170.044
 20
183.9999824999999
 30
0.0
 11
175.0
 21
183.9999824999999
 31
0.0
  0
LINE
  5
16A
330
1E
100
AcDbEntity
  8
0
100
AcDbLine
 10
164.4909999999998
 20
209.9999825
 30
0.0
 11
169.1759999999999
 21
209.9999825
 31
0.0
  0
LINE
  5
16B
330
1E
100
AcDbEntity
  8
0
100
AcDbLine
 10
161.5409999999999
 20
209.9999825
 30
0.0
 11
164.4909999999998
 21
209.9999825
 31
0.0
  0
LINE
  5
16C
330
1E
100
AcDbEntity
  8
0
100
AcDbLine
 10
169.1759999999999
 20
209.9999825
 30
0.0
 11
175.337
 21
209.9999825
 31
0.0
  0
LINE
  5
16D
330
1E
100
AcDbEntity
  8
0
100
AcDbLine
 10
160.4999999999999
 20
209.9999825
 30
0.0
 11
160.4999999999999
 21
185.1539824999999
 31
0.0
  0
LINE
  5
16E
330
1E
100
AcDbEntity
  8
0
100
AcDbLine
 10
160.4999999999999
 20
209.9999825
 30
0.0
 11
161.5409999999999
 21
209.9999825
 31
0.0
  0
LINE
  5
16F
330
1E
100
AcDbEntity
  8
0
100
AcDbLine
 10
177.029
 20
183.9999824999999
 30
0.0
 11
179.412
 21
183.9999824999999
 31
0.0
  0
LINE
  5
170
330
1E
100
AcDbEntity
  8
0
100
AcDbLine
 10
175.529
 20
183.9999824999999
 30
0.0
 11
177.029
 21
183.9999824999999
 31
0.0
  0
LINE
  5
171
330
1E
100
AcDbEntity
  8
0
100
AcDbLine
 10
179.412
 20
183.9999824999999
 30
0.0
 11
182.544
 21
183.9999824999999
 31
0.0
  0
LINE
  5
172
330
1E
100
AcDbEntity
  8
0
100
AcDbLine
 10
200.5879999999999
 20
183.9999824999999
 30
0.0
 11
202.9709999999999
 21
183.9999824999999
 31
0.0
  0
LINE
  5
173
330
1E
100
AcDbEntity
  8
0
100
AcDbLine
 10
202.9709999999999
 20
183.9999824999999
 30
0.0
 11
204.4709999999999
 21
183.9999824999999
 31
0.0
  0
LINE
  5
174
330
1E
100
AcDbEntity
  8
0
100
AcDbLine
 10
204.4709999999999
 20
183.9999824999999
 30
0.0
 11
205.0
 21
183.9999824999999
 31
0.0
  0
LINE
  5
175
330
1E
100
AcDbEntity
  8
0
100
AcDbLine
 10
209.9559999999999
 20
183.9999824999999
 30
0.0
 11
214.3809999999999
 21
183.9999824999999
 31
0.0
  0
LINE
  5
176
330
1E
100
AcDbEntity
  8
0
100
AcDbLine
 10
214.3809999999999
 20
183.9999824999999
 30
0.0
 11
217.157
 21
183.9999824999999
 31
0.0
  0
LINE
  5
177
330
1E
100
AcDbEntity
  8
0
100
AcDbLine
 10
217.157
 20
183.9999824999999
 30
0.0
 11
218.199
 21
183.9999824999999
 31
0.0
  0
LINE
  5
178
330
1E
100
AcDbEntity
  8
0
100
AcDbLine
 10
218.199
 20
183.9999824999999
 30
0.0
 11
219.0659999999999
 21
184.3849825
 31
0.0
  0
LINE
  5
179
330
1E
100
AcDbEntity
  8
0
100
AcDbLine
 10
205.0
 20
183.9999824999999
 30
0.0
 11
205.0
 21
160.9999824999999
 31
0.0
  0
LINE
  5
17A
330
1E
100
AcDbEntity
  8
0
100
AcDbLine
 10
205.0
 20
183.9999824999999
 30
0.0
 11
209.9559999999999
 21
183.9999824999999
 31
0.0
  0
LINE
  5
17B
330
1E
100
AcDbEntity
  8
0
100
AcDbLine
 10
197.4559999999999
 20
183.9999824999999
 30
0.0
 11
200.5879999999999
 21
183.9999824999999
 31
0.0
  0
LINE
  5
17C
330
1E
100
AcDbEntity
  8
0
100
AcDbLine
 10
193.838
 20
183.9999824999999
 30
0.0
 11
197.4559999999999
 21
183.9999824999999
 31
0.0
  0
LINE
  5
17D
330
1E
100
AcDbEntity
  8
0
100
AcDbLine
 10
190.0
 20
183.9999824999999
 30
0.0
 11
193.838
 21
183.9999824999999
 31
0.0
  0
LINE
  5
17E
330
1E
100
AcDbEntity
  8
0
100
AcDbLine
 10
182.544
 20
183.9999824999999
 30
0.0
 11
186.162
 21
183.9999824999999
 31
0.0
  0
LINE
  5
17F
330
1E
100
AcDbEntity
  8
0
100
AcDbLine
 10
204.49
 20
184.3849825
 30
0.0
 11
210.563
 21
184.3849825
 31
0.0
  0
LINE
  5
180
330
1E
100
AcDbEntity
  8
0
100
AcDbLine
 10
197.462
 20
184.3849825
 30
0.0
 11
204.49
 21
184.3849825
 31
0.0
  0
LINE
  5
181
330
1E
100
AcDbEntity
  8
0
100
AcDbLine
 10
190.0
 20
184.3849825
 30
0.0
 11
197.462
 21
184.3849825
 31
0.0
  0
LINE
  5
182
330
1E
100
AcDbEntity
  8
0
100
AcDbLine
 10
175.5099999999999
 20
184.3849825
 30
0.0
 11
182.5379999999999
 21
184.3849825
 31
0.0
  0
LINE
  5
183
330
1E
100
AcDbEntity
  8
0
100
AcDbLine
 10
182.5379999999999
 20
184.3849825
 30
0.0
 11
190.0
 21
184.3849825
 31
0.0
  0
LINE
  5
184
330
1E
100
AcDbEntity
  8
0
100
AcDbLine
 10
210.563
 20
184.3849825
 30
0.0
 11
215.162
 21
184.3849825
 31
0.0
  0
LINE
  5
185
330
1E
100
AcDbEntity
  8
0
100
AcDbLine
 10
215.162
 20
184.3849825
 30
0.0
 11
218.025
 21
184.3849825
 31
0.0
  0
LINE
  5
186
330
1E
100
AcDbEntity
  8
0
100
AcDbLine
 10
175.337
 20
209.9999825
 30
0.0
 11
182.4519999999999
 21
209.9999825
 31
0.0
  0
LINE
  5
187
330
1E
100
AcDbEntity
  8
0
100
AcDbLine
 10
210.824
 20
209.9999825
 30
0.0
 11
215.509
 21
209.9999825
 31
0.0
  0
LINE
  5
188
330
1E
100
AcDbEntity
  8
0
100
AcDbLine
 10
215.509
 20
209.9999825
 30
0.0
 11
218.459
 21
209.9999825
 31
0.0
  0
LINE
  5
189
330
1E
100
AcDbEntity
  8
0
100
AcDbLine
 10
204.6629999999999
 20
209.9999825
 30
0.0
 11
210.824
 21
209.9999825
 31
0.0
  0
LINE
  5
18A
330
1E
100
AcDbEntity
  8
0
100
AcDbLine
 10
197.548
 20
209.9999825
 30
0.0
 11
204.6629999999999
 21
209.9999825
 31
0.0
  0
LINE
  5
18B
330
1E
100
AcDbEntity
  8
0
100
AcDbLine
 10
190.0
 20
209.9999825
 30
0.0
 11
197.548
 21
209.9999825
 31
0.0
  0
LINE
  5
18C
330
1E
100
AcDbEntity
  8
0
100
AcDbLine
 10
182.4519999999999
 20
209.9999825
 30
0.0
 11
190.0
 21
209.9999825
 31
0.0
  0
LINE
  5
18D
330
1E
100
AcDbEntity
  8
0
100
AcDbLine
 10
218.025
 20
184.3849825
 30
0.0
 11
219.0659999999999
 21
184.3849825
 31
0.0
  0
LINE
  5
18E
330
1E
100
AcDbEntity
  8
0
100
AcDbLine
 10
219.0659999999999
 20
184.3849825
 30
0.0
 11
219.4999999999999
 21
185.1539824999999
 31
0.0
  0
LINE
  5
18F
330
1E
100
AcDbEntity
  8
0
100
AcDbLine
 10
219.4999999999999
 20
209.9999825
 30
0.0
 11
219.4999999999999
 21
185.1539824999999
 31
0.0
  0
LINE
  5
190
330
1E
100
AcDbEntity
  8
0
100
AcDbLine
 10
218.459
 20
209.9999825
 30
0.0
 11
219.4999999999999
 21
209.9999825
 31
0.0
  0
LINE
  5
191
330
1E
100
AcDbEntity
  8
0
100
AcDbLine
 10
219.4999999999999
 20
185.1539824999999
 30
0.0
 11
219.4999999999999
 21
209.9999825
 31
0.0
  0
LINE
  5
192
330
1E
100
AcDbEntity
  8
0
100
AcDbLine
 10
186.162
 20
183.9999824999999
 30
0.0
 11
190.0
 21
183.9999824999999
 31
0.0
  0
LINE
  5
193
330
1E
100
AcDbEntity
  8
0
100
AcDbLine
 10
175.0
 20
183.9999824999999
 30
0.0
 11
175.0
 21
160.9999824999999
 31
0.0
  0
LINE
  5
194
330
1E
100
AcDbEntity
  8
0
100
AcDbLine
 10
175.0
 20
183.9999824999999
 30
0.0
 11
175.529
 21
183.9999824999999
 31
0.0
  0
LINE
  5
195
330
1E
100
AcDbEntity
  8
0
100
AcDbLine
 10
115.0
 20
160.9999824999999
 30
0.0
 11
175.0
 21
160.9999824999999
 31
0.0
  0
LINE
  5
196
330
1E
100
AcDbEntity
  8
0
100
AcDbLine
 10
232.857
 20
159.2989825
 30
0.0
 11
236.6155031848748
 21
158.916554800939
 31
0.0
  0
LINE
  5
197
330
1E
100
AcDbEntity
  8
0
100
AcDbLine
 10
230.0
 20
159.2989825
 30
0.0
 11
232.857
 21
159.2989825
 31
0.0
  0
LINE
  5
198
330
1E
100
AcDbEntity
  8
0
100
AcDbLine
 10
236.4749999999999
 20
158.1899824999998
 30
0.0
 11
236.878
 21
160.2739825
 31
0.0
  0
LINE
  5
199
330
1E
100
AcDbEntity
  8
0
100
AcDbLine
 10
237.0
 20
160.9999824999999
 30
0.0
 11
263.4739999999999
 21
160.9999824999999
 31
0.0
  0
LINE
  5
19A
330
1E
100
AcDbEntity
  8
0
100
AcDbLine
 10
236.878
 20
160.2739825
 30
0.0
 11
237.0
 21
160.9999824999999
 31
0.0
  0
LINE
  5
1AA
330
1E
100
AcDbEntity
  8
0
100
AcDbLine
 10
256.1269999999999
 20
114.3499824999999
 30
0.0
 11
258.471
 21
111.1579824999999
 31
0.0
  0
LINE
  5
1AB
330
1E
100
AcDbEntity
  8
0
100
AcDbLine
 10
258.471
 20
111.1579824999999
 30
0.0
 11
259.9299999999999
 21
107.1229824999999
 31
0.0
  0
LINE
  5
1AC
330
1E
100
AcDbEntity
  8
0
100
AcDbLine
 10
259.9299999999999
 20
107.1229824999999
 30
0.0
 11
260.711
 21
102.9119824999999
 31
0.0
  0
LINE
  5
1AD
330
1E
100
AcDbEntity
  8
0
100
AcDbLine
 10
263.4739999999999
 20
160.9999824999999
 30
0.0
 11
265.368
 21
160.9999824999999
 31
0.0
  0
LINE
  5
1AF
330
1E
100
AcDbEntity
  8
0
100
AcDbLine
 10
260.711
 20
102.9119824999999
 30
0.0
 11
261.8399999999999
 21
79.8431825
 31
0.0
  0
LINE
  5
1B1
330
1E
100
AcDbEntity
  8
0
100
AcDbLine
 10
261.8399999999999
 20
79.8431825
 30
0.0
 11
262.114
 21
75.23608249999998
 31
0.0
  0
LINE
  5
1B3
330
1E
100
AcDbEntity
  8
0
100
AcDbLine
 10
262.114
 20
75.23608249999998
 30
0.0
 11
262.382
 21
71.0500825
 31
0.0
  0
LINE
  5
1B6
330
1E
100
AcDbEntity
  8
0
100
AcDbLine
 10
262.382
 20
71.0500825
 30
0.0
 11
262.6059999999999
 21
67.1012825
 31
0.0
  0
LINE
  5
1B9
330
1E
100
AcDbEntity
  8
0
100
AcDbLine
 10
262.6059999999999
 20
67.1012825
 30
0.0
 11
263.212
 21
62.51008249999999
 31
0.0
  0
LINE
  5
1C7
330
1E
100
AcDbEntity
  8
0
100
AcDbLine
 10
265.368
 20
160.9999824999999
 30
0.0
 11
265.7469999999999
 21
160.5999824999998
 31
0.0
  0
LINE
  5
1CD
330
1E
100
AcDbEntity
  8
0
100
AcDbLine
 10
266.0
 20
67.7814825
 30
0.0
 11
266.0
 21
71.3522825
 31
0.0
  0
LINE
  5
1CE
330
1E
100
AcDbEntity
  8
0
100
AcDbLine
 10
266.0
 20
71.3522825
 30
0.0
 11
266.0
 21
150.0069824999999
 31
0.0
  0
LINE
  5
1CF
330
1E
100
AcDbEntity
  8
0
100
AcDbLine
 10
266.0
 20
154.2049825
 30
0.0
 11
266.0
 21
157.4029825
 31
0.0
  0
LINE
  5
1D0
330
1E
100
AcDbEntity
  8
0
100
AcDbLine
 10
266.0
 20
150.0069824999999
 30
0.0
 11
266.0
 21
71.3522825
 31
0.0
  0
LINE
  5
1D1
330
1E
100
AcDbEntity
  8
0
100
AcDbLine
 10
266.0
 20
160.0009824999998
 30
0.0
 11
266.0
 21
150.0069824999999
 31
0.0
  0
LINE
  5
1D2
330
1E
100
AcDbEntity
  8
0
100
AcDbLine
 10
265.7469999999999
 20
160.5999824999998
 30
0.0
 11
266.0
 21
160.0009824999998
 31
0.0
  0
LINE
  5
1D3
330
1E
100
AcDbEntity
  8
0
100
AcDbLine
 10
266.0
 20
71.3522825
 30
0.0
 11
266.0
 21
62.8501825
 31
0.0
  0
LINE
  5
1DB
330
1E
100
AcDbEntity
  8
0
100
AcDbLine
 10
103.716
 20
9.3121925
 30
0.0
 11
105.796
 21
6.765982499999998
 31
0.0
  0
LINE
  5
1DC
330
1E
100
AcDbEntity
  8
0
100
AcDbLine
 10
103.716
 20
9.0570725
 30
0.0
 11
105.796
 21
6.510862499999999
 31
0.0
  0
LINE
  5
1DD
330
1E
100
AcDbEntity
  8
0
100
AcDbLine
 10
102.4679999999999
 20
11.9395825
 30
0.0
 11
103.716
 21
9.0570725
 31
0.0
  0
LINE
  5
1DE
330
1E
100
AcDbEntity
  8
0
100
AcDbLine
 10
102.4999999999999
 20
8.961652499999997
 30
0.0
 11
103.7
 21
6.005232499999999
 31
0.0
  0
LINE
  5
1DF
330
1E
100
AcDbEntity
  8
0
100
AcDbLine
 10
102.0
 20
118.9999825
 30
0.0
 11
102.0
 21
43.6396825
 31
0.0
  0
LINE
  5
1E4
330
1E
100
AcDbEntity
  8
0
100
AcDbLine
 10
25.0
 20
160.9999824999999
 30
0.0
 11
55.0
 21
160.9999824999999
 31
0.0
  0
LINE
  5
1E5
330
1E
100
AcDbEntity
  8
0
100
AcDbLine
 10
175.0
 20
160.9999824999999
 30
0.0
 11
205.0
 21
160.9999824999999
 31
0.0
  0
LINE
  5
1E6
330
1E
100
AcDbEntity
  8
0
100
AcDbLine
 10
102.0
 20
118.9999825
 30
0.0
 11
128.0
 21
118.9999825
 31
0.0
  0
ENDSEC
  0
SECTION
  2
OBJECTS
  0
DICTIONARY
  5
C
330
0
100
AcDbDictionary
281
     1
  3
ACAD_GROUP
350
D
  3
ACAD_LAYOUT
350
19
  3
ACAD_MLINESTYLE
350
16
  3
ACAD_PLOTSETTINGS
350
18
  3
ACAD_PLOTSTYLENAME
350
E
  3
AcDbVariableDictionary
350
1E7
  0
DICTIONARY
  5
D
102
{ACAD_REACTORS
330
C
102
}
330
C
100
AcDbDictionary
281
     1
  0
DICTIONARY
  5
19
102
{ACAD_REACTORS
330
C
102
}
330
C
100
AcDbDictionary
281
     1
  3
Layout1
350
1D
  3
Model
350
21
  0
DICTIONARY
  5
16
102
{ACAD_REACTORS
330
C
102
}
330
C
100
AcDbDictionary
281
     1
  3
Standard
350
17
  0
DICTIONARY
  5
18
102
{ACAD_REACTORS
330
C
102
}
330
C
100
AcDbDictionary
281
     1
  0
ACDBDICTIONARYWDFLT
  5
E
102
{ACAD_REACTORS
330
C
102
}
330
C
100
AcDbDictionary
281
     1
  3
Normal
350
F
100
AcDbDictionaryWithDefault
340
F
  0
DICTIONARY
  5
1E7
102
{ACAD_REACTORS
330
C
102
}
330
C
100
AcDbDictionary
281
     1
  3
DIMASSOC
350
1E8
  0
LAYOUT
  5
1D
102
{ACAD_REACTORS
330
19
102
}
330
19
100
AcDbPlotSettings
  1

  2
hp deskjet 980c series
  4

  6

 40
0.0
 41
0.0
 42
0.0
 43
0.0
 44
0.0
 45
0.0
 46
0.0
 47
0.0
 48
0.0
 49
0.0
140
0.0
141
0.0
142
1.0
143
1.0
 70
   688
 72
     0
 73
     0
 74
     5
  7

 75
    16
147
1.0
148
0.0
149
0.0
100
AcDbLayout
  1
Layout1
 70
     1
 71
     1
 10
0.0
 20
0.0
 11
12.0
 21
9.0
 12
0.0
 22
0.0
 32
0.0
 14
1.000000000000000E+20
 24
1.000000000000000E+20
 34
1.000000000000000E+20
 15
-1.000000000000000E+20
 25
-1.000000000000000E+20
 35
-1.000000000000000E+20
146
0.0
 13
0.0
 23
0.0
 33
0.0
 16
1.0
 26
0.0
 36
0.0
 17
0.0
 27
1.0
 37
0.0
 76
     0
330
1A
  0
LAYOUT
  5
21
102
{ACAD_REACTORS
330
19
102
}
330
19
100
AcDbPlotSettings
  1

  2
hp deskjet 980c series
  4

  6

 40
0.0
 41
0.0
 42
0.0
 43
0.0
 44
0.0
 45
0.0
 46
0.0
 47
0.0
 48
0.0
 49
0.0
140
0.0
141
0.0
142
1.0
143
1.0
 70
  1712
 72
     0
 73
     0
 74
     0
  7

 75
     0
147
1.0
148
0.0
149
0.0
100
AcDbLayout
  1
Model
 70
     1
 71
     0
 10
0.0
 20
0.0
 11
12.0
 21
9.0
 12
0.0
 22
0.0
 32
0.0
 14
0.0
 24
0.0
 34
0.0
 15
0.0
 25
0.0
 35
0.0
146
0.0
 13
0.0
 23
0.0
 33
0.0
 16
1.0
 26
0.0
 36
0.0
 17
0.0
 27
1.0
 37
0.0
 76
     0
330
1E
  0
MLINESTYLE
  5
17
102
{ACAD_REACTORS
330
16
102
}
330
16
100
AcDbMlineStyle
  2
STANDARD
 70
     0
  3

 62
   256
 51
90.0
 52
90.0
 71
     2
 49
0.5
 62
   256
  6
BYLAYER
 49
-0.5
 62
   256
  6
BYLAYER
  0
ACDBPLACEHOLDER
  5
F
102
{ACAD_REACTORS
330
E
102
}
330
E
  0
DICTIONARYVAR
  5
1E8
102
{ACAD_REACTORS
330
1E7
102
}
330
1E7
100
DictionaryVariables
280
     0
  1
1
  0
ENDSEC
  0
EOF
