  0
SECTION
  2
HEADER
  9
$ACADVER
  1
AC1015
  9
$ACADMAINTVER
 70
    13
  9
$DWGCODEPAGE
  3
ANSI_1252
  9
$INSBASE
 10
0.0
 20
0.0
 30
0.0
  9
$EXTMIN
 10
0.0000000000000074
 20
-0.0000000000000087
 30
0.0
  9
$EXTMAX
 10
266.0
 20
156.0
 30
0.0
  9
$LIMMIN
 10
0.0
 20
0.0
  9
$LIMMAX
 10
12.0
 20
9.0
  9
$ORTHOMODE
 70
     0
  9
$REGENMODE
 70
     1
  9
$FILLMODE
 70
     1
  9
$QTEXTMODE
 70
     0
  9
$MIRRTEXT
 70
     1
  9
$LTSCALE
 40
1.0
  9
$ATTMODE
 70
     1
  9
$TEXTSIZE
 40
0.2
  9
$TRACEWID
 40
0.05
  9
$TEXTSTYLE
  7
Standard
  9
$CLAYER
  8
0
  9
$CELTYPE
  6
Continuous
  9
$CECOLOR
 62
   256
  9
$CELTSCALE
 40
1.0
  9
$DISPSILH
 70
     0
  9
$DIMSCALE
 40
1.0
  9
$DIMASZ
 40
0.18
  9
$DIMEXO
 40
0.0625
  9
$DIMDLI
 40
0.38
  9
$DIMRND
 40
0.0
  9
$DIMDLE
 40
0.0
  9
$DIMEXE
 40
0.18
  9
$DIMTP
 40
0.0
  9
$DIMTM
 40
0.0
  9
$DIMTXT
 40
0.18
  9
$DIMCEN
 40
0.09
  9
$DIMTSZ
 40
0.0
  9
$DIMTOL
 70
     0
  9
$DIMLIM
 70
     0
  9
$DIMTIH
 70
     1
  9
$DIMTOH
 70
     1
  9
$DIMSE1
 70
     0
  9
$DIMSE2
 70
     0
  9
$DIMTAD
 70
     0
  9
$DIMZIN
 70
     0
  9
$DIMBLK
  1

  9
$DIMASO
 70
     1
  9
$DIMSHO
 70
     1
  9
$DIMPOST
  1

  9
$DIMAPOST
  1

  9
$DIMALT
 70
     0
  9
$DIMALTD
 70
     2
  9
$DIMALTF
 40
25.4
  9
$DIMLFAC
 40
1.0
  9
$DIMTOFL
 70
     0
  9
$DIMTVP
 40
0.0
  9
$DIMTIX
 70
     0
  9
$DIMSOXD
 70
     0
  9
$DIMSAH
 70
     0
  9
$DIMBLK1
  1

  9
$DIMBLK2
  1

  9
$DIMSTYLE
  2
Standard
  9
$DIMCLRD
 70
     0
  9
$DIMCLRE
 70
     0
  9
$DIMCLRT
 70
     0
  9
$DIMTFAC
 40
1.0
  9
$DIMGAP
 40
0.09
  9
$DIMJUST
 70
     0
  9
$DIMSD1
 70
     0
  9
$DIMSD2
 70
     0
  9
$DIMTOLJ
 70
     1
  9
$DIMTZIN
 70
     0
  9
$DIMALTZ
 70
     0
  9
$DIMALTTZ
 70
     0
  9
$DIMUPT
 70
     0
  9
$DIMDEC
 70
     4
  9
$DIMTDEC
 70
     4
  9
$DIMALTU
 70
     2
  9
$DIMALTTD
 70
     2
  9
$DIMTXSTY
  7
Standard
  9
$DIMAUNIT
 70
     0
  9
$DIMADEC
 70
     0
  9
$DIMALTRND
 40
0.0
  9
$DIMAZIN
 70
     0
  9
$DIMDSEP
 70
    46
  9
$DIMATFIT
 70
     3
  9
$DIMFRAC
 70
     0
  9
$DIMLDRBLK
  1

  9
$DIMLUNIT
 70
     2
  9
$DIMLWD
 70
    -2
  9
$DIMLWE
 70
    -2
  9
$DIMTMOVE
 70
     0
  9
$LUNITS
 70
     2
  9
$LUPREC
 70
     4
  9
$SKETCHINC
 40
0.1
  9
$FILLETRAD
 40
0.0
  9
$AUNITS
 70
     0
  9
$AUPREC
 70
     0
  9
$MENU
  1
.
  9
$ELEVATION
 40
0.0
  9
$PELEVATION
 40
0.0
  9
$THICKNESS
 40
0.0
  9
$LIMCHECK
 70
     0
  9
$CHAMFERA
 40
0.0
  9
$CHAMFERB
 40
0.0
  9
$CHAMFERC
 40
0.0
  9
$CHAMFERD
 40
0.0
  9
$SKPOLY
 70
     0
  9
$TDCREATE
 40
2454637.769144930
  9
$TDUCREATE
 40
2454637.685811597
  9
$TDUPDATE
 40
2454637.771691412
  9
$TDUUPDATE
 40
2454637.688358078
  9
$TDINDWG
 40
0.0025464815
  9
$TDUSRTIMER
 40
0.0025464815
  9
$USRTIMER
 70
     1
  9
$ANGBASE
 50
0.0
  9
$ANGDIR
 70
     0
  9
$PDMODE
 70
     0
  9
$PDSIZE
 40
0.0
  9
$PLINEWID
 40
0.0
  9
$SPLFRAME
 70
     0
  9
$SPLINETYPE
 70
     6
  9
$SPLINESEGS
 70
     8
  9
$HANDSEED
  5
265
  9
$SURFTAB1
 70
     6
  9
$SURFTAB2
 70
     6
  9
$SURFTYPE
 70
     6
  9
$SURFU
 70
     6
  9
$SURFV
 70
     6
  9
$UCSBASE
  2

  9
$UCSNAME
  2

  9
$UCSORG
 10
0.0
 20
0.0
 30
0.0
  9
$UCSXDIR
 10
1.0
 20
0.0
 30
0.0
  9
$UCSYDIR
 10
0.0
 20
1.0
 30
0.0
  9
$UCSORTHOREF
  2

  9
$UCSORTHOVIEW
 70
     1
  9
$UCSORGTOP
 10
0.0
 20
0.0
 30
0.0
  9
$UCSORGBOTTOM
 10
0.0
 20
0.0
 30
0.0
  9
$UCSORGLEFT
 10
0.0
 20
0.0
 30
0.0
  9
$UCSORGRIGHT
 10
0.0
 20
0.0
 30
0.0
  9
$UCSORGFRONT
 10
0.0
 20
0.0
 30
0.0
  9
$UCSORGBACK
 10
0.0
 20
0.0
 30
0.0
  9
$PUCSBASE
  2

  9
$PUCSNAME
  2

  9
$PUCSORG
 10
0.0
 20
0.0
 30
0.0
  9
$PUCSXDIR
 10
1.0
 20
0.0
 30
0.0
  9
$PUCSYDIR
 10
0.0
 20
1.0
 30
0.0
  9
$PUCSORTHOREF
  2

  9
$PUCSORTHOVIEW
 70
     0
  9
$PUCSORGTOP
 10
0.0
 20
0.0
 30
0.0
  9
$PUCSORGBOTTOM
 10
0.0
 20
0.0
 30
0.0
  9
$PUCSORGLEFT
 10
0.0
 20
0.0
 30
0.0
  9
$PUCSORGRIGHT
 10
0.0
 20
0.0
 30
0.0
  9
$PUCSORGFRONT
 10
0.0
 20
0.0
 30
0.0
  9
$PUCSORGBACK
 10
0.0
 20
0.0
 30
0.0
  9
$USERI1
 70
     0
  9
$USERI2
 70
     0
  9
$USERI3
 70
     0
  9
$USERI4
 70
     0
  9
$USERI5
 70
     0
  9
$USERR1
 40
0.0
  9
$USERR2
 40
0.0
  9
$USERR3
 40
0.0
  9
$USERR4
 40
0.0
  9
$USERR5
 40
0.0
  9
$WORLDVIEW
 70
     1
  9
$SHADEDGE
 70
     3
  9
$SHADEDIF
 70
    70
  9
$TILEMODE
 70
     1
  9
$MAXACTVP
 70
    64
  9
$PINSBASE
 10
0.0
 20
0.0
 30
0.0
  9
$PLIMCHECK
 70
     0
  9
$PEXTMIN
 10
1.000000000000000E+20
 20
1.000000000000000E+20
 30
1.000000000000000E+20
  9
$PEXTMAX
 10
-1.000000000000000E+20
 20
-1.000000000000000E+20
 30
-1.000000000000000E+20
  9
$PLIMMIN
 10
0.0
 20
0.0
  9
$PLIMMAX
 10
12.0
 20
9.0
  9
$UNITMODE
 70
     0
  9
$VISRETAIN
 70
     1
  9
$PLINEGEN
 70
     0
  9
$PSLTSCALE
 70
     1
  9
$TREEDEPTH
 70
  3020
  9
$CMLSTYLE
  2
Standard
  9
$CMLJUST
 70
     0
  9
$CMLSCALE
 40
1.0
  9
$PROXYGRAPHICS
 70
     1
  9
$MEASUREMENT
 70
     0
  9
$CELWEIGHT
370
    -1
  9
$ENDCAPS
280
     0
  9
$JOINSTYLE
280
     0
  9
$LWDISPLAY
290
     0
  9
$INSUNITS
 70
     0
  9
$HYPERLINKBASE
  1

  9
$STYLESHEET
  1

  9
$XEDIT
290
     1
  9
$CEPSNTYPE
380
     0
  9
$PSTYLEMODE
290
     1
  9
$FINGERPRINTGUID
  2
{A1B970B3-216C-444D-A9AC-068717E4F222}
  9
$VERSIONGUID
  2
{9F2CB989-5996-432B-BE1A-B5761FEFD2D0}
  9
$EXTNAMES
290
     1
  9
$PSVPSCALE
 40
0.0
  9
$OLESTARTUP
290
     0
  0
ENDSEC
  0
SECTION
  2
CLASSES
  0
CLASS
  1
ACDBDICTIONARYWDFLT
  2
AcDbDictionaryWithDefault
  3
AutoCAD 2000
 90
        0
280
     0
281
     0
  0
CLASS
  1
ACDBPLACEHOLDER
  2
AcDbPlaceHolder
  3
AutoCAD 2000
 90
        0
280
     0
281
     0
  0
CLASS
  1
LAYOUT
  2
AcDbLayout
  3
AutoCAD 2000
 90
        0
280
     0
281
     0
  0
CLASS
  1
DICTIONARYVAR
  2
AcDbDictionaryVar
  3
AutoCAD 2000
 90
        0
280
     0
281
     0
  0
ENDSEC
  0
SECTION
  2
TABLES
  0
TABLE
  2
VPORT
  5
8
330
0
100
AcDbSymbolTable
 70
     2
  0
VPORT
  5
264
330
8
100
AcDbSymbolTableRecord
100
AcDbViewportTableRecord
  2
*Active
 70
     0
 10
0.0
 20
0.0
 11
1.0
 21
1.0
 12
133.0
 22
77.99999999999998
 13
0.0
 23
0.0
 14
1.0
 24
1.0
 15
0.0
 25
0.0
 16
0.0
 26
0.0
 36
1.0
 17
0.0
 27
0.0
 37
0.0
 40
157.1969309462915
 41
2.043533930857874
 42
50.0
 43
0.0
 44
0.0
 50
0.0
 51
0.0
 71
     0
 72
   100
 73
     1
 74
     3
 75
     0
 76
     0
 77
     0
 78
     0
281
     0
 65
     1
110
0.0
120
0.0
130
0.0
111
1.0
121
0.0
131
0.0
112
0.0
122
1.0
132
0.0
 79
     1
146
0.0
  0
ENDTAB
  0
TABLE
  2
LTYPE
  5
5
330
0
100
AcDbSymbolTable
 70
     1
  0
LTYPE
  5
13
330
5
100
AcDbSymbolTableRecord
100
AcDbLinetypeTableRecord
  2
ByBlock
 70
     0
  3

 72
    65
 73
     0
 40
0.0
  0
LTYPE
  5
14
330
5
100
AcDbSymbolTableRecord
100
AcDbLinetypeTableRecord
  2
ByLayer
 70
     0
  3

 72
    65
 73
     0
 40
0.0
  0
LTYPE
  5
15
330
5
100
AcDbSymbolTableRecord
100
AcDbLinetypeTableRecord
  2
Continuous
 70
     0
  3
Solid line
 72
    65
 73
     0
 40
0.0
  0
ENDTAB
  0
TABLE
  2
LAYER
  5
2
330
0
100
AcDbSymbolTable
 70
     1
  0
LAYER
  5
10
330
2
100
AcDbSymbolTableRecord
100
AcDbLayerTableRecord
  2
0
 70
     0
 62
     7
  6
Continuous
370
    -3
390
F
  0
ENDTAB
  0
TABLE
  2
STYLE
  5
3
330
0
100
AcDbSymbolTable
 70
     1
  0
STYLE
  5
11
330
3
100
AcDbSymbolTableRecord
100
AcDbTextStyleTableRecord
  2
Standard
 70
     0
 40
0.0
 41
1.0
 50
0.0
 71
     0
 42
0.2
  3
txt
  4

  0
ENDTAB
  0
TABLE
  2
VIEW
  5
6
330
0
100
AcDbSymbolTable
 70
     0
  0
ENDTAB
  0
TABLE
  2
UCS
  5
7
330
0
100
AcDbSymbolTable
 70
     0
  0
ENDTAB
  0
TABLE
  2
APPID
  5
9
330
0
100
AcDbSymbolTable
 70
     1
  0
APPID
  5
12
330
9
100
AcDbSymbolTableRecord
100
AcDbRegAppTableRecord
  2
ACAD
 70
     0
  0
ENDTAB
  0
TABLE
  2
DIMSTYLE
  5
A
330
0
100
AcDbSymbolTable
 70
     1
100
AcDbDimStyleTable
 71
     0
  0
DIMSTYLE
105
243
330
A
100
AcDbSymbolTableRecord
100
AcDbDimStyleTableRecord
  2
Standard
 70
     0
340
11
  0
ENDTAB
  0
TABLE
  2
BLOCK_RECORD
  5
1
330
0
100
AcDbSymbolTable
 70
     0
  0
BLOCK_RECORD
  5
1E
330
1
100
AcDbSymbolTableRecord
100
AcDbBlockTableRecord
  2
*Model_Space
340
21
  0
BLOCK_RECORD
  5
1A
330
1
100
AcDbSymbolTableRecord
100
AcDbBlockTableRecord
  2
*Paper_Space
340
1D
  0
ENDTAB
  0
ENDSEC
  0
SECTION
  2
BLOCKS
  0
BLOCK
  5
1F
330
1E
100
AcDbEntity
  8
0
100
AcDbBlockBegin
  2
*Model_Space
 70
     0
 10
0.0
 20
0.0
 30
0.0
  3
*Model_Space
  1

  0
ENDBLK
  5
20
330
1E
100
AcDbEntity
  8
0
100
AcDbBlockEnd
  0
BLOCK
  5
1B
330
1A
100
AcDbEntity
 67
     1
  8
0
100
AcDbBlockBegin
  2
*Paper_Space
 70
     0
 10
0.0
 20
0.0
 30
0.0
  3
*Paper_Space
  1

  0
ENDBLK
  5
1C
330
1A
100
AcDbEntity
 67
     1
  8
0
100
AcDbBlockEnd
  0
ENDSEC
  0
SECTION
  2
ENTITIES
  0
LINE
  5
22
330
1E
100
AcDbEntity
  8
0
100
AcDbLine
 10
25.5103
 20
89.83819999999999
 30
0.0
 11
32.5382
 21
86.97499999999999
 31
0.0
  0
LINE
  5
23
330
1E
100
AcDbEntity
  8
0
100
AcDbLine
 10
47.46179999999999
 20
86.97499999999999
 30
0.0
 11
54.4897
 21
89.83819999999999
 31
0.0
  0
LINE
  5
24
330
1E
100
AcDbEntity
  8
0
100
AcDbLine
 10
40.0
 20
85.93380000000001
 30
0.0
 11
47.46179999999999
 21
86.97499999999999
 31
0.0
  0
LINE
  5
25
330
1E
100
AcDbEntity
  8
0
100
AcDbLine
 10
54.4897
 20
89.83819999999999
 30
0.0
 11
59.9863059887792
 21
94.0
 31
0.0
  0
LINE
  5
26
330
1E
100
AcDbEntity
  8
0
100
AcDbLine
 10
54.6632
 20
89.4912
 30
0.0
 11
60.5914352549464
 21
94.0
 31
0.0
  0
LINE
  5
27
330
1E
100
AcDbEntity
  8
0
100
AcDbLine
 10
32.5382
 20
86.97499999999999
 30
0.0
 11
40.0
 21
85.93380000000001
 31
0.0
  0
LINE
  5
28
330
1E
100
AcDbEntity
  8
0
100
AcDbLine
 10
0.0000000000000074
 20
97.64409999999999
 30
0.0
 11
0.0000000000000074
 21
95.6676
 31
0.0
  0
LINE
  5
29
330
1E
100
AcDbEntity
  8
0
100
AcDbLine
 10
0.0000000000000074
 20
97.64409999999999
 30
0.0
 11
0.0000000000000074
 21
100.794
 31
0.0
  0
LINE
  5
2A
330
1E
100
AcDbEntity
  8
0
100
AcDbLine
 10
0.0000000000000074
 20
95.6676
 30
0.0
 11
0.0000000000000074
 21
94.92650000000001
 31
0.0
  0
LINE
  5
2B
330
1E
100
AcDbEntity
  8
0
100
AcDbLine
 10
0.0000000000000074
 20
95.6676
 30
0.0
 11
0.0000000000000074
 21
97.64409999999999
 31
0.0
  0
LINE
  5
2C
330
1E
100
AcDbEntity
  8
0
100
AcDbLine
 10
0.326087000000008
 20
97.08820000000001
 30
0.0
 11
0.326087000000008
 21
95.05
 31
0.0
  0
LINE
  5
2D
330
1E
100
AcDbEntity
  8
0
100
AcDbLine
 10
0.326087000000008
 20
97.08820000000001
 30
0.0
 11
0.326087000000008
 21
100.362
 31
0.0
  0
LINE
  5
2E
330
1E
100
AcDbEntity
  8
0
100
AcDbLine
 10
0.326087000000008
 20
95.05
 30
0.0
 11
0.326087000000008
 21
94.3088
 31
0.0
  0
LINE
  5
2F
330
1E
100
AcDbEntity
  8
0
100
AcDbLine
 10
0.326087000000008
 20
95.05
 30
0.0
 11
0.326087000000008
 21
97.08820000000001
 31
0.0
  0
LINE
  5
30
330
1E
100
AcDbEntity
  8
0
100
AcDbLine
 10
0.0000000000000074
 20
94.92650000000001
 30
0.0
 11
0.326087000000008
 21
94.3088
 31
0.0
  0
LINE
  5
31
330
1E
100
AcDbEntity
  8
0
100
AcDbLine
 10
0.0000000000000074
 20
94.92650000000001
 30
0.0
 11
0.0000000000000074
 21
95.6676
 31
0.0
  0
LINE
  5
32
330
1E
100
AcDbEntity
  8
0
100
AcDbLine
 10
0.326087000000008
 20
94.3088
 30
0.0
 11
0.9782610000000071
 21
94.0
 31
0.0
  0
LINE
  5
33
330
1E
100
AcDbEntity
  8
0
100
AcDbLine
 10
0.326087000000008
 20
94.3088
 30
0.0
 11
0.326087000000008
 21
95.05
 31
0.0
  0
LINE
  5
34
330
1E
100
AcDbEntity
  8
0
100
AcDbLine
 10
20.01369401122079
 20
94.0
 30
0.0
 11
25.5103
 21
89.83819999999999
 31
0.0
  0
LINE
  5
35
330
1E
100
AcDbEntity
  8
0
100
AcDbLine
 10
19.4085647450537
 20
94.0
 30
0.0
 11
25.3368
 21
89.4912
 31
0.0
  0
LINE
  5
36
330
1E
100
AcDbEntity
  8
0
100
AcDbLine
 10
0.9782610000000071
 20
94.0
 30
0.0
 11
102.0
 21
94.0
 31
0.0
  0
LINE
  5
37
330
1E
100
AcDbEntity
  8
0
100
AcDbLine
 10
0.9782610000000049
 20
94.0
 30
0.0
 11
102.0
 21
94.0
 31
0.0
  0
LINE
  5
38
330
1E
100
AcDbEntity
  8
0
100
AcDbLine
 10
0.0000000000000074
 20
104.994
 30
0.0
 11
0.0000000000000074
 21
100.794
 31
0.0
  0
LINE
  5
39
330
1E
100
AcDbEntity
  8
0
100
AcDbLine
 10
0.0000000000000074
 20
104.994
 30
0.0
 11
0.0000000000000074
 21
109.812
 31
0.0
  0
LINE
  5
3A
330
1E
100
AcDbEntity
  8
0
100
AcDbLine
 10
0.326087000000008
 20
104.685
 30
0.0
 11
0.326087000000008
 21
100.362
 31
0.0
  0
LINE
  5
3B
330
1E
100
AcDbEntity
  8
0
100
AcDbLine
 10
0.326087000000008
 20
104.685
 30
0.0
 11
0.326087000000008
 21
109.6879999999999
 31
0.0
  0
LINE
  5
3C
330
1E
100
AcDbEntity
  8
0
100
AcDbLine
 10
0.0000000000000074
 20
100.794
 30
0.0
 11
0.0000000000000074
 21
97.64409999999999
 31
0.0
  0
LINE
  5
3D
330
1E
100
AcDbEntity
  8
0
100
AcDbLine
 10
0.0000000000000074
 20
100.794
 30
0.0
 11
0.0000000000000074
 21
104.994
 31
0.0
  0
LINE
  5
3E
330
1E
100
AcDbEntity
  8
0
100
AcDbLine
 10
0.326087000000008
 20
100.362
 30
0.0
 11
0.326087000000008
 21
97.08820000000001
 31
0.0
  0
LINE
  5
3F
330
1E
100
AcDbEntity
  8
0
100
AcDbLine
 10
0.326087000000008
 20
100.362
 30
0.0
 11
0.326087000000008
 21
104.685
 31
0.0
  0
LINE
  5
40
330
1E
100
AcDbEntity
  8
0
100
AcDbLine
 10
102.0
 20
102.089
 30
0.0
 11
102.0
 21
105.335
 31
0.0
  0
LINE
  5
41
330
1E
100
AcDbEntity
  8
0
100
AcDbLine
 10
102.0
 20
102.089
 30
0.0
 11
102.0
 21
98.49240000000001
 31
0.0
  0
LINE
  5
42
330
1E
100
AcDbEntity
  8
0
100
AcDbLine
 10
102.0
 20
98.49240000000001
 30
0.0
 11
102.0
 21
102.089
 31
0.0
  0
LINE
  5
43
330
1E
100
AcDbEntity
  8
0
100
AcDbLine
 10
102.0
 20
98.49240000000001
 30
0.0
 11
102.4679999999999
 21
99.76600000000001
 31
0.0
  0
LINE
  5
44
330
1E
100
AcDbEntity
  8
0
100
AcDbLine
 10
102.0
 20
98.49240000000001
 30
0.0
 11
102.1131644615449
 21
98.18446209022029
 31
0.0
  0
LINE
  5
45
330
1E
100
AcDbEntity
  8
0
100
AcDbLine
 10
102.0
 20
105.335
 30
0.0
 11
102.0
 21
108.1809999999999
 31
0.0
  0
LINE
  5
46
330
1E
100
AcDbEntity
  8
0
100
AcDbLine
 10
102.0
 20
105.335
 30
0.0
 11
102.0
 21
102.089
 31
0.0
  0
LINE
  5
47
330
1E
100
AcDbEntity
  8
0
100
AcDbLine
 10
0.0000000000000074
 20
109.812
 30
0.0
 11
0.0000000000000074
 21
104.994
 31
0.0
  0
LINE
  5
48
330
1E
100
AcDbEntity
  8
0
100
AcDbLine
 10
0.0000000000000074
 20
109.812
 30
0.0
 11
0.0000000000000074
 21
115.0
 31
0.0
  0
LINE
  5
49
330
1E
100
AcDbEntity
  8
0
100
AcDbLine
 10
0.326087000000008
 20
109.6879999999999
 30
0.0
 11
0.326087000000008
 21
104.685
 31
0.0
  0
LINE
  5
4A
330
1E
100
AcDbEntity
  8
0
100
AcDbLine
 10
0.326087000000008
 20
109.6879999999999
 30
0.0
 11
0.326087000000008
 21
115.0
 31
0.0
  0
LINE
  5
4B
330
1E
100
AcDbEntity
  8
0
100
AcDbLine
 10
102.0
 20
112.488
 30
0.0
 11
102.0
 21
113.8759999999999
 31
0.0
  0
LINE
  5
4C
330
1E
100
AcDbEntity
  8
0
100
AcDbLine
 10
102.0
 20
112.488
 30
0.0
 11
102.0
 21
110.579
 31
0.0
  0
LINE
  5
4D
330
1E
100
AcDbEntity
  8
0
100
AcDbLine
 10
102.0
 20
113.8759999999999
 30
0.0
 11
102.0
 21
114.7179999999999
 31
0.0
  0
LINE
  5
4E
330
1E
100
AcDbEntity
  8
0
100
AcDbLine
 10
102.0
 20
113.8759999999999
 30
0.0
 11
102.0
 21
112.488
 31
0.0
  0
LINE
  5
4F
330
1E
100
AcDbEntity
  8
0
100
AcDbLine
 10
0.0000000000000074
 20
125.0059999999999
 30
0.0
 11
0.0000000000000074
 21
120.1879999999999
 31
0.0
  0
LINE
  5
50
330
1E
100
AcDbEntity
  8
0
100
AcDbLine
 10
0.0000000000000074
 20
125.0059999999999
 30
0.0
 11
0.0000000000000074
 21
129.206
 31
0.0
  0
LINE
  5
51
330
1E
100
AcDbEntity
  8
0
100
AcDbLine
 10
0.0000000000000074
 20
120.1879999999999
 30
0.0
 11
0.0000000000000074
 21
115.0
 31
0.0
  0
LINE
  5
52
330
1E
100
AcDbEntity
  8
0
100
AcDbLine
 10
0.0000000000000074
 20
120.1879999999999
 30
0.0
 11
0.0000000000000074
 21
125.0059999999999
 31
0.0
  0
LINE
  5
53
330
1E
100
AcDbEntity
  8
0
100
AcDbLine
 10
0.0000000000000074
 20
129.206
 30
0.0
 11
0.0000000000000074
 21
132.356
 31
0.0
  0
LINE
  5
54
330
1E
100
AcDbEntity
  8
0
100
AcDbLine
 10
0.0000000000000074
 20
129.206
 30
0.0
 11
0.0000000000000074
 21
125.0059999999999
 31
0.0
  0
LINE
  5
55
330
1E
100
AcDbEntity
  8
0
100
AcDbLine
 10
0.326087000000008
 20
125.3149999999999
 30
0.0
 11
0.326087000000008
 21
120.312
 31
0.0
  0
LINE
  5
56
330
1E
100
AcDbEntity
  8
0
100
AcDbLine
 10
0.326087000000008
 20
125.3149999999999
 30
0.0
 11
0.326087000000008
 21
129.638
 31
0.0
  0
LINE
  5
57
330
1E
100
AcDbEntity
  8
0
100
AcDbLine
 10
0.326087000000008
 20
120.312
 30
0.0
 11
0.326087000000008
 21
115.0
 31
0.0
  0
LINE
  5
58
330
1E
100
AcDbEntity
  8
0
100
AcDbLine
 10
0.326087000000008
 20
120.312
 30
0.0
 11
0.326087000000008
 21
125.3149999999999
 31
0.0
  0
LINE
  5
59
330
1E
100
AcDbEntity
  8
0
100
AcDbLine
 10
0.326087000000008
 20
129.638
 30
0.0
 11
0.326087000000008
 21
132.912
 31
0.0
  0
LINE
  5
5A
330
1E
100
AcDbEntity
  8
0
100
AcDbLine
 10
0.326087000000008
 20
129.638
 30
0.0
 11
0.326087000000008
 21
125.3149999999999
 31
0.0
  0
LINE
  5
5B
330
1E
100
AcDbEntity
  8
0
100
AcDbLine
 10
0.0000000000000074
 20
132.356
 30
0.0
 11
0.0000000000000074
 21
129.206
 31
0.0
  0
LINE
  5
5C
330
1E
100
AcDbEntity
  8
0
100
AcDbLine
 10
0.0000000000000074
 20
132.356
 30
0.0
 11
0.0000000000000074
 21
134.332
 31
0.0
  0
LINE
  5
5D
330
1E
100
AcDbEntity
  8
0
100
AcDbLine
 10
0.0000000000000074
 20
134.332
 30
0.0
 11
0.0000000000000074
 21
132.356
 31
0.0
  0
LINE
  5
5E
330
1E
100
AcDbEntity
  8
0
100
AcDbLine
 10
0.0000000000000074
 20
134.332
 30
0.0
 11
0.0000000000000074
 21
135.0739999999999
 31
0.0
  0
LINE
  5
5F
330
1E
100
AcDbEntity
  8
0
100
AcDbLine
 10
0.326087000000008
 20
132.912
 30
0.0
 11
0.326087000000008
 21
129.638
 31
0.0
  0
LINE
  5
60
330
1E
100
AcDbEntity
  8
0
100
AcDbLine
 10
0.326087000000008
 20
132.912
 30
0.0
 11
0.326087000000008
 21
134.9499999999999
 31
0.0
  0
LINE
  5
61
330
1E
100
AcDbEntity
  8
0
100
AcDbLine
 10
0.0000000000000074
 20
135.0739999999999
 30
0.0
 11
0.0000000000000074
 21
134.332
 31
0.0
  0
LINE
  5
62
330
1E
100
AcDbEntity
  8
0
100
AcDbLine
 10
0.0000000000000074
 20
135.0739999999999
 30
0.0
 11
0.326087000000008
 21
135.691
 31
0.0
  0
LINE
  5
63
330
1E
100
AcDbEntity
  8
0
100
AcDbLine
 10
0.326087000000008
 20
134.9499999999999
 30
0.0
 11
0.326087000000008
 21
132.912
 31
0.0
  0
LINE
  5
64
330
1E
100
AcDbEntity
  8
0
100
AcDbLine
 10
0.326087000000008
 20
134.9499999999999
 30
0.0
 11
0.326087000000008
 21
135.691
 31
0.0
  0
LINE
  5
65
330
1E
100
AcDbEntity
  8
0
100
AcDbLine
 10
0.326087000000008
 20
135.691
 30
0.0
 11
0.326087000000008
 21
134.9499999999999
 31
0.0
  0
LINE
  5
66
330
1E
100
AcDbEntity
  8
0
100
AcDbLine
 10
0.326087000000008
 20
135.691
 30
0.0
 11
0.9782610000000071
 21
136.0
 31
0.0
  0
LINE
  5
67
330
1E
100
AcDbEntity
  8
0
100
AcDbLine
 10
0.0000000000000074
 20
115.0
 30
0.0
 11
0.0000000000000074
 21
109.812
 31
0.0
  0
LINE
  5
68
330
1E
100
AcDbEntity
  8
0
100
AcDbLine
 10
0.0000000000000074
 20
115.0
 30
0.0
 11
0.0000000000000074
 21
120.1879999999999
 31
0.0
  0
LINE
  5
69
330
1E
100
AcDbEntity
  8
0
100
AcDbLine
 10
101.0
 20
136.0
 30
0.0
 11
101.0
 21
138.7
 31
0.0
  0
LINE
  5
6A
330
1E
100
AcDbEntity
  8
0
100
AcDbLine
 10
20.0139079582518
 20
136.0
 30
0.0
 11
25.5103
 21
140.162
 31
0.0
  0
LINE
  5
6B
330
1E
100
AcDbEntity
  8
0
100
AcDbLine
 10
19.40792215581639
 20
136.0
 30
0.0
 11
25.3368
 21
140.5089999999999
 31
0.0
  0
LINE
  5
6C
330
1E
100
AcDbEntity
  8
0
100
AcDbLine
 10
0.9782610000000049
 20
136.0
 30
0.0
 11
129.0
 21
136.0
 31
0.0
  0
LINE
  5
6D
330
1E
100
AcDbEntity
  8
0
100
AcDbLine
 10
25.5103
 20
140.162
 30
0.0
 11
32.5382
 21
143.025
 31
0.0
  0
LINE
  5
6E
330
1E
100
AcDbEntity
  8
0
100
AcDbLine
 10
32.5382
 20
143.025
 30
0.0
 11
40.0
 21
144.066
 31
0.0
  0
LINE
  5
6F
330
1E
100
AcDbEntity
  8
0
100
AcDbLine
 10
25.3368
 20
140.5089999999999
 30
0.0
 11
32.4515
 21
143.459
 31
0.0
  0
LINE
  5
70
330
1E
100
AcDbEntity
  8
0
100
AcDbLine
 10
47.46179999999999
 20
143.025
 30
0.0
 11
54.4897
 21
140.162
 31
0.0
  0
LINE
  5
71
330
1E
100
AcDbEntity
  8
0
100
AcDbLine
 10
40.0
 20
144.066
 30
0.0
 11
47.46179999999999
 21
143.025
 31
0.0
  0
LINE
  5
72
330
1E
100
AcDbEntity
  8
0
100
AcDbLine
 10
40.0
 20
144.5
 30
0.0
 11
47.5485
 21
143.459
 31
0.0
  0
LINE
  5
73
330
1E
100
AcDbEntity
  8
0
100
AcDbLine
 10
101.0
 20
138.7
 30
0.0
 11
101.336
 21
139.0
 31
0.0
  0
LINE
  5
74
330
1E
100
AcDbEntity
  8
0
100
AcDbLine
 10
101.0
 20
138.7
 30
0.0
 11
101.0
 21
136.0
 31
0.0
  0
LINE
  5
75
330
1E
100
AcDbEntity
  8
0
100
AcDbLine
 10
101.0
 20
138.7
 30
0.0
 11
101.5039999999999
 21
138.7
 31
0.0
  0
LINE
  5
76
330
1E
100
AcDbEntity
  8
0
100
AcDbLine
 10
101.336
 20
139.0
 30
0.0
 11
101.8399999999999
 21
139.0
 31
0.0
  0
LINE
  5
77
330
1E
100
AcDbEntity
  8
0
100
AcDbLine
 10
101.8399999999999
 20
139.0
 30
0.0
 11
103.184
 21
139.0
 31
0.0
  0
LINE
  5
78
330
1E
100
AcDbEntity
  8
0
100
AcDbLine
 10
101.5039999999999
 20
138.7
 30
0.0
 11
102.848
 21
138.7
 31
0.0
  0
LINE
  5
79
330
1E
100
AcDbEntity
  8
0
100
AcDbLine
 10
101.0
 20
140.0
 30
0.0
 11
101.5039999999999
 21
140.0
 31
0.0
  0
LINE
  5
7A
330
1E
100
AcDbEntity
  8
0
100
AcDbLine
 10
101.0
 20
140.0
 30
0.0
 11
101.0
 21
155.6999999999999
 31
0.0
  0
LINE
  5
7B
330
1E
100
AcDbEntity
  8
0
100
AcDbLine
 10
101.5039999999999
 20
140.0
 30
0.0
 11
102.848
 21
140.0
 31
0.0
  0
LINE
  5
7C
330
1E
100
AcDbEntity
  8
0
100
AcDbLine
 10
54.4897
 20
140.162
 30
0.0
 11
59.9860920417482
 21
136.0
 31
0.0
  0
LINE
  5
7D
330
1E
100
AcDbEntity
  8
0
100
AcDbLine
 10
101.336
 20
156.0
 30
0.0
 11
101.8399999999999
 21
156.0
 31
0.0
  0
LINE
  5
7E
330
1E
100
AcDbEntity
  8
0
100
AcDbLine
 10
101.8399999999999
 20
156.0
 30
0.0
 11
103.184
 21
156.0
 31
0.0
  0
LINE
  5
7F
330
1E
100
AcDbEntity
  8
0
100
AcDbLine
 10
101.5039999999999
 20
155.6999999999999
 30
0.0
 11
102.848
 21
155.6999999999999
 31
0.0
  0
LINE
  5
80
330
1E
100
AcDbEntity
  8
0
100
AcDbLine
 10
101.0
 20
155.6999999999999
 30
0.0
 11
101.336
 21
156.0
 31
0.0
  0
LINE
  5
81
330
1E
100
AcDbEntity
  8
0
100
AcDbLine
 10
101.0
 20
155.6999999999999
 30
0.0
 11
101.0
 21
140.0
 31
0.0
  0
LINE
  5
82
330
1E
100
AcDbEntity
  8
0
100
AcDbLine
 10
101.0
 20
155.6999999999999
 30
0.0
 11
101.5039999999999
 21
155.6999999999999
 31
0.0
  0
LINE
  5
83
330
1E
100
AcDbEntity
  8
0
100
AcDbLine
 10
54.6632
 20
140.5089999999999
 30
0.0
 11
60.5920778441836
 21
136.0
 31
0.0
  0
LINE
  5
84
330
1E
100
AcDbEntity
  8
0
100
AcDbLine
 10
47.5485
 20
143.459
 30
0.0
 11
54.6632
 21
140.5089999999999
 31
0.0
  0
LINE
  5
85
330
1E
100
AcDbEntity
  8
0
100
AcDbLine
 10
0.9782610000000049
 20
136.0
 30
0.0
 11
129.0
 21
136.0
 31
0.0
  0
LINE
  5
86
330
1E
100
AcDbEntity
  8
0
100
AcDbLine
 10
0.326087000000008
 20
115.0
 30
0.0
 11
0.326087000000008
 21
109.6879999999999
 31
0.0
  0
LINE
  5
87
330
1E
100
AcDbEntity
  8
0
100
AcDbLine
 10
0.326087000000008
 20
115.0
 30
0.0
 11
0.326087000000008
 21
120.312
 31
0.0
  0
LINE
  5
88
330
1E
100
AcDbEntity
  8
0
100
AcDbLine
 10
102.0
 20
114.7179999999999
 30
0.0
 11
102.0
 21
115.0
 31
0.0
  0
LINE
  5
89
330
1E
100
AcDbEntity
  8
0
100
AcDbLine
 10
102.0
 20
114.7179999999999
 30
0.0
 11
102.0
 21
113.8759999999999
 31
0.0
  0
LINE
  5
8A
330
1E
100
AcDbEntity
  8
0
100
AcDbLine
 10
102.0
 20
110.579
 30
0.0
 11
102.0
 21
108.1809999999999
 31
0.0
  0
LINE
  5
8B
330
1E
100
AcDbEntity
  8
0
100
AcDbLine
 10
102.0
 20
110.579
 30
0.0
 11
102.0
 21
112.488
 31
0.0
  0
LINE
  5
8C
330
1E
100
AcDbEntity
  8
0
100
AcDbLine
 10
102.0
 20
108.1809999999999
 30
0.0
 11
102.0
 21
105.335
 31
0.0
  0
LINE
  5
8D
330
1E
100
AcDbEntity
  8
0
100
AcDbLine
 10
102.0
 20
108.1809999999999
 30
0.0
 11
102.0
 21
110.579
 31
0.0
  0
LINE
  5
8E
330
1E
100
AcDbEntity
  8
0
100
AcDbLine
 10
102.0
 20
97.87649999999999
 30
0.0
 11
102.4679999999999
 21
99.1501
 31
0.0
  0
LINE
  5
8F
330
1E
100
AcDbEntity
  8
0
100
AcDbLine
 10
102.0
 20
97.87649999999999
 30
0.0
 11
102.0
 21
90.4854
 31
0.0
  0
LINE
  5
90
330
1E
100
AcDbEntity
  8
0
100
AcDbLine
 10
102.0
 20
90.4854
 30
0.0
 11
102.0
 21
97.87649999999999
 31
0.0
  0
LINE
  5
91
330
1E
100
AcDbEntity
  8
0
100
AcDbLine
 10
102.0
 20
90.4854
 30
0.0
 11
102.4999999999999
 21
91.7483
 31
0.0
  0
LINE
  5
92
330
1E
100
AcDbEntity
  8
0
100
AcDbLine
 10
102.0
 20
90.4854
 30
0.0
 11
102.4999999999999
 21
89.22259999999999
 31
0.0
  0
LINE
  5
93
330
1E
100
AcDbEntity
  8
0
100
AcDbLine
 10
102.4999999999999
 20
89.22259999999999
 30
0.0
 11
103.7
 21
87.99799999999999
 31
0.0
  0
LINE
  5
94
330
1E
100
AcDbEntity
  8
0
100
AcDbLine
 10
103.0
 20
88.79890000000001
 30
0.0
 11
104.2
 21
87.65089999999998
 31
0.0
  0
LINE
  5
95
330
1E
100
AcDbEntity
  8
0
100
AcDbLine
 10
106.0
 20
60.0
 30
0.0
 11
106.2999999999999
 21
60.0
 31
0.0
  0
LINE
  5
96
330
1E
100
AcDbEntity
  8
0
100
AcDbLine
 10
107.4999999999999
 20
-0.0000000000000059
 30
0.0
 11
107.8629999999999
 21
0.026249999999994
 31
0.0
  0
LINE
  5
97
330
1E
100
AcDbEntity
  8
0
100
AcDbLine
 10
107.8629999999999
 20
0.026249999999994
 30
0.0
 11
108.538
 21
0.101219999999994
 31
0.0
  0
LINE
  5
98
330
1E
100
AcDbEntity
  8
0
100
AcDbLine
 10
108.538
 20
0.101219999999994
 30
0.0
 11
109.776
 21
0.476039999999994
 31
0.0
  0
LINE
  5
99
330
1E
100
AcDbEntity
  8
0
100
AcDbLine
 10
108.4999999999999
 20
60.0
 30
0.0
 11
109.6999999999999
 21
60.0
 31
0.0
  0
LINE
  5
9A
330
1E
100
AcDbEntity
  8
0
100
AcDbLine
 10
108.538
 20
0.101219999999994
 30
0.0
 11
109.776
 21
0.476039999999994
 31
0.0
  0
LINE
  5
9B
330
1E
100
AcDbEntity
  8
0
100
AcDbLine
 10
107.8
 20
60.0
 30
0.0
 11
108.4999999999999
 21
60.0
 31
0.0
  0
LINE
  5
9C
330
1E
100
AcDbEntity
  8
0
100
AcDbLine
 10
107.8629999999999
 20
0.0262499999999943
 30
0.0
 11
108.538
 21
0.101219999999994
 31
0.0
  0
LINE
  5
9D
330
1E
100
AcDbEntity
  8
0
100
AcDbLine
 10
107.4999999999999
 20
60.0
 30
0.0
 11
107.4999999999999
 21
-0.0000000000000087
 31
0.0
  0
LINE
  5
9E
330
1E
100
AcDbEntity
  8
0
100
AcDbLine
 10
107.4999999999999
 20
60.0
 30
0.0
 11
107.8
 21
60.0
 31
0.0
  0
LINE
  5
9F
330
1E
100
AcDbEntity
  8
0
100
AcDbLine
 10
107.4999999999999
 20
-0.0000000000000059
 30
0.0
 11
107.8629999999999
 21
0.0262499999999943
 31
0.0
  0
LINE
  5
A0
330
1E
100
AcDbEntity
  8
0
100
AcDbLine
 10
107.4999999999999
 20
-0.0000000000000059
 30
0.0
 11
107.4999999999999
 21
60.0
 31
0.0
  0
LINE
  5
A1
330
1E
100
AcDbEntity
  8
0
100
AcDbLine
 10
109.776
 20
0.476039999999994
 30
0.0
 11
111.276
 21
1.15072999999999
 31
0.0
  0
LINE
  5
A2
330
1E
100
AcDbEntity
  8
0
100
AcDbLine
 10
111.2999999999999
 20
60.0
 30
0.0
 11
113.1
 21
60.0
 31
0.0
  0
LINE
  5
A3
330
1E
100
AcDbEntity
  8
0
100
AcDbLine
 10
111.276
 20
1.15072999999999
 30
0.0
 11
113.077
 21
2.27519999999999
 31
0.0
  0
LINE
  5
A4
330
1E
100
AcDbEntity
  8
0
100
AcDbLine
 10
109.776
 20
0.476039999999994
 30
0.0
 11
111.276
 21
1.15072999999999
 31
0.0
  0
LINE
  5
A5
330
1E
100
AcDbEntity
  8
0
100
AcDbLine
 10
109.6999999999999
 20
60.0
 30
0.0
 11
111.2999999999999
 21
60.0
 31
0.0
  0
LINE
  5
A6
330
1E
100
AcDbEntity
  8
0
100
AcDbLine
 10
108.6
 20
60.0
 30
0.0
 11
110.4999999999999
 21
60.0
 31
0.0
  0
LINE
  5
A7
330
1E
100
AcDbEntity
  8
0
100
AcDbLine
 10
110.4999999999999
 20
60.0
 30
0.0
 11
112.7
 21
60.0
 31
0.0
  0
LINE
  5
A8
330
1E
100
AcDbEntity
  8
0
100
AcDbLine
 10
107.2
 20
60.0
 30
0.0
 11
108.6
 21
60.0
 31
0.0
  0
LINE
  5
A9
330
1E
100
AcDbEntity
  8
0
100
AcDbLine
 10
107.2
 20
60.0
 30
0.0
 11
107.4999999999999
 21
60.0
 31
0.0
  0
LINE
  5
AA
330
1E
100
AcDbEntity
  8
0
100
AcDbLine
 10
106.2999999999999
 20
60.0
 30
0.0
 11
107.2
 21
60.0
 31
0.0
  0
LINE
  5
AB
330
1E
100
AcDbEntity
  8
0
100
AcDbLine
 10
113.077
 20
2.27519999999999
 30
0.0
 11
115.0279999999999
 21
4.26176999999999
 31
0.0
  0
LINE
  5
AC
330
1E
100
AcDbEntity
  8
0
100
AcDbLine
 10
113.1
 20
60.0
 30
0.0
 11
115.0
 21
60.0
 31
0.0
  0
LINE
  5
AD
330
1E
100
AcDbEntity
  8
0
100
AcDbLine
 10
113.077
 20
2.27519999999999
 30
0.0
 11
115.0279999999999
 21
4.261769999999999
 31
0.0
  0
LINE
  5
AE
330
1E
100
AcDbEntity
  8
0
100
AcDbLine
 10
115.0279999999999
 20
4.26176999999999
 30
0.0
 11
116.791
 21
5.61113999999999
 31
0.0
  0
LINE
  5
AF
330
1E
100
AcDbEntity
  8
0
100
AcDbLine
 10
116.791
 20
5.61113999999999
 30
0.0
 11
118.6289999999999
 21
6.81057999999999
 31
0.0
  0
LINE
  5
B0
330
1E
100
AcDbEntity
  8
0
100
AcDbLine
 10
115.0279999999999
 20
4.261769999999999
 30
0.0
 11
116.791
 21
5.61113999999999
 31
0.0
  0
LINE
  5
B1
330
1E
100
AcDbEntity
  8
0
100
AcDbLine
 10
116.791
 20
5.61113999999999
 30
0.0
 11
118.6289999999999
 21
6.81057999999999
 31
0.0
  0
LINE
  5
B2
330
1E
100
AcDbEntity
  8
0
100
AcDbLine
 10
116.9
 20
60.0
 30
0.0
 11
118.7
 21
60.0
 31
0.0
  0
LINE
  5
B3
330
1E
100
AcDbEntity
  8
0
100
AcDbLine
 10
118.7
 20
60.0
 30
0.0
 11
120.3
 21
60.0
 31
0.0
  0
LINE
  5
B4
330
1E
100
AcDbEntity
  8
0
100
AcDbLine
 10
118.6289999999999
 20
6.81057999999999
 30
0.0
 11
120.43
 21
8.01001999999999
 31
0.0
  0
LINE
  5
B5
330
1E
100
AcDbEntity
  8
0
100
AcDbLine
 10
120.3
 20
60.0
 30
0.0
 11
121.5
 21
60.0
 31
0.0
  0
LINE
  5
B6
330
1E
100
AcDbEntity
  8
0
100
AcDbLine
 10
120.43
 20
8.01001999999999
 30
0.0
 11
121.5179999999999
 21
9.05953
 31
0.0
  0
LINE
  5
B7
330
1E
100
AcDbEntity
  8
0
100
AcDbLine
 10
121.5
 20
60.0
 30
0.0
 11
122.1999999999999
 21
60.0
 31
0.0
  0
LINE
  5
B8
330
1E
100
AcDbEntity
  8
0
100
AcDbLine
 10
121.5179999999999
 20
9.05953
 30
0.0
 11
122.231
 21
9.77169999999999
 31
0.0
  0
LINE
  5
B9
330
1E
100
AcDbEntity
  8
0
100
AcDbLine
 10
122.1999999999999
 20
60.0
 30
0.0
 11
122.5
 21
60.0
 31
0.0
  0
LINE
  5
BA
330
1E
100
AcDbEntity
  8
0
100
AcDbLine
 10
122.5
 20
9.999999999999991
 30
0.0
 11
122.5
 21
60.0
 31
0.0
  0
LINE
  5
BB
330
1E
100
AcDbEntity
  8
0
100
AcDbLine
 10
122.231
 20
9.77169999999999
 30
0.0
 11
122.5
 21
9.999999999999991
 31
0.0
  0
LINE
  5
BC
330
1E
100
AcDbEntity
  8
0
100
AcDbLine
 10
121.4
 20
60.0
 30
0.0
 11
122.7999999999999
 21
60.0
 31
0.0
  0
LINE
  5
BD
330
1E
100
AcDbEntity
  8
0
100
AcDbLine
 10
119.5
 20
60.0
 30
0.0
 11
121.4
 21
60.0
 31
0.0
  0
LINE
  5
BE
330
1E
100
AcDbEntity
  8
0
100
AcDbLine
 10
117.3
 20
60.0
 30
0.0
 11
119.5
 21
60.0
 31
0.0
  0
LINE
  5
BF
330
1E
100
AcDbEntity
  8
0
100
AcDbLine
 10
115.0
 20
60.0
 30
0.0
 11
117.3
 21
60.0
 31
0.0
  0
LINE
  5
C0
330
1E
100
AcDbEntity
  8
0
100
AcDbLine
 10
115.0
 20
60.0
 30
0.0
 11
116.9
 21
60.0
 31
0.0
  0
LINE
  5
C1
330
1E
100
AcDbEntity
  8
0
100
AcDbLine
 10
122.5
 20
60.0
 30
0.0
 11
122.7999999999999
 21
60.0
 31
0.0
  0
LINE
  5
C2
330
1E
100
AcDbEntity
  8
0
100
AcDbLine
 10
122.5
 20
60.0
 30
0.0
 11
122.5
 21
10.0
 31
0.0
  0
LINE
  5
C3
330
1E
100
AcDbEntity
  8
0
100
AcDbLine
 10
124.0
 20
60.0
 30
0.0
 11
125.984197868599
 21
87.7787701603812
 31
0.0
  0
LINE
  5
C4
330
1E
100
AcDbEntity
  8
0
100
AcDbLine
 10
122.7999999999999
 20
60.0
 30
0.0
 11
123.7
 21
60.0
 31
0.0
  0
LINE
  5
C5
330
1E
100
AcDbEntity
  8
0
100
AcDbLine
 10
115.0
 20
85.6226
 30
0.0
 11
118.0
 21
85.77569999999999
 31
0.0
  0
LINE
  5
C6
330
1E
100
AcDbEntity
  8
0
100
AcDbLine
 10
118.0
 20
85.77569999999999
 30
0.0
 11
120.7
 21
86.19670000000001
 31
0.0
  0
LINE
  5
C7
330
1E
100
AcDbEntity
  8
0
100
AcDbLine
 10
115.0
 20
85.23999999999999
 30
0.0
 11
118.2
 21
85.43129999999999
 31
0.0
  0
LINE
  5
C8
330
1E
100
AcDbEntity
  8
0
100
AcDbLine
 10
118.2
 20
85.43129999999999
 30
0.0
 11
121.1999999999999
 21
85.8905
 31
0.0
  0
LINE
  5
C9
330
1E
100
AcDbEntity
  8
0
100
AcDbLine
 10
123.7
 20
60.0
 30
0.0
 11
124.0
 21
60.0
 31
0.0
  0
LINE
  5
CA
330
1E
100
AcDbEntity
  8
0
100
AcDbLine
 10
112.7
 20
60.0
 30
0.0
 11
115.0
 21
60.0
 31
0.0
  0
LINE
  5
CB
330
1E
100
AcDbEntity
  8
0
100
AcDbLine
 10
121.1999999999999
 20
85.8905
 30
0.0
 11
123.7999999999999
 21
86.65589999999999
 31
0.0
  0
LINE
  5
CC
330
1E
100
AcDbEntity
  8
0
100
AcDbLine
 10
112.0
 20
85.77569999999999
 30
0.0
 11
115.0
 21
85.6226
 31
0.0
  0
LINE
  5
CD
330
1E
100
AcDbEntity
  8
0
100
AcDbLine
 10
111.8
 20
85.43129999999999
 30
0.0
 11
115.0
 21
85.23999999999999
 31
0.0
  0
LINE
  5
CE
330
1E
100
AcDbEntity
  8
0
100
AcDbLine
 10
120.7
 20
86.19670000000001
 30
0.0
 11
123.0999999999999
 21
86.92379999999999
 31
0.0
  0
LINE
  5
CF
330
1E
100
AcDbEntity
  8
0
100
AcDbLine
 10
190.0
 20
85.93380000000001
 30
0.0
 11
197.462
 21
86.97499999999999
 31
0.0
  0
LINE
  5
D0
330
1E
100
AcDbEntity
  8
0
100
AcDbLine
 10
123.0999999999999
 20
86.92379999999999
 30
0.0
 11
125.0
 21
87.84220000000001
 31
0.0
  0
LINE
  5
D1
330
1E
100
AcDbEntity
  8
0
100
AcDbLine
 10
123.7999999999999
 20
86.65589999999999
 30
0.0
 11
125.8
 21
87.65089999999998
 31
0.0
  0
LINE
  5
D2
330
1E
100
AcDbEntity
  8
0
100
AcDbLine
 10
125.8
 20
87.65089999999998
 30
0.0
 11
127.0
 21
88.79890000000001
 31
0.0
  0
LINE
  5
D3
330
1E
100
AcDbEntity
  8
0
100
AcDbLine
 10
125.8
 20
87.65089999999998
 30
0.0
 11
126.2999999999999
 21
87.99799999999999
 31
0.0
  0
LINE
  5
D4
330
1E
100
AcDbEntity
  8
0
100
AcDbLine
 10
182.5379999999999
 20
86.97499999999999
 30
0.0
 11
190.0
 21
85.93380000000001
 31
0.0
  0
LINE
  5
D5
330
1E
100
AcDbEntity
  8
0
100
AcDbLine
 10
197.462
 20
86.97499999999999
 30
0.0
 11
204.49
 21
89.83819999999999
 31
0.0
  0
LINE
  5
D6
330
1E
100
AcDbEntity
  8
0
100
AcDbLine
 10
109.2999999999999
 20
86.19670000000001
 30
0.0
 11
112.0
 21
85.77569999999999
 31
0.0
  0
LINE
  5
D7
330
1E
100
AcDbEntity
  8
0
100
AcDbLine
 10
106.9
 20
86.92379999999999
 30
0.0
 11
109.2999999999999
 21
86.19670000000001
 31
0.0
  0
LINE
  5
D8
330
1E
100
AcDbEntity
  8
0
100
AcDbLine
 10
108.8
 20
85.8905
 30
0.0
 11
111.8
 21
85.43129999999999
 31
0.0
  0
LINE
  5
D9
330
1E
100
AcDbEntity
  8
0
100
AcDbLine
 10
106.2
 20
86.65589999999999
 30
0.0
 11
108.8
 21
85.8905
 31
0.0
  0
LINE
  5
DA
330
1E
100
AcDbEntity
  8
0
100
AcDbLine
 10
125.0
 20
87.84220000000001
 30
0.0
 11
126.0999999999999
 21
88.87539999999999
 31
0.0
  0
LINE
  5
DB
330
1E
100
AcDbEntity
  8
0
100
AcDbLine
 10
104.015802131401
 20
87.7787701603812
 30
0.0
 11
106.0
 21
60.0
 31
0.0
  0
LINE
  5
DC
330
1E
100
AcDbEntity
  8
0
100
AcDbLine
 10
115.0
 20
87.8531
 30
0.0
 11
117.7
 21
88.0061
 31
0.0
  0
LINE
  5
DD
330
1E
100
AcDbEntity
  8
0
100
AcDbLine
 10
117.7
 20
88.0061
 30
0.0
 11
120.1999999999999
 21
88.38880000000001
 31
0.0
  0
LINE
  5
DE
330
1E
100
AcDbEntity
  8
0
100
AcDbLine
 10
120.1999999999999
 20
88.38880000000001
 30
0.0
 11
122.3999999999999
 21
89.0394
 31
0.0
  0
LINE
  5
DF
330
1E
100
AcDbEntity
  8
0
100
AcDbLine
 10
126.2999999999999
 20
87.99799999999999
 30
0.0
 11
127.5
 21
89.22259999999999
 31
0.0
  0
LINE
  5
E0
330
1E
100
AcDbEntity
  8
0
100
AcDbLine
 10
112.2999999999999
 20
88.0061
 30
0.0
 11
115.0
 21
87.8531
 31
0.0
  0
LINE
  5
E1
330
1E
100
AcDbEntity
  8
0
100
AcDbLine
 10
122.3999999999999
 20
89.0394
 30
0.0
 11
124.0999999999999
 21
89.88129999999999
 31
0.0
  0
LINE
  5
E2
330
1E
100
AcDbEntity
  8
0
100
AcDbLine
 10
126.0999999999999
 20
88.87539999999999
 30
0.0
 11
126.5
 21
90.02349999999999
 31
0.0
  0
LINE
  5
E3
330
1E
100
AcDbEntity
  8
0
100
AcDbLine
 10
127.0
 20
88.79890000000001
 30
0.0
 11
127.5
 21
90.02349999999999
 31
0.0
  0
LINE
  5
E4
330
1E
100
AcDbEntity
  8
0
100
AcDbLine
 10
127.5
 20
89.22259999999999
 30
0.0
 11
128.0
 21
90.4854
 31
0.0
  0
LINE
  5
E5
330
1E
100
AcDbEntity
  8
0
100
AcDbLine
 10
175.5099999999999
 20
89.83819999999999
 30
0.0
 11
182.5379999999999
 21
86.97499999999999
 31
0.0
  0
LINE
  5
E6
330
1E
100
AcDbEntity
  8
0
100
AcDbLine
 10
124.0999999999999
 20
89.88129999999999
 30
0.0
 11
125.0999999999999
 21
90.838
 31
0.0
  0
LINE
  5
E7
330
1E
100
AcDbEntity
  8
0
100
AcDbLine
 10
204.49
 20
89.83819999999999
 30
0.0
 11
209.986153481494
 21
94.0
 31
0.0
  0
LINE
  5
E8
330
1E
100
AcDbEntity
  8
0
100
AcDbLine
 10
204.6629999999999
 20
89.4912
 30
0.0
 11
210.591908885237
 21
94.0
 31
0.0
  0
LINE
  5
E9
330
1E
100
AcDbEntity
  8
0
100
AcDbLine
 10
109.8
 20
88.38880000000001
 30
0.0
 11
112.2999999999999
 21
88.0061
 31
0.0
  0
LINE
  5
EA
330
1E
100
AcDbEntity
  8
0
100
AcDbLine
 10
107.6
 20
89.0394
 30
0.0
 11
109.8
 21
88.38880000000001
 31
0.0
  0
LINE
  5
EB
330
1E
100
AcDbEntity
  8
0
100
AcDbLine
 10
125.0999999999999
 20
90.838
 30
0.0
 11
125.461340688409
 21
91.77143333333331
 31
0.0
  0
LINE
  5
EC
330
1E
100
AcDbEntity
  8
0
100
AcDbLine
 10
128.0
 20
90.4854
 30
0.0
 11
128.0
 21
97.87649999999999
 31
0.0
  0
LINE
  5
ED
330
1E
100
AcDbEntity
  8
0
100
AcDbLine
 10
126.0999999999999
 20
91.1715
 30
0.0
 11
126.5
 21
90.02349999999999
 31
0.0
  0
LINE
  5
EE
330
1E
100
AcDbEntity
  8
0
100
AcDbLine
 10
105.9
 20
89.88129999999999
 30
0.0
 11
107.6
 21
89.0394
 31
0.0
  0
LINE
  5
EF
330
1E
100
AcDbEntity
  8
0
100
AcDbLine
 10
104.9
 20
90.838
 30
0.0
 11
105.9
 21
89.88129999999999
 31
0.0
  0
LINE
  5
F0
330
1E
100
AcDbEntity
  8
0
100
AcDbLine
 10
105.0
 20
87.84220000000001
 30
0.0
 11
106.9
 21
86.92379999999999
 31
0.0
  0
LINE
  5
F1
330
1E
100
AcDbEntity
  8
0
100
AcDbLine
 10
103.9
 20
88.87539999999999
 30
0.0
 11
105.0
 21
87.84220000000001
 31
0.0
  0
LINE
  5
F2
330
1E
100
AcDbEntity
  8
0
100
AcDbLine
 10
104.2
 20
87.65089999999998
 30
0.0
 11
106.2
 21
86.65589999999999
 31
0.0
  0
LINE
  5
F3
330
1E
100
AcDbEntity
  8
0
100
AcDbLine
 10
103.7
 20
87.99799999999999
 30
0.0
 11
104.2
 21
87.65089999999998
 31
0.0
  0
LINE
  5
F4
330
1E
100
AcDbEntity
  8
0
100
AcDbLine
 10
127.0
 20
91.2481
 30
0.0
 11
127.5
 21
90.02349999999999
 31
0.0
  0
LINE
  5
F5
330
1E
100
AcDbEntity
  8
0
100
AcDbLine
 10
103.9
 20
91.1715
 30
0.0
 11
105.0
 21
92.2048
 31
0.0
  0
LINE
  5
F6
330
1E
100
AcDbEntity
  8
0
100
AcDbLine
 10
103.4999999999999
 20
90.02349999999999
 30
0.0
 11
103.9
 21
91.1715
 31
0.0
  0
LINE
  5
F7
330
1E
100
AcDbEntity
  8
0
100
AcDbLine
 10
103.4999999999999
 20
90.02349999999999
 30
0.0
 11
103.9
 21
88.87539999999999
 31
0.0
  0
LINE
  5
F8
330
1E
100
AcDbEntity
  8
0
100
AcDbLine
 10
127.5
 20
91.7483
 30
0.0
 11
128.0
 21
90.4854
 31
0.0
  0
LINE
  5
F9
330
1E
100
AcDbEntity
  8
0
100
AcDbLine
 10
103.0
 20
91.2481
 30
0.0
 11
104.2
 21
92.3961
 31
0.0
  0
LINE
  5
FA
330
1E
100
AcDbEntity
  8
0
100
AcDbLine
 10
102.4999999999999
 20
90.02349999999999
 30
0.0
 11
103.0
 21
91.2481
 31
0.0
  0
LINE
  5
FB
330
1E
100
AcDbEntity
  8
0
100
AcDbLine
 10
102.4999999999999
 20
90.02349999999999
 30
0.0
 11
103.0
 21
88.79890000000001
 31
0.0
  0
LINE
  5
FC
330
1E
100
AcDbEntity
  8
0
100
AcDbLine
 10
102.4679999999999
 20
99.76600000000001
 30
0.0
 11
103.716
 21
100.96
 31
0.0
  0
LINE
  5
FD
330
1E
100
AcDbEntity
  8
0
100
AcDbLine
 10
125.0
 20
92.2048
 30
0.0
 11
126.0999999999999
 21
91.1715
 31
0.0
  0
LINE
  5
FE
330
1E
100
AcDbEntity
  8
0
100
AcDbLine
 10
104.5386593115909
 20
91.77143333333331
 30
0.0
 11
104.9
 21
90.838
 31
0.0
  0
LINE
  5
FF
330
1E
100
AcDbEntity
  8
0
100
AcDbLine
 10
125.8
 20
92.3961
 30
0.0
 11
127.0
 21
91.2481
 31
0.0
  0
LINE
  5
100
330
1E
100
AcDbEntity
  8
0
100
AcDbLine
 10
126.2999999999999
 20
92.9729
 30
0.0
 11
127.5
 21
91.7483
 31
0.0
  0
LINE
  5
101
330
1E
100
AcDbEntity
  8
0
100
AcDbLine
 10
105.0
 20
92.2048
 30
0.0
 11
106.9
 21
93.12319999999999
 31
0.0
  0
LINE
  5
102
330
1E
100
AcDbEntity
  8
0
100
AcDbLine
 10
104.2
 20
92.3961
 30
0.0
 11
106.2
 21
93.39109999999999
 31
0.0
  0
LINE
  5
103
330
1E
100
AcDbEntity
  8
0
100
AcDbLine
 10
103.716
 20
100.96
 30
0.0
 11
105.796
 21
102.015
 31
0.0
  0
LINE
  5
104
330
1E
100
AcDbEntity
  8
0
100
AcDbLine
 10
102.848
 20
138.7
 30
0.0
 11
105.088
 21
138.7
 31
0.0
  0
LINE
  5
105
330
1E
100
AcDbEntity
  8
0
100
AcDbLine
 10
102.848
 20
155.6999999999999
 30
0.0
 11
105.088
 21
155.6999999999999
 31
0.0
  0
LINE
  5
106
330
1E
100
AcDbEntity
  8
0
100
AcDbLine
 10
103.0
 20
140.0
 30
0.0
 11
103.0
 21
139.0
 31
0.0
  0
LINE
  5
107
330
1E
100
AcDbEntity
  8
0
100
AcDbLine
 10
103.0
 20
139.0
 30
0.0
 11
103.0
 21
140.0
 31
0.0
  0
LINE
  5
108
330
1E
100
AcDbEntity
  8
0
100
AcDbLine
 10
103.184
 20
139.0
 30
0.0
 11
105.3679999999999
 21
139.0
 31
0.0
  0
LINE
  5
109
330
1E
100
AcDbEntity
  8
0
100
AcDbLine
 10
103.184
 20
156.0
 30
0.0
 11
105.3679999999999
 21
156.0
 31
0.0
  0
LINE
  5
10A
330
1E
100
AcDbEntity
  8
0
100
AcDbLine
 10
102.848
 20
140.0
 30
0.0
 11
103.0
 21
140.0
 31
0.0
  0
LINE
  5
10B
330
1E
100
AcDbEntity
  8
0
100
AcDbLine
 10
102.848
 20
140.0
 30
0.0
 11
105.088
 21
140.0
 31
0.0
  0
LINE
  5
10C
330
1E
100
AcDbEntity
  8
0
100
AcDbLine
 10
102.4999999999999
 20
118.3
 30
0.0
 11
103.7
 21
121.5
 31
0.0
  0
LINE
  5
10D
330
1E
100
AcDbEntity
  8
0
100
AcDbLine
 10
123.0999999999999
 20
93.12319999999999
 30
0.0
 11
125.0
 21
92.2048
 31
0.0
  0
LINE
  5
10E
330
1E
100
AcDbEntity
  8
0
100
AcDbLine
 10
120.7
 20
93.8503
 30
0.0
 11
123.0999999999999
 21
93.12319999999999
 31
0.0
  0
LINE
  5
10F
330
1E
100
AcDbEntity
  8
0
100
AcDbLine
 10
123.7999999999999
 20
93.39109999999999
 30
0.0
 11
125.8
 21
92.3961
 31
0.0
  0
LINE
  5
110
330
1E
100
AcDbEntity
  8
0
100
AcDbLine
 10
170.0138465185059
 20
94.0
 30
0.0
 11
175.5099999999999
 21
89.83819999999999
 31
0.0
  0
LINE
  5
111
330
1E
100
AcDbEntity
  8
0
100
AcDbLine
 10
229.022
 20
94.0
 30
0.0
 11
229.674
 21
94.3088
 31
0.0
  0
LINE
  5
112
330
1E
100
AcDbEntity
  8
0
100
AcDbLine
 10
128.0
 20
94.0
 30
0.0
 11
229.022
 21
94.0
 31
0.0
  0
LINE
  5
113
330
1E
100
AcDbEntity
  8
0
100
AcDbLine
 10
250.084
 20
94.0
 30
0.0
 11
263.4739999999999
 21
94.0
 31
0.0
  0
LINE
  5
114
330
1E
100
AcDbEntity
  8
0
100
AcDbLine
 10
233.0
 20
94.0
 30
0.0
 11
247.053
 21
94.0
 31
0.0
  0
LINE
  5
115
330
1E
100
AcDbEntity
  8
0
100
AcDbLine
 10
233.0
 20
94.0
 30
0.0
 11
233.0
 21
94.8
 31
0.0
  0
LINE
  5
116
330
1E
100
AcDbEntity
  8
0
100
AcDbLine
 10
265.368
 20
94.0
 30
0.0
 11
265.7469999999999
 21
94.40000000000001
 31
0.0
  0
LINE
  5
117
330
1E
100
AcDbEntity
  8
0
100
AcDbLine
 10
265.368
 20
94.0
 30
0.0
 11
265.3939999999999
 21
97.36
 31
0.0
  0
LINE
  5
118
330
1E
100
AcDbEntity
  8
0
100
AcDbLine
 10
263.4739999999999
 20
94.0
 30
0.0
 11
265.368
 21
94.0
 31
0.0
  0
LINE
  5
119
330
1E
100
AcDbEntity
  8
0
100
AcDbLine
 10
124.1999999999999
 20
94.0061
 30
0.0
 11
126.2999999999999
 21
92.9729
 31
0.0
  0
LINE
  5
11A
330
1E
100
AcDbEntity
  8
0
100
AcDbLine
 10
247.053
 20
94.0
 30
0.0
 11
250.084
 21
94.0
 31
0.0
  0
LINE
  5
11B
330
1E
100
AcDbEntity
  8
0
100
AcDbLine
 10
109.2999999999999
 20
93.8503
 30
0.0
 11
112.0
 21
94.2713
 31
0.0
  0
LINE
  5
11C
330
1E
100
AcDbEntity
  8
0
100
AcDbLine
 10
106.9
 20
93.12319999999999
 30
0.0
 11
109.2999999999999
 21
93.8503
 31
0.0
  0
LINE
  5
11D
330
1E
100
AcDbEntity
  8
0
100
AcDbLine
 10
106.2
 20
93.39109999999999
 30
0.0
 11
108.8
 21
94.15649999999999
 31
0.0
  0
LINE
  5
11E
330
1E
100
AcDbEntity
  8
0
100
AcDbLine
 10
104.0279999999999
 20
100.592
 30
0.0
 11
106.0559999999999
 21
101.607
 31
0.0
  0
LINE
  5
11F
330
1E
100
AcDbEntity
  8
0
100
AcDbLine
 10
105.088
 20
138.7
 30
0.0
 11
108.0559999999999
 21
138.7
 31
0.0
  0
LINE
  5
120
330
1E
100
AcDbEntity
  8
0
100
AcDbLine
 10
105.088
 20
155.6999999999999
 30
0.0
 11
108.0559999999999
 21
155.6999999999999
 31
0.0
  0
LINE
  5
121
330
1E
100
AcDbEntity
  8
0
100
AcDbLine
 10
105.3679999999999
 20
139.0
 30
0.0
 11
108.2239999999999
 21
139.0
 31
0.0
  0
LINE
  5
122
330
1E
100
AcDbEntity
  8
0
100
AcDbLine
 10
105.3679999999999
 20
156.0
 30
0.0
 11
108.2239999999999
 21
156.0
 31
0.0
  0
LINE
  5
123
330
1E
100
AcDbEntity
  8
0
100
AcDbLine
 10
105.088
 20
140.0
 30
0.0
 11
108.0559999999999
 21
140.0
 31
0.0
  0
LINE
  5
124
330
1E
100
AcDbEntity
  8
0
100
AcDbLine
 10
105.796
 20
102.015
 30
0.0
 11
108.552
 21
102.811
 31
0.0
  0
LINE
  5
125
330
1E
100
AcDbEntity
  8
0
100
AcDbLine
 10
118.0
 20
94.2713
 30
0.0
 11
120.7
 21
93.8503
 31
0.0
  0
LINE
  5
126
330
1E
100
AcDbEntity
  8
0
100
AcDbLine
 10
121.1999999999999
 20
94.15649999999999
 30
0.0
 11
123.7999999999999
 21
93.39109999999999
 31
0.0
  0
LINE
  5
127
330
1E
100
AcDbEntity
  8
0
100
AcDbLine
 10
229.674
 20
94.3088
 30
0.0
 11
230.0
 21
94.92650000000001
 31
0.0
  0
LINE
  5
128
330
1E
100
AcDbEntity
  8
0
100
AcDbLine
 10
229.674
 20
94.3088
 30
0.0
 11
229.674
 21
95.05
 31
0.0
  0
LINE
  5
129
330
1E
100
AcDbEntity
  8
0
100
AcDbLine
 10
115.0
 20
94.42440000000001
 30
0.0
 11
118.0
 21
94.2713
 31
0.0
  0
LINE
  5
12A
330
1E
100
AcDbEntity
  8
0
100
AcDbLine
 10
118.2
 20
94.6157
 30
0.0
 11
121.1999999999999
 21
94.15649999999999
 31
0.0
  0
LINE
  5
12B
330
1E
100
AcDbEntity
  8
0
100
AcDbLine
 10
265.7469999999999
 20
94.40000000000001
 30
0.0
 11
266.0
 21
95.0
 31
0.0
  0
LINE
  5
12C
330
1E
100
AcDbEntity
  8
0
100
AcDbLine
 10
112.0
 20
94.2713
 30
0.0
 11
115.0
 21
94.42440000000001
 31
0.0
  0
LINE
  5
12D
330
1E
100
AcDbEntity
  8
0
100
AcDbLine
 10
115.0
 20
94.807
 30
0.0
 11
118.2
 21
94.6157
 31
0.0
  0
LINE
  5
12E
330
1E
100
AcDbEntity
  8
0
100
AcDbLine
 10
121.5
 20
94.8098
 30
0.0
 11
124.1999999999999
 21
94.0061
 31
0.0
  0
LINE
  5
12F
330
1E
100
AcDbEntity
  8
0
100
AcDbLine
 10
233.0
 20
94.8
 30
0.0
 11
233.0
 21
96.80010000000001
 31
0.0
  0
LINE
  5
130
330
1E
100
AcDbEntity
  8
0
100
AcDbLine
 10
111.8
 20
94.6157
 30
0.0
 11
115.0
 21
94.807
 31
0.0
  0
LINE
  5
131
330
1E
100
AcDbEntity
  8
0
100
AcDbLine
 10
108.8
 20
94.15649999999999
 30
0.0
 11
111.8
 21
94.6157
 31
0.0
  0
LINE
  5
132
330
1E
100
AcDbEntity
  8
0
100
AcDbLine
 10
106.0559999999999
 20
101.607
 30
0.0
 11
108.708
 21
102.383
 31
0.0
  0
LINE
  5
133
330
1E
100
AcDbEntity
  8
0
100
AcDbLine
 10
108.552
 20
102.811
 30
0.0
 11
111.672
 21
103.288
 31
0.0
  0
LINE
  5
134
330
1E
100
AcDbEntity
  8
0
100
AcDbLine
 10
108.2239999999999
 20
139.0
 30
0.0
 11
111.472
 21
139.0
 31
0.0
  0
LINE
  5
135
330
1E
100
AcDbEntity
  8
0
100
AcDbLine
 10
108.0559999999999
 20
138.7
 30
0.0
 11
111.416
 21
138.7
 31
0.0
  0
LINE
  5
136
330
1E
100
AcDbEntity
  8
0
100
AcDbLine
 10
108.2239999999999
 20
156.0
 30
0.0
 11
111.472
 21
156.0
 31
0.0
  0
LINE
  5
137
330
1E
100
AcDbEntity
  8
0
100
AcDbLine
 10
108.0559999999999
 20
155.6999999999999
 30
0.0
 11
111.416
 21
155.6999999999999
 31
0.0
  0
LINE
  5
138
330
1E
100
AcDbEntity
  8
0
100
AcDbLine
 10
108.0559999999999
 20
140.0
 30
0.0
 11
111.416
 21
140.0
 31
0.0
  0
LINE
  5
139
330
1E
100
AcDbEntity
  8
0
100
AcDbLine
 10
105.8
 20
124.1999999999999
 30
0.0
 11
108.4999999999999
 21
126.2999999999999
 31
0.0
  0
LINE
  5
13A
330
1E
100
AcDbEntity
  8
0
100
AcDbLine
 10
108.708
 20
102.383
 30
0.0
 11
111.724
 21
102.861
 31
0.0
  0
LINE
  5
13B
330
1E
100
AcDbEntity
  8
0
100
AcDbLine
 10
230.0
 20
94.92650000000001
 30
0.0
 11
230.0
 21
95.6676
 31
0.0
  0
LINE
  5
13C
330
1E
100
AcDbEntity
  8
0
100
AcDbLine
 10
115.0
 20
95.4603
 30
0.0
 11
118.3
 21
95.26899999999999
 31
0.0
  0
LINE
  5
13D
330
1E
100
AcDbEntity
  8
0
100
AcDbLine
 10
118.3
 20
95.26899999999999
 30
0.0
 11
121.5
 21
94.8098
 31
0.0
  0
LINE
  5
13E
330
1E
100
AcDbEntity
  8
0
100
AcDbLine
 10
230.0
 20
95.6676
 30
0.0
 11
230.0
 21
97.64409999999999
 31
0.0
  0
LINE
  5
13F
330
1E
100
AcDbEntity
  8
0
100
AcDbLine
 10
230.0
 20
95.6676
 30
0.0
 11
230.0
 21
94.92650000000001
 31
0.0
  0
LINE
  5
140
330
1E
100
AcDbEntity
  8
0
100
AcDbLine
 10
229.674
 20
95.05
 30
0.0
 11
229.674
 21
97.08820000000001
 31
0.0
  0
LINE
  5
141
330
1E
100
AcDbEntity
  8
0
100
AcDbLine
 10
229.674
 20
95.05
 30
0.0
 11
229.674
 21
94.3088
 31
0.0
  0
LINE
  5
142
330
1E
100
AcDbEntity
  8
0
100
AcDbLine
 10
232.857
 20
95.68000000000001
 30
0.0
 11
233.0
 21
95.69438937500001
 31
0.0
  0
LINE
  5
143
330
1E
100
AcDbEntity
  8
0
100
AcDbLine
 10
230.0
 20
95.68000000000001
 30
0.0
 11
232.857
 21
95.68000000000001
 31
0.0
  0
LINE
  5
145
330
1E
100
AcDbEntity
  8
0
100
AcDbLine
 10
230.0
 20
97.64409999999999
 30
0.0
 11
230.0
 21
100.794
 31
0.0
  0
LINE
  5
146
330
1E
100
AcDbEntity
  8
0
100
AcDbLine
 10
230.0
 20
97.64409999999999
 30
0.0
 11
230.0
 21
95.6676
 31
0.0
  0
LINE
  5
147
330
1E
100
AcDbEntity
  8
0
100
AcDbLine
 10
229.674
 20
97.08820000000001
 30
0.0
 11
229.674
 21
100.362
 31
0.0
  0
LINE
  5
148
330
1E
100
AcDbEntity
  8
0
100
AcDbLine
 10
229.674
 20
97.08820000000001
 30
0.0
 11
229.674
 21
95.05
 31
0.0
  0
LINE
  5
149
330
1E
100
AcDbEntity
  8
0
100
AcDbLine
 10
233.0
 20
96.80010000000001
 30
0.0
 11
233.0
 21
100.2
 31
0.0
  0
LINE
  5
14F
330
1E
100
AcDbEntity
  8
0
100
AcDbLine
 10
127.532
 20
99.1501
 30
0.0
 11
128.0
 21
97.87649999999999
 31
0.0
  0
LINE
  5
150
330
1E
100
AcDbEntity
  8
0
100
AcDbLine
 10
128.0
 20
97.87649999999999
 30
0.0
 11
128.0
 21
90.4854
 31
0.0
  0
LINE
  5
151
330
1E
100
AcDbEntity
  8
0
100
AcDbLine
 10
128.0
 20
98.49240000000001
 30
0.0
 11
128.0
 21
102.089
 31
0.0
  0
LINE
  5
152
330
1E
100
AcDbEntity
  8
0
100
AcDbLine
 10
127.8868355384559
 20
98.18446209022029
 30
0.0
 11
128.0
 21
98.49240000000001
 31
0.0
  0
LINE
  5
153
330
1E
100
AcDbEntity
  8
0
100
AcDbLine
 10
127.532
 20
99.76600000000001
 30
0.0
 11
128.0
 21
98.49240000000001
 31
0.0
  0
LINE
  5
154
330
1E
100
AcDbEntity
  8
0
100
AcDbLine
 10
126.2839999999999
 20
100.3439999999999
 30
0.0
 11
127.532
 21
99.1501
 31
0.0
  0
LINE
  5
155
330
1E
100
AcDbEntity
  8
0
100
AcDbLine
 10
124.204
 20
101.3989999999999
 30
0.0
 11
126.2839999999999
 21
100.3439999999999
 31
0.0
  0
LINE
  5
156
330
1E
100
AcDbEntity
  8
0
100
AcDbLine
 10
125.972
 20
100.592
 30
0.0
 11
126.2839999999999
 21
100.3439999999999
 31
0.0
  0
LINE
  5
157
330
1E
100
AcDbEntity
  8
0
100
AcDbLine
 10
123.944
 20
101.607
 30
0.0
 11
125.972
 21
100.592
 31
0.0
  0
LINE
  5
158
330
1E
100
AcDbEntity
  8
0
100
AcDbLine
 10
124.204
 20
102.015
 30
0.0
 11
126.2839999999999
 21
100.96
 31
0.0
  0
LINE
  5
159
330
1E
100
AcDbEntity
  8
0
100
AcDbLine
 10
126.2839999999999
 20
100.96
 30
0.0
 11
127.532
 21
99.76600000000001
 31
0.0
  0
LINE
  5
15A
330
1E
100
AcDbEntity
  8
0
100
AcDbLine
 10
121.448
 20
102.1949999999999
 30
0.0
 11
124.204
 21
101.3989999999999
 31
0.0
  0
LINE
  5
15B
330
1E
100
AcDbEntity
  8
0
100
AcDbLine
 10
121.2919999999999
 20
102.383
 30
0.0
 11
123.944
 21
101.607
 31
0.0
  0
LINE
  5
15C
330
1E
100
AcDbEntity
  8
0
100
AcDbLine
 10
128.0
 20
102.089
 30
0.0
 11
128.0
 21
98.49240000000001
 31
0.0
  0
LINE
  5
15D
330
1E
100
AcDbEntity
  8
0
100
AcDbLine
 10
128.0
 20
102.089
 30
0.0
 11
128.0
 21
105.335
 31
0.0
  0
LINE
  5
15E
330
1E
100
AcDbEntity
  8
0
100
AcDbLine
 10
230.0
 20
100.794
 30
0.0
 11
230.0
 21
97.64409999999999
 31
0.0
  0
LINE
  5
15F
330
1E
100
AcDbEntity
  8
0
100
AcDbLine
 10
230.0
 20
100.794
 30
0.0
 11
230.0
 21
104.994
 31
0.0
  0
LINE
  5
160
330
1E
100
AcDbEntity
  8
0
100
AcDbLine
 10
229.674
 20
100.362
 30
0.0
 11
229.674
 21
97.08820000000001
 31
0.0
  0
LINE
  5
161
330
1E
100
AcDbEntity
  8
0
100
AcDbLine
 10
229.674
 20
100.362
 30
0.0
 11
229.674
 21
104.685
 31
0.0
  0
LINE
  5
162
330
1E
100
AcDbEntity
  8
0
100
AcDbLine
 10
233.0
 20
100.2
 30
0.0
 11
233.0
 21
104.6
 31
0.0
  0
LINE
  5
169
330
1E
100
AcDbEntity
  8
0
100
AcDbLine
 10
265.3939999999999
 20
97.36
 30
0.0
 11
265.3939999999999
 21
97.864
 31
0.0
  0
LINE
  5
16A
330
1E
100
AcDbEntity
  8
0
100
AcDbLine
 10
265.3939999999999
 20
97.864
 30
0.0
 11
265.3939999999999
 21
97.36
 31
0.0
  0
LINE
  5
16B
330
1E
100
AcDbEntity
  8
0
100
AcDbLine
 10
265.3939999999999
 20
97.864
 30
0.0
 11
265.3939999999999
 21
99.71200000000001
 31
0.0
  0
LINE
  5
16C
330
1E
100
AcDbEntity
  8
0
100
AcDbLine
 10
265.3939999999999
 20
99.71200000000001
 30
0.0
 11
265.3939999999999
 21
97.864
 31
0.0
  0
LINE
  5
16D
330
1E
100
AcDbEntity
  8
0
100
AcDbLine
 10
265.3939999999999
 20
99.71200000000001
 30
0.0
 11
265.3939999999999
 21
102.4
 31
0.0
  0
LINE
  5
16E
330
1E
100
AcDbEntity
  8
0
100
AcDbLine
 10
265.3939999999999
 20
102.4
 30
0.0
 11
265.3939999999999
 21
99.71200000000001
 31
0.0
  0
LINE
  5
16F
330
1E
100
AcDbEntity
  8
0
100
AcDbLine
 10
265.3939999999999
 20
102.4
 30
0.0
 11
265.3939999999999
 21
106.264
 31
0.0
  0
LINE
  5
172
330
1E
100
AcDbEntity
  8
0
100
AcDbLine
 10
118.3279999999999
 20
102.672
 30
0.0
 11
121.448
 21
102.1949999999999
 31
0.0
  0
LINE
  5
175
330
1E
100
AcDbEntity
  8
0
100
AcDbLine
 10
111.6999999999999
 20
95.26899999999999
 30
0.0
 11
115.0
 21
95.4603
 31
0.0
  0
LINE
  5
176
330
1E
100
AcDbEntity
  8
0
100
AcDbLine
 10
111.416
 20
138.7
 30
0.0
 11
115.0
 21
138.7
 31
0.0
  0
LINE
  5
177
330
1E
100
AcDbEntity
  8
0
100
AcDbLine
 10
111.416
 20
155.6999999999999
 30
0.0
 11
115.0
 21
155.6999999999999
 31
0.0
  0
LINE
  5
178
330
1E
100
AcDbEntity
  8
0
100
AcDbLine
 10
111.472
 20
139.0
 30
0.0
 11
115.0
 21
139.0
 31
0.0
  0
LINE
  5
179
330
1E
100
AcDbEntity
  8
0
100
AcDbLine
 10
111.472
 20
156.0
 30
0.0
 11
115.0
 21
156.0
 31
0.0
  0
LINE
  5
17A
330
1E
100
AcDbEntity
  8
0
100
AcDbLine
 10
111.416
 20
140.0
 30
0.0
 11
115.0
 21
140.0
 31
0.0
  0
LINE
  5
17B
330
1E
100
AcDbEntity
  8
0
100
AcDbLine
 10
111.672
 20
103.288
 30
0.0
 11
115.0
 21
103.467
 31
0.0
  0
LINE
  5
17C
330
1E
100
AcDbEntity
  8
0
100
AcDbLine
 10
115.0
 20
102.851
 30
0.0
 11
118.3279999999999
 21
102.672
 31
0.0
  0
LINE
  5
17D
330
1E
100
AcDbEntity
  8
0
100
AcDbLine
 10
115.0
 20
103.0399999999999
 30
0.0
 11
118.276
 21
102.861
 31
0.0
  0
LINE
  5
17E
330
1E
100
AcDbEntity
  8
0
100
AcDbLine
 10
118.276
 20
102.861
 30
0.0
 11
121.2919999999999
 21
102.383
 31
0.0
  0
LINE
  5
17F
330
1E
100
AcDbEntity
  8
0
100
AcDbLine
 10
115.0
 20
103.467
 30
0.0
 11
118.3279999999999
 21
103.288
 31
0.0
  0
LINE
  5
180
330
1E
100
AcDbEntity
  8
0
100
AcDbLine
 10
118.3279999999999
 20
103.288
 30
0.0
 11
121.448
 21
102.811
 31
0.0
  0
LINE
  5
181
330
1E
100
AcDbEntity
  8
0
100
AcDbLine
 10
121.448
 20
102.811
 30
0.0
 11
124.204
 21
102.015
 31
0.0
  0
LINE
  5
182
330
1E
100
AcDbEntity
  8
0
100
AcDbLine
 10
111.724
 20
102.861
 30
0.0
 11
115.0
 21
103.0399999999999
 31
0.0
  0
LINE
  5
183
330
1E
100
AcDbEntity
  8
0
100
AcDbLine
 10
128.0
 20
105.335
 30
0.0
 11
128.0
 21
108.1809999999999
 31
0.0
  0
LINE
  5
184
330
1E
100
AcDbEntity
  8
0
100
AcDbLine
 10
128.0
 20
105.335
 30
0.0
 11
128.0
 21
102.089
 31
0.0
  0
LINE
  5
185
330
1E
100
AcDbEntity
  8
0
100
AcDbLine
 10
128.0
 20
108.1809999999999
 30
0.0
 11
128.0
 21
105.335
 31
0.0
  0
LINE
  5
186
330
1E
100
AcDbEntity
  8
0
100
AcDbLine
 10
128.0
 20
108.1809999999999
 30
0.0
 11
128.0
 21
110.579
 31
0.0
  0
LINE
  5
187
330
1E
100
AcDbEntity
  8
0
100
AcDbLine
 10
230.0
 20
104.994
 30
0.0
 11
230.0
 21
109.812
 31
0.0
  0
LINE
  5
188
330
1E
100
AcDbEntity
  8
0
100
AcDbLine
 10
230.0
 20
104.994
 30
0.0
 11
230.0
 21
100.794
 31
0.0
  0
LINE
  5
189
330
1E
100
AcDbEntity
  8
0
100
AcDbLine
 10
229.674
 20
104.685
 30
0.0
 11
229.674
 21
109.6879999999999
 31
0.0
  0
LINE
  5
18A
330
1E
100
AcDbEntity
  8
0
100
AcDbLine
 10
229.674
 20
104.685
 30
0.0
 11
229.674
 21
100.362
 31
0.0
  0
LINE
  5
18B
330
1E
100
AcDbEntity
  8
0
100
AcDbLine
 10
233.0
 20
104.6
 30
0.0
 11
233.0
 21
109.5999999999999
 31
0.0
  0
LINE
  5
18C
330
1E
100
AcDbEntity
  8
0
100
AcDbLine
 10
128.0
 20
110.579
 30
0.0
 11
128.0
 21
108.1809999999999
 31
0.0
  0
LINE
  5
18D
330
1E
100
AcDbEntity
  8
0
100
AcDbLine
 10
128.0
 20
110.579
 30
0.0
 11
128.0
 21
112.488
 31
0.0
  0
LINE
  5
18E
330
1E
100
AcDbEntity
  8
0
100
AcDbLine
 10
128.0
 20
112.488
 30
0.0
 11
128.0
 21
110.579
 31
0.0
  0
LINE
  5
18F
330
1E
100
AcDbEntity
  8
0
100
AcDbLine
 10
128.0
 20
112.488
 30
0.0
 11
128.0
 21
113.8759999999999
 31
0.0
  0
LINE
  5
190
330
1E
100
AcDbEntity
  8
0
100
AcDbLine
 10
128.0
 20
115.0
 30
0.0
 11
128.0
 21
114.7179999999999
 31
0.0
  0
LINE
  5
191
330
1E
100
AcDbEntity
  8
0
100
AcDbLine
 10
128.0
 20
114.7179999999999
 30
0.0
 11
128.0
 21
115.0
 31
0.0
  0
LINE
  5
192
330
1E
100
AcDbEntity
  8
0
100
AcDbLine
 10
128.0
 20
114.7179999999999
 30
0.0
 11
128.0
 21
113.8759999999999
 31
0.0
  0
LINE
  5
193
330
1E
100
AcDbEntity
  8
0
100
AcDbLine
 10
128.0
 20
113.8759999999999
 30
0.0
 11
128.0
 21
114.7179999999999
 31
0.0
  0
LINE
  5
194
330
1E
100
AcDbEntity
  8
0
100
AcDbLine
 10
128.0
 20
113.8759999999999
 30
0.0
 11
128.0
 21
112.488
 31
0.0
  0
LINE
  5
195
330
1E
100
AcDbEntity
  8
0
100
AcDbLine
 10
127.978542078831
 20
114.8583777202859
 30
0.0
 11
128.0
 21
115.0
 31
0.0
  0
LINE
  5
196
330
1E
100
AcDbEntity
  8
0
100
AcDbLine
 10
229.674
 20
115.0
 30
0.0
 11
229.674
 21
109.6879999999999
 31
0.0
  0
LINE
  5
197
330
1E
100
AcDbEntity
  8
0
100
AcDbLine
 10
229.674
 20
115.0
 30
0.0
 11
229.674
 21
120.312
 31
0.0
  0
LINE
  5
198
330
1E
100
AcDbEntity
  8
0
100
AcDbLine
 10
230.0
 20
115.0
 30
0.0
 11
230.0
 21
109.812
 31
0.0
  0
LINE
  5
199
330
1E
100
AcDbEntity
  8
0
100
AcDbLine
 10
230.0
 20
115.0
 30
0.0
 11
230.0
 21
120.1879999999999
 31
0.0
  0
LINE
  5
19A
330
1E
100
AcDbEntity
  8
0
100
AcDbLine
 10
230.0
 20
109.812
 30
0.0
 11
230.0
 21
115.0
 31
0.0
  0
LINE
  5
19B
330
1E
100
AcDbEntity
  8
0
100
AcDbLine
 10
230.0
 20
109.812
 30
0.0
 11
230.0
 21
104.994
 31
0.0
  0
LINE
  5
19C
330
1E
100
AcDbEntity
  8
0
100
AcDbLine
 10
229.674
 20
109.6879999999999
 30
0.0
 11
229.674
 21
115.0
 31
0.0
  0
LINE
  5
19D
330
1E
100
AcDbEntity
  8
0
100
AcDbLine
 10
229.674
 20
109.6879999999999
 30
0.0
 11
229.674
 21
104.685
 31
0.0
  0
LINE
  5
19E
330
1E
100
AcDbEntity
  8
0
100
AcDbLine
 10
233.0
 20
109.5999999999999
 30
0.0
 11
233.0
 21
115.0
 31
0.0
  0
LINE
  5
1A8
330
1E
100
AcDbEntity
  8
0
100
AcDbLine
 10
233.0
 20
115.0
 30
0.0
 11
233.0
 21
120.4
 31
0.0
  0
LINE
  5
1AB
330
1E
100
AcDbEntity
  8
0
100
AcDbLine
 10
265.3939999999999
 20
106.264
 30
0.0
 11
265.3939999999999
 21
102.4
 31
0.0
  0
LINE
  5
1AC
330
1E
100
AcDbEntity
  8
0
100
AcDbLine
 10
265.3939999999999
 20
106.264
 30
0.0
 11
265.3939999999999
 21
110.464
 31
0.0
  0
LINE
  5
1AD
330
1E
100
AcDbEntity
  8
0
100
AcDbLine
 10
265.3939999999999
 20
110.464
 30
0.0
 11
265.3939999999999
 21
106.264
 31
0.0
  0
LINE
  5
1AE
330
1E
100
AcDbEntity
  8
0
100
AcDbLine
 10
265.3939999999999
 20
110.464
 30
0.0
 11
265.3939999999999
 21
115.0
 31
0.0
  0
LINE
  5
1B1
330
1E
100
AcDbEntity
  8
0
100
AcDbLine
 10
265.3939999999999
 20
115.0
 30
0.0
 11
265.3939999999999
 21
119.5359999999999
 31
0.0
  0
LINE
  5
1B2
330
1E
100
AcDbEntity
  8
0
100
AcDbLine
 10
265.3939999999999
 20
115.0
 30
0.0
 11
265.3939999999999
 21
110.464
 31
0.0
  0
LINE
  5
1B4
330
1E
100
AcDbEntity
  8
0
100
AcDbLine
 10
230.0
 20
120.1879999999999
 30
0.0
 11
230.0
 21
125.0059999999999
 31
0.0
  0
LINE
  5
1B5
330
1E
100
AcDbEntity
  8
0
100
AcDbLine
 10
230.0
 20
120.1879999999999
 30
0.0
 11
230.0
 21
115.0
 31
0.0
  0
LINE
  5
1B6
330
1E
100
AcDbEntity
  8
0
100
AcDbLine
 10
229.674
 20
120.312
 30
0.0
 11
229.674
 21
125.3149999999999
 31
0.0
  0
LINE
  5
1B7
330
1E
100
AcDbEntity
  8
0
100
AcDbLine
 10
229.674
 20
120.312
 30
0.0
 11
229.674
 21
115.0
 31
0.0
  0
LINE
  5
1B8
330
1E
100
AcDbEntity
  8
0
100
AcDbLine
 10
233.0
 20
120.4
 30
0.0
 11
233.0
 21
125.4
 31
0.0
  0
LINE
  5
1BA
330
1E
100
AcDbEntity
  8
0
100
AcDbLine
 10
126.2999999999999
 20
121.5
 30
0.0
 11
127.5
 21
118.3
 31
0.0
  0
LINE
  5
1BB
330
1E
100
AcDbEntity
  8
0
100
AcDbLine
 10
230.0
 20
125.0059999999999
 30
0.0
 11
230.0
 21
129.206
 31
0.0
  0
LINE
  5
1BC
330
1E
100
AcDbEntity
  8
0
100
AcDbLine
 10
230.0
 20
125.0059999999999
 30
0.0
 11
230.0
 21
120.1879999999999
 31
0.0
  0
LINE
  5
1BD
330
1E
100
AcDbEntity
  8
0
100
AcDbLine
 10
229.674
 20
125.3149999999999
 30
0.0
 11
229.674
 21
129.638
 31
0.0
  0
LINE
  5
1BE
330
1E
100
AcDbEntity
  8
0
100
AcDbLine
 10
229.674
 20
125.3149999999999
 30
0.0
 11
229.674
 21
120.312
 31
0.0
  0
LINE
  5
1BF
330
1E
100
AcDbEntity
  8
0
100
AcDbLine
 10
233.0
 20
125.4
 30
0.0
 11
233.0
 21
129.8
 31
0.0
  0
LINE
  5
1C0
330
1E
100
AcDbEntity
  8
0
100
AcDbLine
 10
115.0
 20
128.0
 30
0.0
 11
118.3
 21
127.5
 31
0.0
  0
LINE
  5
1C1
330
1E
100
AcDbEntity
  8
0
100
AcDbLine
 10
121.5
 20
126.2999999999999
 30
0.0
 11
124.1999999999999
 21
124.1999999999999
 31
0.0
  0
LINE
  5
1C2
330
1E
100
AcDbEntity
  8
0
100
AcDbLine
 10
230.0
 20
129.206
 30
0.0
 11
230.0
 21
132.356
 31
0.0
  0
LINE
  5
1C3
330
1E
100
AcDbEntity
  8
0
100
AcDbLine
 10
230.0
 20
129.206
 30
0.0
 11
230.0
 21
125.0059999999999
 31
0.0
  0
LINE
  5
1C4
330
1E
100
AcDbEntity
  8
0
100
AcDbLine
 10
229.674
 20
129.638
 30
0.0
 11
229.674
 21
132.912
 31
0.0
  0
LINE
  5
1C5
330
1E
100
AcDbEntity
  8
0
100
AcDbLine
 10
229.674
 20
129.638
 30
0.0
 11
229.674
 21
125.3149999999999
 31
0.0
  0
LINE
  5
1C6
330
1E
100
AcDbEntity
  8
0
100
AcDbLine
 10
233.0
 20
129.8
 30
0.0
 11
233.0
 21
133.1999999999999
 31
0.0
  0
LINE
  5
1D3
330
1E
100
AcDbEntity
  8
0
100
AcDbLine
 10
230.0
 20
132.356
 30
0.0
 11
230.0
 21
134.332
 31
0.0
  0
LINE
  5
1D4
330
1E
100
AcDbEntity
  8
0
100
AcDbLine
 10
230.0
 20
132.356
 30
0.0
 11
230.0
 21
129.206
 31
0.0
  0
LINE
  5
1D5
330
1E
100
AcDbEntity
  8
0
100
AcDbLine
 10
229.674
 20
132.912
 30
0.0
 11
229.674
 21
134.9499999999999
 31
0.0
  0
LINE
  5
1D6
330
1E
100
AcDbEntity
  8
0
100
AcDbLine
 10
229.674
 20
132.912
 30
0.0
 11
229.674
 21
129.638
 31
0.0
  0
LINE
  5
1D7
330
1E
100
AcDbEntity
  8
0
100
AcDbLine
 10
233.0
 20
133.1999999999999
 30
0.0
 11
233.0
 21
135.1999999999999
 31
0.0
  0
LINE
  5
1DB
330
1E
100
AcDbEntity
  8
0
100
AcDbLine
 10
232.857
 20
134.3199999999999
 30
0.0
 11
233.0
 21
134.3055927499999
 31
0.0
  0
LINE
  5
1DC
330
1E
100
AcDbEntity
  8
0
100
AcDbLine
 10
170.014060447924
 20
136.0
 30
0.0
 11
175.5099999999999
 21
140.162
 31
0.0
  0
LINE
  5
1DD
330
1E
100
AcDbEntity
  8
0
100
AcDbLine
 10
169.4074484525079
 20
136.0
 30
0.0
 11
175.337
 21
140.5089999999999
 31
0.0
  0
LINE
  5
1DE
330
1E
100
AcDbEntity
  8
0
100
AcDbLine
 10
229.674
 20
135.691
 30
0.0
 11
229.674
 21
134.9499999999999
 31
0.0
  0
LINE
  5
1DF
330
1E
100
AcDbEntity
  8
0
100
AcDbLine
 10
229.674
 20
135.691
 30
0.0
 11
230.0
 21
135.0739999999999
 31
0.0
  0
LINE
  5
1E0
330
1E
100
AcDbEntity
  8
0
100
AcDbLine
 10
230.0
 20
135.0739999999999
 30
0.0
 11
230.0
 21
134.332
 31
0.0
  0
LINE
  5
1E1
330
1E
100
AcDbEntity
  8
0
100
AcDbLine
 10
230.0
 20
134.332
 30
0.0
 11
230.0
 21
135.0739999999999
 31
0.0
  0
LINE
  5
1E2
330
1E
100
AcDbEntity
  8
0
100
AcDbLine
 10
230.0
 20
134.332
 30
0.0
 11
230.0
 21
132.356
 31
0.0
  0
LINE
  5
1E3
330
1E
100
AcDbEntity
  8
0
100
AcDbLine
 10
229.674
 20
134.9499999999999
 30
0.0
 11
229.674
 21
135.691
 31
0.0
  0
LINE
  5
1E4
330
1E
100
AcDbEntity
  8
0
100
AcDbLine
 10
229.674
 20
134.9499999999999
 30
0.0
 11
229.674
 21
132.912
 31
0.0
  0
LINE
  5
1E5
330
1E
100
AcDbEntity
  8
0
100
AcDbLine
 10
229.022
 20
136.0
 30
0.0
 11
229.674
 21
135.691
 31
0.0
  0
LINE
  5
1E6
330
1E
100
AcDbEntity
  8
0
100
AcDbLine
 10
129.0
 20
136.0
 30
0.0
 11
229.022
 21
136.0
 31
0.0
  0
LINE
  5
1E7
330
1E
100
AcDbEntity
  8
0
100
AcDbLine
 10
129.0
 20
136.0
 30
0.0
 11
129.0
 21
138.7
 31
0.0
  0
LINE
  5
1E8
330
1E
100
AcDbEntity
  8
0
100
AcDbLine
 10
230.0
 20
134.3199999999999
 30
0.0
 11
232.857
 21
134.3199999999999
 31
0.0
  0
LINE
  5
1E9
330
1E
100
AcDbEntity
  8
0
100
AcDbLine
 10
233.0
 20
135.1999999999999
 30
0.0
 11
233.0
 21
136.0
 31
0.0
  0
LINE
  5
1EA
330
1E
100
AcDbEntity
  8
0
100
AcDbLine
 10
118.5839999999999
 20
138.7
 30
0.0
 11
121.944
 21
138.7
 31
0.0
  0
LINE
  5
1EB
330
1E
100
AcDbEntity
  8
0
100
AcDbLine
 10
118.5279999999999
 20
139.0
 30
0.0
 11
121.776
 21
139.0
 31
0.0
  0
LINE
  5
1EC
330
1E
100
AcDbEntity
  8
0
100
AcDbLine
 10
115.0
 20
139.0
 30
0.0
 11
118.5279999999999
 21
139.0
 31
0.0
  0
LINE
  5
1ED
330
1E
100
AcDbEntity
  8
0
100
AcDbLine
 10
115.0
 20
138.7
 30
0.0
 11
118.5839999999999
 21
138.7
 31
0.0
  0
LINE
  5
1EE
330
1E
100
AcDbEntity
  8
0
100
AcDbLine
 10
124.912
 20
138.7
 30
0.0
 11
127.1519999999999
 21
138.7
 31
0.0
  0
LINE
  5
1EF
330
1E
100
AcDbEntity
  8
0
100
AcDbLine
 10
124.632
 20
139.0
 30
0.0
 11
126.8159999999999
 21
139.0
 31
0.0
  0
LINE
  5
1F0
330
1E
100
AcDbEntity
  8
0
100
AcDbLine
 10
121.776
 20
139.0
 30
0.0
 11
124.632
 21
139.0
 31
0.0
  0
LINE
  5
1F1
330
1E
100
AcDbEntity
  8
0
100
AcDbLine
 10
121.944
 20
138.7
 30
0.0
 11
124.912
 21
138.7
 31
0.0
  0
LINE
  5
1F2
330
1E
100
AcDbEntity
  8
0
100
AcDbLine
 10
127.0
 20
139.0
 30
0.0
 11
127.0
 21
140.0
 31
0.0
  0
LINE
  5
1F3
330
1E
100
AcDbEntity
  8
0
100
AcDbLine
 10
126.8159999999999
 20
139.0
 30
0.0
 11
128.16
 21
139.0
 31
0.0
  0
LINE
  5
1F4
330
1E
100
AcDbEntity
  8
0
100
AcDbLine
 10
128.16
 20
139.0
 30
0.0
 11
128.664
 21
139.0
 31
0.0
  0
LINE
  5
1F5
330
1E
100
AcDbEntity
  8
0
100
AcDbLine
 10
128.496
 20
138.7
 30
0.0
 11
129.0
 21
138.7
 31
0.0
  0
LINE
  5
1F6
330
1E
100
AcDbEntity
  8
0
100
AcDbLine
 10
127.1519999999999
 20
138.7
 30
0.0
 11
128.496
 21
138.7
 31
0.0
  0
LINE
  5
1F7
330
1E
100
AcDbEntity
  8
0
100
AcDbLine
 10
127.0
 20
140.0
 30
0.0
 11
127.1519999999999
 21
140.0
 31
0.0
  0
LINE
  5
1F8
330
1E
100
AcDbEntity
  8
0
100
AcDbLine
 10
127.0
 20
140.0
 30
0.0
 11
127.0
 21
139.0
 31
0.0
  0
LINE
  5
1F9
330
1E
100
AcDbEntity
  8
0
100
AcDbLine
 10
129.0
 20
138.7
 30
0.0
 11
129.0
 21
136.0
 31
0.0
  0
LINE
  5
1FA
330
1E
100
AcDbEntity
  8
0
100
AcDbLine
 10
128.664
 20
139.0
 30
0.0
 11
129.0
 21
138.7
 31
0.0
  0
LINE
  5
1FB
330
1E
100
AcDbEntity
  8
0
100
AcDbLine
 10
129.0
 20
140.0
 30
0.0
 11
129.0
 21
155.6999999999999
 31
0.0
  0
LINE
  5
1FC
330
1E
100
AcDbEntity
  8
0
100
AcDbLine
 10
128.496
 20
140.0
 30
0.0
 11
129.0
 21
140.0
 31
0.0
  0
LINE
  5
1FD
330
1E
100
AcDbEntity
  8
0
100
AcDbLine
 10
127.1519999999999
 20
140.0
 30
0.0
 11
128.496
 21
140.0
 31
0.0
  0
LINE
  5
1FE
330
1E
100
AcDbEntity
  8
0
100
AcDbLine
 10
124.912
 20
140.0
 30
0.0
 11
127.1519999999999
 21
140.0
 31
0.0
  0
LINE
  5
1FF
330
1E
100
AcDbEntity
  8
0
100
AcDbLine
 10
121.944
 20
140.0
 30
0.0
 11
124.912
 21
140.0
 31
0.0
  0
LINE
  5
200
330
1E
100
AcDbEntity
  8
0
100
AcDbLine
 10
118.5839999999999
 20
140.0
 30
0.0
 11
121.944
 21
140.0
 31
0.0
  0
LINE
  5
201
330
1E
100
AcDbEntity
  8
0
100
AcDbLine
 10
115.0
 20
140.0
 30
0.0
 11
118.5839999999999
 21
140.0
 31
0.0
  0
LINE
  5
202
330
1E
100
AcDbEntity
  8
0
100
AcDbLine
 10
175.5099999999999
 20
140.162
 30
0.0
 11
182.5379999999999
 21
143.025
 31
0.0
  0
LINE
  5
203
330
1E
100
AcDbEntity
  8
0
100
AcDbLine
 10
115.0
 20
156.0
 30
0.0
 11
118.5279999999999
 21
156.0
 31
0.0
  0
LINE
  5
204
330
1E
100
AcDbEntity
  8
0
100
AcDbLine
 10
129.0
 20
155.6999999999999
 30
0.0
 11
129.0
 21
140.0
 31
0.0
  0
LINE
  5
205
330
1E
100
AcDbEntity
  8
0
100
AcDbLine
 10
128.496
 20
155.6999999999999
 30
0.0
 11
129.0
 21
155.6999999999999
 31
0.0
  0
LINE
  5
206
330
1E
100
AcDbEntity
  8
0
100
AcDbLine
 10
127.1519999999999
 20
155.6999999999999
 30
0.0
 11
128.496
 21
155.6999999999999
 31
0.0
  0
LINE
  5
207
330
1E
100
AcDbEntity
  8
0
100
AcDbLine
 10
124.912
 20
155.6999999999999
 30
0.0
 11
127.1519999999999
 21
155.6999999999999
 31
0.0
  0
LINE
  5
208
330
1E
100
AcDbEntity
  8
0
100
AcDbLine
 10
121.944
 20
155.6999999999999
 30
0.0
 11
124.912
 21
155.6999999999999
 31
0.0
  0
LINE
  5
209
330
1E
100
AcDbEntity
  8
0
100
AcDbLine
 10
128.16
 20
156.0
 30
0.0
 11
128.664
 21
156.0
 31
0.0
  0
LINE
  5
20A
330
1E
100
AcDbEntity
  8
0
100
AcDbLine
 10
128.664
 20
156.0
 30
0.0
 11
129.0
 21
155.6999999999999
 31
0.0
  0
LINE
  5
20B
330
1E
100
AcDbEntity
  8
0
100
AcDbLine
 10
126.8159999999999
 20
156.0
 30
0.0
 11
128.16
 21
156.0
 31
0.0
  0
LINE
  5
20C
330
1E
100
AcDbEntity
  8
0
100
AcDbLine
 10
124.632
 20
156.0
 30
0.0
 11
126.8159999999999
 21
156.0
 31
0.0
  0
LINE
  5
20D
330
1E
100
AcDbEntity
  8
0
100
AcDbLine
 10
121.776
 20
156.0
 30
0.0
 11
124.632
 21
156.0
 31
0.0
  0
LINE
  5
20E
330
1E
100
AcDbEntity
  8
0
100
AcDbLine
 10
118.5279999999999
 20
156.0
 30
0.0
 11
121.776
 21
156.0
 31
0.0
  0
LINE
  5
20F
330
1E
100
AcDbEntity
  8
0
100
AcDbLine
 10
118.5839999999999
 20
155.6999999999999
 30
0.0
 11
121.944
 21
155.6999999999999
 31
0.0
  0
LINE
  5
210
330
1E
100
AcDbEntity
  8
0
100
AcDbLine
 10
115.0
 20
155.6999999999999
 30
0.0
 11
118.5839999999999
 21
155.6999999999999
 31
0.0
  0
LINE
  5
211
330
1E
100
AcDbEntity
  8
0
100
AcDbLine
 10
175.337
 20
140.5089999999999
 30
0.0
 11
182.4519999999999
 21
143.459
 31
0.0
  0
LINE
  5
212
330
1E
100
AcDbEntity
  8
0
100
AcDbLine
 10
204.49
 20
140.162
 30
0.0
 11
209.9859395520769
 21
136.0
 31
0.0
  0
LINE
  5
213
330
1E
100
AcDbEntity
  8
0
100
AcDbLine
 10
197.462
 20
143.025
 30
0.0
 11
204.49
 21
140.162
 31
0.0
  0
LINE
  5
214
330
1E
100
AcDbEntity
  8
0
100
AcDbLine
 10
204.6629999999999
 20
140.5089999999999
 30
0.0
 11
210.5925515474919
 21
136.0
 31
0.0
  0
LINE
  5
215
330
1E
100
AcDbEntity
  8
0
100
AcDbLine
 10
190.0
 20
144.066
 30
0.0
 11
197.462
 21
143.025
 31
0.0
  0
LINE
  5
216
330
1E
100
AcDbEntity
  8
0
100
AcDbLine
 10
197.548
 20
143.459
 30
0.0
 11
204.6629999999999
 21
140.5089999999999
 31
0.0
  0
LINE
  5
217
330
1E
100
AcDbEntity
  8
0
100
AcDbLine
 10
182.5379999999999
 20
143.025
 30
0.0
 11
190.0
 21
144.066
 31
0.0
  0
LINE
  5
218
330
1E
100
AcDbEntity
  8
0
100
AcDbLine
 10
190.0
 20
144.5
 30
0.0
 11
197.548
 21
143.459
 31
0.0
  0
LINE
  5
219
330
1E
100
AcDbEntity
  8
0
100
AcDbLine
 10
182.4519999999999
 20
143.459
 30
0.0
 11
190.0
 21
144.5
 31
0.0
  0
LINE
  5
21A
330
1E
100
AcDbEntity
  8
0
100
AcDbLine
 10
233.0
 20
136.0
 30
0.0
 11
247.053
 21
136.0
 31
0.0
  0
LINE
  5
21B
330
1E
100
AcDbEntity
  8
0
100
AcDbLine
 10
250.084
 20
136.0
 30
0.0
 11
263.4739999999999
 21
136.0
 31
0.0
  0
LINE
  5
21C
330
1E
100
AcDbEntity
  8
0
100
AcDbLine
 10
263.4739999999999
 20
136.0
 30
0.0
 11
265.368
 21
136.0
 31
0.0
  0
LINE
  5
21D
330
1E
100
AcDbEntity
  8
0
100
AcDbLine
 10
247.053
 20
136.0
 30
0.0
 11
250.084
 21
136.0
 31
0.0
  0
LINE
  5
225
330
1E
100
AcDbEntity
  8
0
100
AcDbLine
 10
265.368
 20
136.0
 30
0.0
 11
265.7469999999999
 21
135.5999999999999
 31
0.0
  0
LINE
  5
226
330
1E
100
AcDbEntity
  8
0
100
AcDbLine
 10
265.368
 20
136.0
 30
0.0
 11
265.3939999999999
 21
132.6399999999999
 31
0.0
  0
LINE
  5
227
330
1E
100
AcDbEntity
  8
0
100
AcDbLine
 10
265.3939999999999
 20
132.6399999999999
 30
0.0
 11
265.3939999999999
 21
132.136
 31
0.0
  0
LINE
  5
228
330
1E
100
AcDbEntity
  8
0
100
AcDbLine
 10
265.3939999999999
 20
132.136
 30
0.0
 11
265.3939999999999
 21
130.2879999999999
 31
0.0
  0
LINE
  5
229
330
1E
100
AcDbEntity
  8
0
100
AcDbLine
 10
265.3939999999999
 20
132.136
 30
0.0
 11
265.3939999999999
 21
132.6399999999999
 31
0.0
  0
LINE
  5
22A
330
1E
100
AcDbEntity
  8
0
100
AcDbLine
 10
265.3939999999999
 20
130.2879999999999
 30
0.0
 11
265.3939999999999
 21
127.6
 31
0.0
  0
LINE
  5
22B
330
1E
100
AcDbEntity
  8
0
100
AcDbLine
 10
265.3939999999999
 20
130.2879999999999
 30
0.0
 11
265.3939999999999
 21
132.136
 31
0.0
  0
LINE
  5
22C
330
1E
100
AcDbEntity
  8
0
100
AcDbLine
 10
265.3939999999999
 20
127.6
 30
0.0
 11
265.3939999999999
 21
123.736
 31
0.0
  0
LINE
  5
22D
330
1E
100
AcDbEntity
  8
0
100
AcDbLine
 10
265.3939999999999
 20
127.6
 30
0.0
 11
265.3939999999999
 21
130.2879999999999
 31
0.0
  0
LINE
  5
22E
330
1E
100
AcDbEntity
  8
0
100
AcDbLine
 10
265.7469999999999
 20
135.5999999999999
 30
0.0
 11
266.0
 21
135.0
 31
0.0
  0
LINE
  5
22F
330
1E
100
AcDbEntity
  8
0
100
AcDbLine
 10
265.3939999999999
 20
123.736
 30
0.0
 11
265.3939999999999
 21
119.5359999999999
 31
0.0
  0
LINE
  5
230
330
1E
100
AcDbEntity
  8
0
100
AcDbLine
 10
265.3939999999999
 20
123.736
 30
0.0
 11
265.3939999999999
 21
127.6
 31
0.0
  0
LINE
  5
231
330
1E
100
AcDbEntity
  8
0
100
AcDbLine
 10
265.3939999999999
 20
119.5359999999999
 30
0.0
 11
265.3939999999999
 21
115.0
 31
0.0
  0
LINE
  5
232
330
1E
100
AcDbEntity
  8
0
100
AcDbLine
 10
265.3939999999999
 20
119.5359999999999
 30
0.0
 11
265.3939999999999
 21
123.736
 31
0.0
  0
LINE
  5
236
330
1E
100
AcDbEntity
  8
0
100
AcDbLine
 10
111.6999999999999
 20
127.5
 30
0.0
 11
115.0
 21
128.0
 31
0.0
  0
LINE
  5
237
330
1E
100
AcDbEntity
  8
0
100
AcDbLine
 10
111.672
 20
102.672
 30
0.0
 11
115.0
 21
102.851
 31
0.0
  0
LINE
  5
238
330
1E
100
AcDbEntity
  8
0
100
AcDbLine
 10
108.552
 20
102.1949999999999
 30
0.0
 11
111.672
 21
102.672
 31
0.0
  0
LINE
  5
239
330
1E
100
AcDbEntity
  8
0
100
AcDbLine
 10
108.4999999999999
 20
94.8098
 30
0.0
 11
111.6999999999999
 21
95.26899999999999
 31
0.0
  0
LINE
  5
23A
330
1E
100
AcDbEntity
  8
0
100
AcDbLine
 10
105.796
 20
101.3989999999999
 30
0.0
 11
108.552
 21
102.1949999999999
 31
0.0
  0
LINE
  5
23B
330
1E
100
AcDbEntity
  8
0
100
AcDbLine
 10
105.8
 20
94.0061
 30
0.0
 11
108.4999999999999
 21
94.8098
 31
0.0
  0
LINE
  5
23C
330
1E
100
AcDbEntity
  8
0
100
AcDbLine
 10
103.716
 20
100.3439999999999
 30
0.0
 11
105.796
 21
101.3989999999999
 31
0.0
  0
LINE
  5
23D
330
1E
100
AcDbEntity
  8
0
100
AcDbLine
 10
103.716
 20
100.3439999999999
 30
0.0
 11
104.0279999999999
 21
100.592
 31
0.0
  0
LINE
  5
23E
330
1E
100
AcDbEntity
  8
0
100
AcDbLine
 10
103.7
 20
92.9729
 30
0.0
 11
105.8
 21
94.0061
 31
0.0
  0
LINE
  5
23F
330
1E
100
AcDbEntity
  8
0
100
AcDbLine
 10
102.4679999999999
 20
99.1501
 30
0.0
 11
103.716
 21
100.3439999999999
 31
0.0
  0
LINE
  5
240
330
1E
100
AcDbEntity
  8
0
100
AcDbLine
 10
102.4999999999999
 20
91.7483
 30
0.0
 11
103.7
 21
92.9729
 31
0.0
  0
LINE
  5
242
330
1E
100
AcDbEntity
  8
0
100
AcDbLine
 10
102.0
 20
115.0
 30
0.0
 11
102.0
 21
114.7179999999999
 31
0.0
  0
LINE
  5
247
330
1E
100
AcDbEntity
  8
0
100
AcDbLine
 10
32.4515
 20
143.459
 30
0.0
 11
40.0
 21
144.5
 31
0.0
  0
LINE
  5
248
330
1E
100
AcDbEntity
  8
0
100
AcDbLine
 10
25.3368
 20
89.4912
 30
0.0
 11
32.21758028985323
 21
86.70342185952568
 31
0.0
  0
LINE
  5
249
330
1E
100
AcDbEntity
  8
0
100
AcDbLine
 10
32.21758028985323
 20
86.70342185952568
 30
0.0
 11
40.06710809594267
 21
85.67126370866743
 31
0.0
  0
LINE
  5
24A
330
1E
100
AcDbEntity
  8
0
100
AcDbLine
 10
40.06710809594267
 20
85.67126370866743
 30
0.0
 11
47.54481683305743
 21
86.66213529924972
 31
0.0
  0
LINE
  5
24B
330
1E
100
AcDbEntity
  8
0
100
AcDbLine
 10
47.54481683305743
 20
86.66213529924972
 30
0.0
 11
54.6632
 21
89.4912
 31
0.0
  0
LINE
  5
24C
330
1E
100
AcDbEntity
  8
0
100
AcDbLine
 10
263.4739999999999
 20
136.0
 30
0.0
 11
256.274
 21
134.5739999999999
 31
0.0
  0
LINE
  5
24D
330
1E
100
AcDbEntity
  8
0
100
AcDbLine
 10
256.274
 20
134.5739999999999
 30
0.0
 11
252.7544808796444
 21
131.6948477479807
 31
0.0
  0
LINE
  5
24E
330
1E
100
AcDbEntity
  8
0
100
AcDbLine
 10
252.7544808796444
 20
131.6948477479807
 30
0.0
 11
249.2947957848582
 21
125.817224379635
 31
0.0
  0
LINE
  5
24F
330
1E
100
AcDbEntity
  8
0
100
AcDbLine
 10
249.2947957848582
 20
125.817224379635
 30
0.0
 11
248.442
 21
120.4
 31
0.0
  0
LINE
  5
250
330
1E
100
AcDbEntity
  8
0
100
AcDbLine
 10
248.442
 20
120.4
 30
0.0
 11
248.442
 21
109.5999999999999
 31
0.0
  0
LINE
  5
251
330
1E
100
AcDbEntity
  8
0
100
AcDbLine
 10
248.442
 20
109.5999999999999
 30
0.0
 11
249.5023772196384
 21
104.519482501154
 31
0.0
  0
LINE
  5
252
330
1E
100
AcDbEntity
  8
0
100
AcDbLine
 10
249.5023772196384
 20
104.519482501154
 30
0.0
 11
252.6852868187381
 21
98.01952217486331
 31
0.0
  0
LINE
  5
253
330
1E
100
AcDbEntity
  8
0
100
AcDbLine
 10
252.6852868187381
 20
98.01952217486331
 30
0.0
 11
256.274
 21
95.4259
 31
0.0
  0
LINE
  5
254
330
1E
100
AcDbEntity
  8
0
100
AcDbLine
 10
256.274
 20
95.4259
 30
0.0
 11
265.368
 21
94.0
 31
0.0
  0
LINE
  5
256
330
1E
100
AcDbEntity
  8
0
100
AcDbLine
 10
266.0
 20
135.0
 30
0.0
 11
266.0
 21
95.0
 31
0.0
  0
LINE
  5
257
330
1E
100
AcDbEntity
  8
0
100
AcDbLine
 10
204.6629999999999
 20
89.4912
 30
0.0
 11
197.6764182686504
 21
86.72872252308549
 31
0.0
  0
LINE
  5
258
330
1E
100
AcDbEntity
  8
0
100
AcDbLine
 10
197.6764182686504
 20
86.72872252308549
 30
0.0
 11
190.1198625726576
 21
85.56980997662646
 31
0.0
  0
LINE
  5
259
330
1E
100
AcDbEntity
  8
0
100
AcDbLine
 10
190.1198625726576
 20
85.56980997662646
 30
0.0
 11
182.2640371219902
 21
86.65395367653763
 31
0.0
  0
LINE
  5
25A
330
1E
100
AcDbEntity
  8
0
100
AcDbLine
 10
182.2640371219902
 20
86.65395367653763
 30
0.0
 11
175.3808372521072
 21
89.53254237354498
 31
0.0
  0
LINE
  5
25B
330
1E
100
AcDbEntity
  8
0
100
AcDbLine
 10
175.3808372521072
 20
89.53254237354498
 30
0.0
 11
169.7321245593027
 21
93.94388565373487
 31
0.0
  0
LINE
  5
25C
330
1E
100
AcDbEntity
  8
0
100
AcDbLine
 10
102.0
 20
115.0
 30
0.0
 11
102.4999999999999
 21
118.3
 31
0.0
  0
LINE
  5
25D
330
1E
100
AcDbEntity
  8
0
100
AcDbLine
 10
103.7
 20
121.5
 30
0.0
 11
105.8
 21
124.1999999999999
 31
0.0
  0
LINE
  5
25E
330
1E
100
AcDbEntity
  8
0
100
AcDbLine
 10
108.4999999999999
 20
126.2999999999999
 30
0.0
 11
111.6999999999999
 21
127.5
 31
0.0
  0
LINE
  5
25F
330
1E
100
AcDbEntity
  8
0
100
AcDbLine
 10
118.3
 20
127.5
 30
0.0
 11
121.5
 21
126.2999999999999
 31
0.0
  0
LINE
  5
260
330
1E
100
AcDbEntity
  8
0
100
AcDbLine
 10
124.1999999999999
 20
124.1999999999999
 30
0.0
 11
126.2999999999999
 21
121.5
 31
0.0
  0
LINE
  5
261
330
1E
100
AcDbEntity
  8
0
100
AcDbLine
 10
127.5
 20
118.3
 30
0.0
 11
128.0
 21
115.0
 31
0.0
  0
ENDSEC
  0
SECTION
  2
OBJECTS
  0
DICTIONARY
  5
C
330
0
100
AcDbDictionary
281
     1
  3
ACAD_GROUP
350
D
  3
ACAD_LAYOUT
350
19
  3
ACAD_MLINESTYLE
350
16
  3
ACAD_PLOTSETTINGS
350
18
  3
ACAD_PLOTSTYLENAME
350
E
  3
AcDbVariableDictionary
350
262
  0
DICTIONARY
  5
D
102
{ACAD_REACTORS
330
C
102
}
330
C
100
AcDbDictionary
281
     1
  0
DICTIONARY
  5
19
102
{ACAD_REACTORS
330
C
102
}
330
C
100
AcDbDictionary
281
     1
  3
Layout1
350
1D
  3
Model
350
21
  0
DICTIONARY
  5
16
102
{ACAD_REACTORS
330
C
102
}
330
C
100
AcDbDictionary
281
     1
  3
Standard
350
17
  0
DICTIONARY
  5
18
102
{ACAD_REACTORS
330
C
102
}
330
C
100
AcDbDictionary
281
     1
  0
ACDBDICTIONARYWDFLT
  5
E
102
{ACAD_REACTORS
330
C
102
}
330
C
100
AcDbDictionary
281
     1
  3
Normal
350
F
100
AcDbDictionaryWithDefault
340
F
  0
DICTIONARY
  5
262
102
{ACAD_REACTORS
330
C
102
}
330
C
100
AcDbDictionary
281
     1
  3
DIMASSOC
350
263
  0
LAYOUT
  5
1D
102
{ACAD_REACTORS
330
19
102
}
330
19
100
AcDbPlotSettings
  1

  2
hp deskjet 980c series
  4

  6

 40
0.0
 41
0.0
 42
0.0
 43
0.0
 44
0.0
 45
0.0
 46
0.0
 47
0.0
 48
0.0
 49
0.0
140
0.0
141
0.0
142
1.0
143
1.0
 70
   688
 72
     0
 73
     0
 74
     5
  7

 75
    16
147
1.0
148
0.0
149
0.0
100
AcDbLayout
  1
Layout1
 70
     1
 71
     1
 10
0.0
 20
0.0
 11
12.0
 21
9.0
 12
0.0
 22
0.0
 32
0.0
 14
1.000000000000000E+20
 24
1.000000000000000E+20
 34
1.000000000000000E+20
 15
-1.000000000000000E+20
 25
-1.000000000000000E+20
 35
-1.000000000000000E+20
146
0.0
 13
0.0
 23
0.0
 33
0.0
 16
1.0
 26
0.0
 36
0.0
 17
0.0
 27
1.0
 37
0.0
 76
     0
330
1A
  0
LAYOUT
  5
21
102
{ACAD_REACTORS
330
19
102
}
330
19
100
AcDbPlotSettings
  1

  2
hp deskjet 980c series
  4

  6

 40
0.0
 41
0.0
 42
0.0
 43
0.0
 44
0.0
 45
0.0
 46
0.0
 47
0.0
 48
0.0
 49
0.0
140
0.0
141
0.0
142
1.0
143
1.0
 70
  1712
 72
     0
 73
     0
 74
     0
  7

 75
     0
147
1.0
148
0.0
149
0.0
100
AcDbLayout
  1
Model
 70
     1
 71
     0
 10
0.0
 20
0.0
 11
12.0
 21
9.0
 12
0.0
 22
0.0
 32
0.0
 14
0.0
 24
0.0
 34
0.0
 15
0.0
 25
0.0
 35
0.0
146
0.0
 13
0.0
 23
0.0
 33
0.0
 16
1.0
 26
0.0
 36
0.0
 17
0.0
 27
1.0
 37
0.0
 76
     0
330
1E
  0
MLINESTYLE
  5
17
102
{ACAD_REACTORS
330
16
102
}
330
16
100
AcDbMlineStyle
  2
STANDARD
 70
     0
  3

 62
   256
 51
90.0
 52
90.0
 71
     2
 49
0.5
 62
   256
  6
BYLAYER
 49
-0.5
 62
   256
  6
BYLAYER
  0
ACDBPLACEHOLDER
  5
F
102
{ACAD_REACTORS
330
E
102
}
330
E
  0
DICTIONARYVAR
  5
263
102
{ACAD_REACTORS
330
262
102
}
330
262
100
DictionaryVariables
280
     0
  1
1
  0
ENDSEC
  0
EOF
