  0
SECTION
  2
HEADER
  9
$ACADVER
  1
AC1015
  9
$ACADMAINTVER
 70
    13
  9
$DWGCODEPAGE
  3
ANSI_1252
  9
$INSBASE
 10
0.0
 20
0.0
 30
0.0
  9
$EXTMIN
 10
0.0000029999999941
 20
-0.137625999999993
 30
0.0
  9
$EXTMAX
 10
194.999997
 20
98.137626
 30
0.0
  9
$LIMMIN
 10
0.0
 20
0.0
  9
$LIMMAX
 10
12.0
 20
9.0
  9
$ORTHOMODE
 70
     0
  9
$REGENMODE
 70
     1
  9
$FILLMODE
 70
     1
  9
$QTEXTMODE
 70
     0
  9
$MIRRTEXT
 70
     1
  9
$LTSCALE
 40
1.0
  9
$ATTMODE
 70
     1
  9
$TEXTSIZE
 40
0.2
  9
$TRACEWID
 40
0.05
  9
$TEXTSTYLE
  7
Standard
  9
$CLAYER
  8
0
  9
$CELTYPE
  6
Continuous
  9
$CECOLOR
 62
   256
  9
$CELTSCALE
 40
1.0
  9
$DISPSILH
 70
     0
  9
$DIMSCALE
 40
1.0
  9
$DIMASZ
 40
0.18
  9
$DIMEXO
 40
0.0625
  9
$DIMDLI
 40
0.38
  9
$DIMRND
 40
0.0
  9
$DIMDLE
 40
0.0
  9
$DIMEXE
 40
0.18
  9
$DIMTP
 40
0.0
  9
$DIMTM
 40
0.0
  9
$DIMTXT
 40
0.18
  9
$DIMCEN
 40
0.09
  9
$DIMTSZ
 40
0.0
  9
$DIMTOL
 70
     0
  9
$DIMLIM
 70
     0
  9
$DIMTIH
 70
     1
  9
$DIMTOH
 70
     1
  9
$DIMSE1
 70
     0
  9
$DIMSE2
 70
     0
  9
$DIMTAD
 70
     0
  9
$DIMZIN
 70
     0
  9
$DIMBLK
  1

  9
$DIMASO
 70
     1
  9
$DIMSHO
 70
     1
  9
$DIMPOST
  1

  9
$DIMAPOST
  1

  9
$DIMALT
 70
     0
  9
$DIMALTD
 70
     2
  9
$DIMALTF
 40
25.4
  9
$DIMLFAC
 40
1.0
  9
$DIMTOFL
 70
     0
  9
$DIMTVP
 40
0.0
  9
$DIMTIX
 70
     0
  9
$DIMSOXD
 70
     0
  9
$DIMSAH
 70
     0
  9
$DIMBLK1
  1

  9
$DIMBLK2
  1

  9
$DIMSTYLE
  2
Standard
  9
$DIMCLRD
 70
     0
  9
$DIMCLRE
 70
     0
  9
$DIMCLRT
 70
     0
  9
$DIMTFAC
 40
1.0
  9
$DIMGAP
 40
0.09
  9
$DIMJUST
 70
     0
  9
$DIMSD1
 70
     0
  9
$DIMSD2
 70
     0
  9
$DIMTOLJ
 70
     1
  9
$DIMTZIN
 70
     0
  9
$DIMALTZ
 70
     0
  9
$DIMALTTZ
 70
     0
  9
$DIMUPT
 70
     0
  9
$DIMDEC
 70
     4
  9
$DIMTDEC
 70
     4
  9
$DIMALTU
 70
     2
  9
$DIMALTTD
 70
     2
  9
$DIMTXSTY
  7
Standard
  9
$DIMAUNIT
 70
     0
  9
$DIMADEC
 70
     0
  9
$DIMALTRND
 40
0.0
  9
$DIMAZIN
 70
     0
  9
$DIMDSEP
 70
    46
  9
$DIMATFIT
 70
     3
  9
$DIMFRAC
 70
     0
  9
$DIMLDRBLK
  1

  9
$DIMLUNIT
 70
     2
  9
$DIMLWD
 70
    -2
  9
$DIMLWE
 70
    -2
  9
$DIMTMOVE
 70
     0
  9
$LUNITS
 70
     2
  9
$LUPREC
 70
     4
  9
$SKETCHINC
 40
0.1
  9
$FILLETRAD
 40
0.0
  9
$AUNITS
 70
     0
  9
$AUPREC
 70
     0
  9
$MENU
  1
.
  9
$ELEVATION
 40
0.0
  9
$PELEVATION
 40
0.0
  9
$THICKNESS
 40
0.0
  9
$LIMCHECK
 70
     0
  9
$CHAMFERA
 40
0.0
  9
$CHAMFERB
 40
0.0
  9
$CHAMFERC
 40
0.0
  9
$CHAMFERD
 40
0.0
  9
$SKPOLY
 70
     0
  9
$TDCREATE
 40
2454637.716026805
  9
$TDUCREATE
 40
2454637.632693472
  9
$TDUPDATE
 40
2454637.766800821
  9
$TDUUPDATE
 40
2454637.683467488
  9
$TDINDWG
 40
0.0507742014
  9
$TDUSRTIMER
 40
0.0507742014
  9
$USRTIMER
 70
     1
  9
$ANGBASE
 50
0.0
  9
$ANGDIR
 70
     0
  9
$PDMODE
 70
     0
  9
$PDSIZE
 40
0.0
  9
$PLINEWID
 40
0.0
  9
$SPLFRAME
 70
     0
  9
$SPLINETYPE
 70
     6
  9
$SPLINESEGS
 70
     8
  9
$HANDSEED
  5
122
  9
$SURFTAB1
 70
     6
  9
$SURFTAB2
 70
     6
  9
$SURFTYPE
 70
     6
  9
$SURFU
 70
     6
  9
$SURFV
 70
     6
  9
$UCSBASE
  2

  9
$UCSNAME
  2

  9
$UCSORG
 10
0.0
 20
0.0
 30
0.0
  9
$UCSXDIR
 10
1.0
 20
0.0
 30
0.0
  9
$UCSYDIR
 10
0.0
 20
1.0
 30
0.0
  9
$UCSORTHOREF
  2

  9
$UCSORTHOVIEW
 70
     1
  9
$UCSORGTOP
 10
0.0
 20
0.0
 30
0.0
  9
$UCSORGBOTTOM
 10
0.0
 20
0.0
 30
0.0
  9
$UCSORGLEFT
 10
0.0
 20
0.0
 30
0.0
  9
$UCSORGRIGHT
 10
0.0
 20
0.0
 30
0.0
  9
$UCSORGFRONT
 10
0.0
 20
0.0
 30
0.0
  9
$UCSORGBACK
 10
0.0
 20
0.0
 30
0.0
  9
$PUCSBASE
  2

  9
$PUCSNAME
  2

  9
$PUCSORG
 10
0.0
 20
0.0
 30
0.0
  9
$PUCSXDIR
 10
1.0
 20
0.0
 30
0.0
  9
$PUCSYDIR
 10
0.0
 20
1.0
 30
0.0
  9
$PUCSORTHOREF
  2

  9
$PUCSORTHOVIEW
 70
     0
  9
$PUCSORGTOP
 10
0.0
 20
0.0
 30
0.0
  9
$PUCSORGBOTTOM
 10
0.0
 20
0.0
 30
0.0
  9
$PUCSORGLEFT
 10
0.0
 20
0.0
 30
0.0
  9
$PUCSORGRIGHT
 10
0.0
 20
0.0
 30
0.0
  9
$PUCSORGFRONT
 10
0.0
 20
0.0
 30
0.0
  9
$PUCSORGBACK
 10
0.0
 20
0.0
 30
0.0
  9
$USERI1
 70
     0
  9
$USERI2
 70
     0
  9
$USERI3
 70
     0
  9
$USERI4
 70
     0
  9
$USERI5
 70
     0
  9
$USERR1
 40
0.0
  9
$USERR2
 40
0.0
  9
$USERR3
 40
0.0
  9
$USERR4
 40
0.0
  9
$USERR5
 40
0.0
  9
$WORLDVIEW
 70
     1
  9
$SHADEDGE
 70
     3
  9
$SHADEDIF
 70
    70
  9
$TILEMODE
 70
     1
  9
$MAXACTVP
 70
    64
  9
$PINSBASE
 10
0.0
 20
0.0
 30
0.0
  9
$PLIMCHECK
 70
     0
  9
$PEXTMIN
 10
1.000000000000000E+20
 20
1.000000000000000E+20
 30
1.000000000000000E+20
  9
$PEXTMAX
 10
-1.000000000000000E+20
 20
-1.000000000000000E+20
 30
-1.000000000000000E+20
  9
$PLIMMIN
 10
0.0
 20
0.0
  9
$PLIMMAX
 10
12.0
 20
9.0
  9
$UNITMODE
 70
     0
  9
$VISRETAIN
 70
     1
  9
$PLINEGEN
 70
     0
  9
$PSLTSCALE
 70
     1
  9
$TREEDEPTH
 70
  3020
  9
$CMLSTYLE
  2
Standard
  9
$CMLJUST
 70
     0
  9
$CMLSCALE
 40
1.0
  9
$PROXYGRAPHICS
 70
     1
  9
$MEASUREMENT
 70
     0
  9
$CELWEIGHT
370
    -1
  9
$ENDCAPS
280
     0
  9
$JOINSTYLE
280
     0
  9
$LWDISPLAY
290
     0
  9
$INSUNITS
 70
     0
  9
$HYPERLINKBASE
  1

  9
$STYLESHEET
  1

  9
$XEDIT
290
     1
  9
$CEPSNTYPE
380
     0
  9
$PSTYLEMODE
290
     1
  9
$FINGERPRINTGUID
  2
{DB655053-381F-49C7-8C05-FA04EC5DA5F4}
  9
$VERSIONGUID
  2
{9231C222-AC5A-44B6-8545-8CD7577E6E30}
  9
$EXTNAMES
290
     1
  9
$PSVPSCALE
 40
0.0
  9
$OLESTARTUP
290
     0
  0
ENDSEC
  0
SECTION
  2
CLASSES
  0
CLASS
  1
ACDBDICTIONARYWDFLT
  2
AcDbDictionaryWithDefault
  3
AutoCAD 2000
 90
        0
280
     0
281
     0
  0
CLASS
  1
ACDBPLACEHOLDER
  2
AcDbPlaceHolder
  3
AutoCAD 2000
 90
        0
280
     0
281
     0
  0
CLASS
  1
LAYOUT
  2
AcDbLayout
  3
AutoCAD 2000
 90
        0
280
     0
281
     0
  0
CLASS
  1
DICTIONARYVAR
  2
AcDbDictionaryVar
  3
AutoCAD 2000
 90
        0
280
     0
281
     0
  0
ENDSEC
  0
SECTION
  2
TABLES
  0
TABLE
  2
VPORT
  5
8
330
0
100
AcDbSymbolTable
 70
     2
  0
VPORT
  5
121
330
8
100
AcDbSymbolTableRecord
100
AcDbViewportTableRecord
  2
*Active
 70
     0
 10
0.0
 20
0.0
 11
1.0
 21
1.0
 12
97.5
 22
49.00000000000001
 13
0.0
 23
0.0
 14
1.0
 24
1.0
 15
0.0
 25
0.0
 16
0.0
 26
0.0
 36
1.0
 17
0.0
 27
0.0
 37
0.0
 40
99.02928206649617
 41
2.043533930857874
 42
50.0
 43
0.0
 44
0.0
 50
0.0
 51
0.0
 71
     0
 72
   100
 73
     1
 74
     3
 75
     0
 76
     0
 77
     0
 78
     0
281
     0
 65
     1
110
0.0
120
0.0
130
0.0
111
1.0
121
0.0
131
0.0
112
0.0
122
1.0
132
0.0
 79
     1
146
0.0
  0
ENDTAB
  0
TABLE
  2
LTYPE
  5
5
330
0
100
AcDbSymbolTable
 70
     1
  0
LTYPE
  5
13
330
5
100
AcDbSymbolTableRecord
100
AcDbLinetypeTableRecord
  2
ByBlock
 70
     0
  3

 72
    65
 73
     0
 40
0.0
  0
LTYPE
  5
14
330
5
100
AcDbSymbolTableRecord
100
AcDbLinetypeTableRecord
  2
ByLayer
 70
     0
  3

 72
    65
 73
     0
 40
0.0
  0
LTYPE
  5
15
330
5
100
AcDbSymbolTableRecord
100
AcDbLinetypeTableRecord
  2
Continuous
 70
     0
  3
Solid line
 72
    65
 73
     0
 40
0.0
  0
ENDTAB
  0
TABLE
  2
LAYER
  5
2
330
0
100
AcDbSymbolTable
 70
     1
  0
LAYER
  5
10
330
2
100
AcDbSymbolTableRecord
100
AcDbLayerTableRecord
  2
0
 70
     0
 62
     7
  6
Continuous
370
    -3
390
F
  0
ENDTAB
  0
TABLE
  2
STYLE
  5
3
330
0
100
AcDbSymbolTable
 70
     1
  0
STYLE
  5
11
330
3
100
AcDbSymbolTableRecord
100
AcDbTextStyleTableRecord
  2
Standard
 70
     0
 40
0.0
 41
1.0
 50
0.0
 71
     0
 42
0.2
  3
txt
  4

  0
ENDTAB
  0
TABLE
  2
VIEW
  5
6
330
0
100
AcDbSymbolTable
 70
     0
  0
ENDTAB
  0
TABLE
  2
UCS
  5
7
330
0
100
AcDbSymbolTable
 70
     0
  0
ENDTAB
  0
TABLE
  2
APPID
  5
9
330
0
100
AcDbSymbolTable
 70
     1
  0
APPID
  5
12
330
9
100
AcDbSymbolTableRecord
100
AcDbRegAppTableRecord
  2
ACAD
 70
     0
  0
ENDTAB
  0
TABLE
  2
DIMSTYLE
  5
A
330
0
100
AcDbSymbolTable
 70
     1
100
AcDbDimStyleTable
 71
     0
  0
DIMSTYLE
105
118
330
A
100
AcDbSymbolTableRecord
100
AcDbDimStyleTableRecord
  2
Standard
 70
     0
340
11
  0
ENDTAB
  0
TABLE
  2
BLOCK_RECORD
  5
1
330
0
100
AcDbSymbolTable
 70
     0
  0
BLOCK_RECORD
  5
1E
330
1
100
AcDbSymbolTableRecord
100
AcDbBlockTableRecord
  2
*Model_Space
340
21
  0
BLOCK_RECORD
  5
1A
330
1
100
AcDbSymbolTableRecord
100
AcDbBlockTableRecord
  2
*Paper_Space
340
1D
  0
ENDTAB
  0
ENDSEC
  0
SECTION
  2
BLOCKS
  0
BLOCK
  5
1F
330
1E
100
AcDbEntity
  8
0
100
AcDbBlockBegin
  2
*Model_Space
 70
     0
 10
0.0
 20
0.0
 30
0.0
  3
*Model_Space
  1

  0
ENDBLK
  5
20
330
1E
100
AcDbEntity
  8
0
100
AcDbBlockEnd
  0
BLOCK
  5
1B
330
1A
100
AcDbEntity
 67
     1
  8
0
100
AcDbBlockBegin
  2
*Paper_Space
 70
     0
 10
0.0
 20
0.0
 30
0.0
  3
*Paper_Space
  1

  0
ENDBLK
  5
1C
330
1A
100
AcDbEntity
 67
     1
  8
0
100
AcDbBlockEnd
  0
ENDSEC
  0
SECTION
  2
ENTITIES
  0
LINE
  5
22
330
1E
100
AcDbEntity
  8
0
100
AcDbLine
 10
21.441897
 20
0.7174260000000072
 30
0.0
 11
22.24289499345319
 21
0.4258989949724661
 31
0.0
  0
LINE
  5
23
330
1E
100
AcDbEntity
  8
0
100
AcDbLine
 10
21.441897
 20
0.7174260000000072
 30
0.0
 11
22.24289499345319
 21
0.4258989949724661
 31
0.0
  0
LINE
  5
24
330
1E
100
AcDbEntity
  8
0
100
AcDbLine
 10
22.193697
 20
0.4438060000000071
 30
0.0
 11
23.321297
 21
0.033384000000007
 31
0.0
  0
LINE
  5
25
330
1E
100
AcDbEntity
  8
0
100
AcDbLine
 10
22.193697
 20
0.4438060000000071
 30
0.0
 11
23.321297
 21
0.0333840000000071
 31
0.0
  0
LINE
  5
26
330
1E
100
AcDbEntity
  8
0
100
AcDbLine
 10
20.31429699999999
 20
1.127846000000009
 30
0.0
 11
22.193697
 21
0.4438060000000071
 31
0.0
  0
LINE
  5
27
330
1E
100
AcDbEntity
  8
0
100
AcDbLine
 10
22.24289499345319
 20
0.42589899497248
 30
0.0
 11
23.321297
 21
0.033384000000007
 31
0.0
  0
LINE
  5
28
330
1E
100
AcDbEntity
  8
0
100
AcDbLine
 10
17.871097
 20
2.01710600000001
 30
0.0
 11
20.31429699999999
 21
1.127846000000009
 31
0.0
  0
LINE
  5
29
330
1E
100
AcDbEntity
  8
0
100
AcDbLine
 10
20.861197
 20
1.46088600000001
 30
0.0
 11
22.83449699999999
 21
0.7426460000000072
 31
0.0
  0
LINE
  5
2A
330
1E
100
AcDbEntity
  8
0
100
AcDbLine
 10
18.32399699999999
 20
2.384346000000009
 30
0.0
 11
20.861197
 21
1.46088600000001
 31
0.0
  0
LINE
  5
2B
330
1E
100
AcDbEntity
  8
0
100
AcDbLine
 10
19.656497
 20
1.36726600000001
 30
0.0
 11
21.441897
 21
0.7174260000000072
 31
0.0
  0
LINE
  5
2C
330
1E
100
AcDbEntity
  8
0
100
AcDbLine
 10
17.401197
 20
2.18810600000001
 30
0.0
 11
19.656497
 21
1.36726600000001
 31
0.0
  0
LINE
  5
2D
330
1E
100
AcDbEntity
  8
0
100
AcDbLine
 10
15.5552860774167
 20
2.859985271833489
 30
0.0
 11
17.401197
 21
2.18810600000001
 31
0.0
  0
LINE
  5
2E
330
1E
100
AcDbEntity
  8
0
100
AcDbLine
 10
15.5552860774167
 20
2.859985271833489
 30
0.0
 11
17.401197
 21
2.18810600000001
 31
0.0
  0
LINE
  5
2F
330
1E
100
AcDbEntity
  8
0
100
AcDbLine
 10
23.79119699999999
 20
-0.137625999999993
 30
0.0
 11
24.431997
 21
0.161206000000007
 31
0.0
  0
LINE
  5
30
330
1E
100
AcDbEntity
  8
0
100
AcDbLine
 10
23.79119699999999
 20
-0.137625999999993
 30
0.0
 11
24.431997
 21
0.161206000000007
 31
0.0
  0
LINE
  5
31
330
1E
100
AcDbEntity
  8
0
100
AcDbLine
 10
23.962197
 20
0.332216000000007
 30
0.0
 11
24.431997
 21
0.161206000000007
 31
0.0
  0
LINE
  5
32
330
1E
100
AcDbEntity
  8
0
100
AcDbLine
 10
24.431997
 20
0.161206000000007
 30
0.0
 11
38.522397
 21
38.791326
 31
0.0
  0
LINE
  5
33
330
1E
100
AcDbEntity
  8
0
100
AcDbLine
 10
22.83449699999999
 20
0.7426460000000072
 30
0.0
 11
23.962197
 21
0.332216000000007
 31
0.0
  0
LINE
  5
34
330
1E
100
AcDbEntity
  8
0
100
AcDbLine
 10
23.321297
 20
0.0333840000000071
 30
0.0
 11
23.79119699999999
 21
-0.137625999999993
 31
0.0
  0
LINE
  5
35
330
1E
100
AcDbEntity
  8
0
100
AcDbLine
 10
22.2428949934541
 20
0.425898994972153
 30
0.0
 11
23.321297
 21
0.0333840000000071
 31
0.0
  0
LINE
  5
36
330
1E
100
AcDbEntity
  8
0
100
AcDbLine
 10
12.044997
 20
4.137626000000009
 30
0.0
 11
15.051997
 21
3.043166000000009
 31
0.0
  0
LINE
  5
37
330
1E
100
AcDbEntity
  8
0
100
AcDbLine
 10
15.316997
 20
3.478806000000009
 30
0.0
 11
18.32399699999999
 21
2.384346000000009
 31
0.0
  0
LINE
  5
38
330
1E
100
AcDbEntity
  8
0
100
AcDbLine
 10
12.215997
 20
4.607476000000009
 30
0.0
 11
15.316997
 21
3.478806000000009
 31
0.0
  0
LINE
  5
39
330
1E
100
AcDbEntity
  8
0
100
AcDbLine
 10
15.051997
 20
3.043166000000009
 30
0.0
 11
15.5552860774167
 21
2.8599852718335
 31
0.0
  0
LINE
  5
3A
330
1E
100
AcDbEntity
  8
0
100
AcDbLine
 10
15.051997
 20
3.043166000000009
 30
0.0
 11
15.5552860774167
 21
2.859985271833489
 31
0.0
  0
LINE
  5
3B
330
1E
100
AcDbEntity
  8
0
100
AcDbLine
 10
15.051997
 20
3.043166000000009
 30
0.0
 11
17.871097
 21
2.01710600000001
 31
0.0
  0
LINE
  5
3C
330
1E
100
AcDbEntity
  8
0
100
AcDbLine
 10
24.431997
 20
0.161206000000005
 30
0.0
 11
38.522397
 21
38.791326
 31
0.0
  0
LINE
  5
3D
330
1E
100
AcDbEntity
  8
0
100
AcDbLine
 10
6.21890699999999
 20
6.258146000000009
 30
0.0
 11
9.03797699999999
 21
5.232086000000009
 31
0.0
  0
LINE
  5
3E
330
1E
100
AcDbEntity
  8
0
100
AcDbLine
 10
6.10800699999999
 20
6.830606000000009
 30
0.0
 11
9.115016999999991
 21
5.736136000000009
 31
0.0
  0
LINE
  5
3F
330
1E
100
AcDbEntity
  8
0
100
AcDbLine
 10
1.896316999999989
 20
7.831446000000009
 30
0.0
 11
3.77570699999999
 21
7.147406000000009
 31
0.0
  0
LINE
  5
40
330
1E
100
AcDbEntity
  8
0
100
AcDbLine
 10
1.242510672912729
 20
8.06940965368029
 30
0.0
 11
1.614406999999989
 21
7.934046000000009
 31
0.0
  0
LINE
  5
41
330
1E
100
AcDbEntity
  8
0
100
AcDbLine
 10
1.614406999999989
 20
7.934046000000009
 30
0.0
 11
2.648066999999989
 21
7.557826000000009
 31
0.0
  0
LINE
  5
42
330
1E
100
AcDbEntity
  8
0
100
AcDbLine
 10
3.77570699999999
 20
7.147406000000009
 30
0.0
 11
6.21890699999999
 21
6.258146000000009
 31
0.0
  0
LINE
  5
43
330
1E
100
AcDbEntity
  8
0
100
AcDbLine
 10
3.57083699999999
 20
7.754056000000009
 30
0.0
 11
6.10800699999999
 21
6.830606000000009
 31
0.0
  0
LINE
  5
44
330
1E
100
AcDbEntity
  8
0
100
AcDbLine
 10
2.648066999999989
 20
7.557826000000009
 30
0.0
 11
4.433487
 21
6.907986000000009
 31
0.0
  0
LINE
  5
45
330
1E
100
AcDbEntity
  8
0
100
AcDbLine
 10
4.433487
 20
6.907986000000009
 30
0.0
 11
6.68874699999999
 21
6.087136000000009
 31
0.0
  0
LINE
  5
46
330
1E
100
AcDbEntity
  8
0
100
AcDbLine
 10
6.68874699999999
 20
6.087136000000009
 30
0.0
 11
7.39391276171348
 21
5.8304778641028
 31
0.0
  0
LINE
  5
47
330
1E
100
AcDbEntity
  8
0
100
AcDbLine
 10
6.68874699999999
 20
6.087136000000009
 30
0.0
 11
7.393912761713509
 21
5.83047786410279
 31
0.0
  0
LINE
  5
48
330
1E
100
AcDbEntity
  8
0
100
AcDbLine
 10
0.0000029999999951
 20
9.053736000000009
 30
0.0
 11
14.501497
 21
48.741026
 31
0.0
  0
LINE
  5
49
330
1E
100
AcDbEntity
  8
0
100
AcDbLine
 10
0.298838999999994
 20
8.412876000000009
 30
0.0
 11
0.768685999999994
 21
8.241866000000008
 31
0.0
  0
LINE
  5
4A
330
1E
100
AcDbEntity
  8
0
100
AcDbLine
 10
0.0000029999999941
 20
9.053736000000009
 30
0.0
 11
0.298838999999994
 21
8.412876000000009
 31
0.0
  0
LINE
  5
4B
330
1E
100
AcDbEntity
  8
0
100
AcDbLine
 10
0.0000029999999941
 20
9.053736000000009
 30
0.0
 11
0.469848999999994
 21
8.882726000000008
 31
0.0
  0
LINE
  5
4C
330
1E
100
AcDbEntity
  8
0
100
AcDbLine
 10
0.469848999999994
 20
8.882726000000008
 30
0.0
 11
1.597476999999989
 21
8.472296000000008
 31
0.0
  0
LINE
  5
4D
330
1E
100
AcDbEntity
  8
0
100
AcDbLine
 10
1.597476999999989
 20
8.472296000000008
 30
0.0
 11
3.57083699999999
 21
7.754056000000009
 31
0.0
  0
LINE
  5
4E
330
1E
100
AcDbEntity
  8
0
100
AcDbLine
 10
0.298838999999994
 20
8.412876000000009
 30
0.0
 11
0.768685999999994
 21
8.241866000000008
 31
0.0
  0
LINE
  5
4F
330
1E
100
AcDbEntity
  8
0
100
AcDbLine
 10
0.768685999999994
 20
8.241866000000008
 30
0.0
 11
1.242510672912729
 21
8.06940965368029
 31
0.0
  0
LINE
  5
50
330
1E
100
AcDbEntity
  8
0
100
AcDbLine
 10
0.768685999999994
 20
8.241866000000008
 30
0.0
 11
1.896316999999989
 21
7.831446000000009
 31
0.0
  0
LINE
  5
51
330
1E
100
AcDbEntity
  8
0
100
AcDbLine
 10
9.115016999999991
 20
5.736136000000009
 30
0.0
 11
12.215997
 21
4.607476000000009
 31
0.0
  0
LINE
  5
52
330
1E
100
AcDbEntity
  8
0
100
AcDbLine
 10
7.39391276171354
 20
5.83047786410278
 30
0.0
 11
9.03797699999999
 21
5.232086000000009
 31
0.0
  0
LINE
  5
53
330
1E
100
AcDbEntity
  8
0
100
AcDbLine
 10
7.393912761713509
 20
5.83047786410279
 30
0.0
 11
9.03797699999999
 21
5.232086000000009
 31
0.0
  0
LINE
  5
54
330
1E
100
AcDbEntity
  8
0
100
AcDbLine
 10
9.03797699999999
 20
5.232086000000009
 30
0.0
 11
12.044997
 21
4.137626000000009
 31
0.0
  0
LINE
  5
55
330
1E
100
AcDbEntity
  8
0
100
AcDbLine
 10
0.0000029999999941
 20
9.053736000000009
 30
0.0
 11
14.501497
 21
48.741026
 31
0.0
  0
LINE
  5
56
330
1E
100
AcDbEntity
  8
0
100
AcDbLine
 10
0.0000029999999941
 20
9.053736000000009
 30
0.0
 11
0.469848999999994
 21
8.882726000000008
 31
0.0
  0
LINE
  5
57
330
1E
100
AcDbEntity
  8
0
100
AcDbLine
 10
0.0000029999999941
 20
9.053736000000009
 30
0.0
 11
0.298838999999994
 21
8.412876000000009
 31
0.0
  0
LINE
  5
58
330
1E
100
AcDbEntity
  8
0
100
AcDbLine
 10
187.999997
 20
32.637626
 30
0.0
 11
187.999997
 21
31.837626
 31
0.0
  0
LINE
  5
59
330
1E
100
AcDbEntity
  8
0
100
AcDbLine
 10
187.999997
 20
32.637626
 30
0.0
 11
187.999997
 21
33.637626
 31
0.0
  0
LINE
  5
5A
330
1E
100
AcDbEntity
  8
0
100
AcDbLine
 10
38.522397
 20
38.791326
 30
0.0
 11
39.679497
 21
41.137626
 31
0.0
  0
LINE
  5
5B
330
1E
100
AcDbEntity
  8
0
100
AcDbLine
 10
39.679497
 20
41.137626
 30
0.0
 11
41.132897
 21
43.312826
 31
0.0
  0
LINE
  5
5C
330
1E
100
AcDbEntity
  8
0
100
AcDbLine
 10
187.999997
 20
34.137626
 30
0.0
 11
187.999997
 21
35.23762599999999
 31
0.0
  0
LINE
  5
5D
330
1E
100
AcDbEntity
  8
0
100
AcDbLine
 10
187.999997
 20
35.537626
 30
0.0
 11
187.999997
 21
36.537626
 31
0.0
  0
LINE
  5
5E
330
1E
100
AcDbEntity
  8
0
100
AcDbLine
 10
187.999997
 20
34.837626
 30
0.0
 11
187.999997
 21
33.637626
 31
0.0
  0
LINE
  5
5F
330
1E
100
AcDbEntity
  8
0
100
AcDbLine
 10
187.999997
 20
35.23762599999999
 30
0.0
 11
187.999997
 21
34.137626
 31
0.0
  0
LINE
  5
60
330
1E
100
AcDbEntity
  8
0
100
AcDbLine
 10
187.999997
 20
35.23762599999999
 30
0.0
 11
187.999997
 21
38.137626
 31
0.0
  0
LINE
  5
61
330
1E
100
AcDbEntity
  8
0
100
AcDbLine
 10
187.999997
 20
36.537626
 30
0.0
 11
187.999997
 21
35.537626
 31
0.0
  0
LINE
  5
62
330
1E
100
AcDbEntity
  8
0
100
AcDbLine
 10
187.999997
 20
36.537626
 30
0.0
 11
187.999997
 21
39.337626
 31
0.0
  0
LINE
  5
63
330
1E
100
AcDbEntity
  8
0
100
AcDbLine
 10
187.999997
 20
38.137626
 30
0.0
 11
187.999997
 21
35.23762599999999
 31
0.0
  0
LINE
  5
64
330
1E
100
AcDbEntity
  8
0
100
AcDbLine
 10
187.999997
 20
36.137626
 30
0.0
 11
187.999997
 21
64.137626
 31
0.0
  0
LINE
  5
65
330
1E
100
AcDbEntity
  8
0
100
AcDbLine
 10
41.132897
 20
43.312826
 30
0.0
 11
42.85789699999999
 21
45.279726
 31
0.0
  0
LINE
  5
66
330
1E
100
AcDbEntity
  8
0
100
AcDbLine
 10
42.85789699999999
 20
45.279726
 30
0.0
 11
44.82479699999999
 21
47.004726
 31
0.0
  0
LINE
  5
67
330
1E
100
AcDbEntity
  8
0
100
AcDbLine
 10
44.82479699999999
 20
47.004726
 30
0.0
 11
46.999997
 21
48.458126
 31
0.0
  0
LINE
  5
68
330
1E
100
AcDbEntity
  8
0
100
AcDbLine
 10
187.999997
 20
46.837626
 30
0.0
 11
187.999997
 21
46.137626
 31
0.0
  0
LINE
  5
69
330
1E
100
AcDbEntity
  8
0
100
AcDbLine
 10
187.999997
 20
46.837626
 30
0.0
 11
187.999997
 21
48.537626
 31
0.0
  0
LINE
  5
6A
330
1E
100
AcDbEntity
  8
0
100
AcDbLine
 10
187.999997
 20
46.137626
 30
0.0
 11
187.999997
 21
46.837626
 31
0.0
  0
LINE
  5
6B
330
1E
100
AcDbEntity
  8
0
100
AcDbLine
 10
187.999997
 20
47.337626
 30
0.0
 11
187.999997
 21
45.43762599999999
 31
0.0
  0
LINE
  5
6C
330
1E
100
AcDbEntity
  8
0
100
AcDbLine
 10
187.999997
 20
45.43762599999999
 30
0.0
 11
187.999997
 21
47.337626
 31
0.0
  0
LINE
  5
6D
330
1E
100
AcDbEntity
  8
0
100
AcDbLine
 10
187.999997
 20
45.43762599999999
 30
0.0
 11
187.999997
 21
44.73762599999999
 31
0.0
  0
LINE
  5
6E
330
1E
100
AcDbEntity
  8
0
100
AcDbLine
 10
187.999997
 20
44.73762599999999
 30
0.0
 11
187.999997
 21
45.43762599999999
 31
0.0
  0
LINE
  5
6F
330
1E
100
AcDbEntity
  8
0
100
AcDbLine
 10
187.999997
 20
39.337626
 30
0.0
 11
187.999997
 21
43.937626
 31
0.0
  0
LINE
  5
70
330
1E
100
AcDbEntity
  8
0
100
AcDbLine
 10
187.999997
 20
39.337626
 30
0.0
 11
187.999997
 21
36.537626
 31
0.0
  0
LINE
  5
71
330
1E
100
AcDbEntity
  8
0
100
AcDbLine
 10
14.501497
 20
48.741026
 30
0.0
 11
17.162797
 21
54.137626
 31
0.0
  0
LINE
  5
72
330
1E
100
AcDbEntity
  8
0
100
AcDbLine
 10
49.346297
 20
49.615226
 30
0.0
 11
51.823597
 21
50.456126
 31
0.0
  0
LINE
  5
73
330
1E
100
AcDbEntity
  8
0
100
AcDbLine
 10
46.999997
 20
48.458126
 30
0.0
 11
49.346297
 21
49.615226
 31
0.0
  0
LINE
  5
74
330
1E
100
AcDbEntity
  8
0
100
AcDbLine
 10
51.823597
 20
50.456126
 30
0.0
 11
54.389497
 21
50.966526
 31
0.0
  0
LINE
  5
75
330
1E
100
AcDbEntity
  8
0
100
AcDbLine
 10
54.389497
 20
50.966526
 30
0.0
 11
56.999997
 21
51.13762600000001
 31
0.0
  0
LINE
  5
76
330
1E
100
AcDbEntity
  8
0
100
AcDbLine
 10
56.999997
 20
51.13762600000001
 30
0.0
 11
184.999997
 21
51.13762600000001
 31
0.0
  0
LINE
  5
77
330
1E
100
AcDbEntity
  8
0
100
AcDbLine
 10
56.999997
 20
51.13762600000001
 30
0.0
 11
184.999997
 21
51.13762600000001
 31
0.0
  0
LINE
  5
78
330
1E
100
AcDbEntity
  8
0
100
AcDbLine
 10
20.505697
 20
59.140626
 30
0.0
 11
24.47309699999999
 21
63.664526
 31
0.0
  0
LINE
  5
79
330
1E
100
AcDbEntity
  8
0
100
AcDbLine
 10
17.162797
 20
54.137626
 30
0.0
 11
20.505697
 21
59.140626
 31
0.0
  0
LINE
  5
7A
330
1E
100
AcDbEntity
  8
0
100
AcDbLine
 10
39.39659699999999
 20
73.636126
 30
0.0
 11
45.094297
 21
75.570226
 31
0.0
  0
LINE
  5
7B
330
1E
100
AcDbEntity
  8
0
100
AcDbLine
 10
33.999997
 20
70.97482600000001
 30
0.0
 11
39.39659699999999
 21
73.636126
 31
0.0
  0
LINE
  5
7C
330
1E
100
AcDbEntity
  8
0
100
AcDbLine
 10
45.094297
 20
75.570226
 30
0.0
 11
50.99579699999999
 21
76.744126
 31
0.0
  0
LINE
  5
7D
330
1E
100
AcDbEntity
  8
0
100
AcDbLine
 10
56.999997
 20
77.13762599999999
 30
0.0
 11
184.999997
 21
77.13762599999999
 31
0.0
  0
LINE
  5
7E
330
1E
100
AcDbEntity
  8
0
100
AcDbLine
 10
50.99579699999999
 20
76.744126
 30
0.0
 11
56.999997
 21
77.13762599999999
 31
0.0
  0
LINE
  5
7F
330
1E
100
AcDbEntity
  8
0
100
AcDbLine
 10
28.99699699999999
 20
67.631926
 30
0.0
 11
33.999997
 21
70.97482600000001
 31
0.0
  0
LINE
  5
80
330
1E
100
AcDbEntity
  8
0
100
AcDbLine
 10
24.47309699999999
 20
63.664526
 30
0.0
 11
28.99699699999999
 21
67.631926
 31
0.0
  0
LINE
  5
81
330
1E
100
AcDbEntity
  8
0
100
AcDbLine
 10
56.999997
 20
77.13762599999999
 30
0.0
 11
184.999997
 21
77.13762599999999
 31
0.0
  0
LINE
  5
82
330
1E
100
AcDbEntity
  8
0
100
AcDbLine
 10
184.999997
 20
77.13762599999999
 30
0.0
 11
185.7999969999999
 21
77.337626
 31
0.0
  0
LINE
  5
83
330
1E
100
AcDbEntity
  8
0
100
AcDbLine
 10
184.999997
 20
51.13762600000001
 30
0.0
 11
185.7999969999999
 21
50.937626
 31
0.0
  0
LINE
  5
84
330
1E
100
AcDbEntity
  8
0
100
AcDbLine
 10
185.7999969999999
 20
77.337626
 30
0.0
 11
186.7999969999999
 21
77.837626
 31
0.0
  0
LINE
  5
85
330
1E
100
AcDbEntity
  8
0
100
AcDbLine
 10
186.7999969999999
 20
77.837626
 30
0.0
 11
187.599997
 21
78.837626
 31
0.0
  0
LINE
  5
86
330
1E
100
AcDbEntity
  8
0
100
AcDbLine
 10
187.599997
 20
78.837626
 30
0.0
 11
187.999997
 21
80.13762599999999
 31
0.0
  0
LINE
  5
87
330
1E
100
AcDbEntity
  8
0
100
AcDbLine
 10
185.7999969999999
 20
50.937626
 30
0.0
 11
186.7999969999999
 21
50.437626
 31
0.0
  0
LINE
  5
88
330
1E
100
AcDbEntity
  8
0
100
AcDbLine
 10
186.7999969999999
 20
50.437626
 30
0.0
 11
187.599997
 21
49.437626
 31
0.0
  0
LINE
  5
89
330
1E
100
AcDbEntity
  8
0
100
AcDbLine
 10
187.999997
 20
50.237626
 30
0.0
 11
187.999997
 21
48.737626
 31
0.0
  0
LINE
  5
8A
330
1E
100
AcDbEntity
  8
0
100
AcDbLine
 10
187.999997
 20
48.537626
 30
0.0
 11
187.999997
 21
46.837626
 31
0.0
  0
LINE
  5
8B
330
1E
100
AcDbEntity
  8
0
100
AcDbLine
 10
187.999997
 20
48.737626
 30
0.0
 11
187.999997
 21
50.237626
 31
0.0
  0
LINE
  5
8C
330
1E
100
AcDbEntity
  8
0
100
AcDbLine
 10
187.999997
 20
48.737626
 30
0.0
 11
187.999997
 21
48.137626
 31
0.0
  0
LINE
  5
8D
330
1E
100
AcDbEntity
  8
0
100
AcDbLine
 10
187.999997
 20
52.837626
 30
0.0
 11
187.999997
 21
56.13762600000001
 31
0.0
  0
LINE
  5
8E
330
1E
100
AcDbEntity
  8
0
100
AcDbLine
 10
187.999997
 20
51.437626
 30
0.0
 11
187.999997
 21
55.237626
 31
0.0
  0
LINE
  5
8F
330
1E
100
AcDbEntity
  8
0
100
AcDbLine
 10
187.999997
 20
50.437626
 30
0.0
 11
187.999997
 21
54.53762600000001
 31
0.0
  0
LINE
  5
90
330
1E
100
AcDbEntity
  8
0
100
AcDbLine
 10
187.999997
 20
56.13762600000001
 30
0.0
 11
187.999997
 21
52.837626
 31
0.0
  0
LINE
  5
91
330
1E
100
AcDbEntity
  8
0
100
AcDbLine
 10
187.999997
 20
56.13762600000001
 30
0.0
 11
187.999997
 21
60.037626
 31
0.0
  0
LINE
  5
92
330
1E
100
AcDbEntity
  8
0
100
AcDbLine
 10
187.999997
 20
55.237626
 30
0.0
 11
187.999997
 21
51.437626
 31
0.0
  0
LINE
  5
93
330
1E
100
AcDbEntity
  8
0
100
AcDbLine
 10
187.999997
 20
55.237626
 30
0.0
 11
187.999997
 21
59.53762600000001
 31
0.0
  0
LINE
  5
94
330
1E
100
AcDbEntity
  8
0
100
AcDbLine
 10
187.999997
 20
54.53762600000001
 30
0.0
 11
187.999997
 21
50.437626
 31
0.0
  0
LINE
  5
95
330
1E
100
AcDbEntity
  8
0
100
AcDbLine
 10
187.999997
 20
49.937626
 30
0.0
 11
187.999997
 21
56.837626
 31
0.0
  0
LINE
  5
96
330
1E
100
AcDbEntity
  8
0
100
AcDbLine
 10
187.999997
 20
60.037626
 30
0.0
 11
187.999997
 21
56.13762600000001
 31
0.0
  0
LINE
  5
97
330
1E
100
AcDbEntity
  8
0
100
AcDbLine
 10
187.999997
 20
59.53762600000001
 30
0.0
 11
187.999997
 21
55.237626
 31
0.0
  0
LINE
  5
98
330
1E
100
AcDbEntity
  8
0
100
AcDbLine
 10
187.999997
 20
56.837626
 30
0.0
 11
187.999997
 21
49.937626
 31
0.0
  0
LINE
  5
99
330
1E
100
AcDbEntity
  8
0
100
AcDbLine
 10
187.999997
 20
56.837626
 30
0.0
 11
187.999997
 21
64.137626
 31
0.0
  0
LINE
  5
9A
330
1E
100
AcDbEntity
  8
0
100
AcDbLine
 10
187.999997
 20
56.437626
 30
0.0
 11
187.999997
 21
64.137626
 31
0.0
  0
LINE
  5
9B
330
1E
100
AcDbEntity
  8
0
100
AcDbLine
 10
187.999997
 20
68.737626
 30
0.0
 11
187.999997
 21
64.137626
 31
0.0
  0
LINE
  5
9C
330
1E
100
AcDbEntity
  8
0
100
AcDbLine
 10
187.999997
 20
68.737626
 30
0.0
 11
187.999997
 21
73.037626
 31
0.0
  0
LINE
  5
9D
330
1E
100
AcDbEntity
  8
0
100
AcDbLine
 10
187.999997
 20
69.137626
 30
0.0
 11
187.999997
 21
73.737626
 31
0.0
  0
LINE
  5
9E
330
1E
100
AcDbEntity
  8
0
100
AcDbLine
 10
187.999997
 20
72.13762599999999
 30
0.0
 11
187.999997
 21
68.23762600000001
 31
0.0
  0
LINE
  5
9F
330
1E
100
AcDbEntity
  8
0
100
AcDbLine
 10
187.999997
 20
73.037626
 30
0.0
 11
187.999997
 21
68.737626
 31
0.0
  0
LINE
  5
A0
330
1E
100
AcDbEntity
  8
0
100
AcDbLine
 10
187.999997
 20
73.737626
 30
0.0
 11
187.999997
 21
69.137626
 31
0.0
  0
LINE
  5
A1
330
1E
100
AcDbEntity
  8
0
100
AcDbLine
 10
187.999997
 20
71.43762599999999
 30
0.0
 11
187.999997
 21
64.137626
 31
0.0
  0
LINE
  5
A2
330
1E
100
AcDbEntity
  8
0
100
AcDbLine
 10
187.999997
 20
71.837626
 30
0.0
 11
187.999997
 21
79.037626
 31
0.0
  0
LINE
  5
A3
330
1E
100
AcDbEntity
  8
0
100
AcDbLine
 10
187.999997
 20
71.837626
 30
0.0
 11
187.999997
 21
64.137626
 31
0.0
  0
LINE
  5
A4
330
1E
100
AcDbEntity
  8
0
100
AcDbLine
 10
187.999997
 20
76.837626
 30
0.0
 11
187.999997
 21
79.737626
 31
0.0
  0
LINE
  5
A5
330
1E
100
AcDbEntity
  8
0
100
AcDbLine
 10
187.999997
 20
78.037626
 30
0.0
 11
187.999997
 21
75.43762599999999
 31
0.0
  0
LINE
  5
A6
330
1E
100
AcDbEntity
  8
0
100
AcDbLine
 10
187.999997
 20
81.437626
 30
0.0
 11
187.999997
 21
82.137626
 31
0.0
  0
LINE
  5
A7
330
1E
100
AcDbEntity
  8
0
100
AcDbLine
 10
187.999997
 20
79.737626
 30
0.0
 11
187.999997
 21
76.837626
 31
0.0
  0
LINE
  5
A8
330
1E
100
AcDbEntity
  8
0
100
AcDbLine
 10
187.999997
 20
82.137626
 30
0.0
 11
187.999997
 21
81.437626
 31
0.0
  0
LINE
  5
A9
330
1E
100
AcDbEntity
  8
0
100
AcDbLine
 10
187.999997
 20
79.037626
 30
0.0
 11
187.999997
 21
71.837626
 31
0.0
  0
LINE
  5
AA
330
1E
100
AcDbEntity
  8
0
100
AcDbLine
 10
187.999997
 20
78.337626
 30
0.0
 11
187.999997
 21
84.33762599999999
 31
0.0
  0
LINE
  5
AB
330
1E
100
AcDbEntity
  8
0
100
AcDbLine
 10
187.999997
 20
79.53762600000001
 30
0.0
 11
187.999997
 21
80.13762599999999
 31
0.0
  0
LINE
  5
AC
330
1E
100
AcDbEntity
  8
0
100
AcDbLine
 10
187.999997
 20
75.43762599999999
 30
0.0
 11
187.999997
 21
78.037626
 31
0.0
  0
LINE
  5
AD
330
1E
100
AcDbEntity
  8
0
100
AcDbLine
 10
187.999997
 20
68.23762600000001
 30
0.0
 11
187.999997
 21
72.13762599999999
 31
0.0
  0
LINE
  5
AE
330
1E
100
AcDbEntity
  8
0
100
AcDbLine
 10
187.999997
 20
68.23762600000001
 30
0.0
 11
187.999997
 21
64.137626
 31
0.0
  0
LINE
  5
AF
330
1E
100
AcDbEntity
  8
0
100
AcDbLine
 10
187.999997
 20
64.137626
 30
0.0
 11
187.999997
 21
68.23762600000001
 31
0.0
  0
LINE
  5
B0
330
1E
100
AcDbEntity
  8
0
100
AcDbLine
 10
187.999997
 20
64.137626
 30
0.0
 11
187.999997
 21
71.837626
 31
0.0
  0
LINE
  5
B1
330
1E
100
AcDbEntity
  8
0
100
AcDbLine
 10
187.999997
 20
64.137626
 30
0.0
 11
187.999997
 21
71.43762599999999
 31
0.0
  0
LINE
  5
B2
330
1E
100
AcDbEntity
  8
0
100
AcDbLine
 10
187.999997
 20
64.137626
 30
0.0
 11
187.999997
 21
68.737626
 31
0.0
  0
LINE
  5
B3
330
1E
100
AcDbEntity
  8
0
100
AcDbLine
 10
187.999997
 20
64.137626
 30
0.0
 11
187.999997
 21
92.137626
 31
0.0
  0
LINE
  5
B4
330
1E
100
AcDbEntity
  8
0
100
AcDbLine
 10
187.999997
 20
64.137626
 30
0.0
 11
187.999997
 21
56.437626
 31
0.0
  0
LINE
  5
B5
330
1E
100
AcDbEntity
  8
0
100
AcDbLine
 10
187.999997
 20
64.137626
 30
0.0
 11
187.999997
 21
56.837626
 31
0.0
  0
LINE
  5
B6
330
1E
100
AcDbEntity
  8
0
100
AcDbLine
 10
187.999997
 20
64.137626
 30
0.0
 11
187.999997
 21
36.137626
 31
0.0
  0
LINE
  5
B7
330
1E
100
AcDbEntity
  8
0
100
AcDbLine
 10
187.999997
 20
80.93762599999999
 30
0.0
 11
187.999997
 21
80.13762599999999
 31
0.0
  0
LINE
  5
B8
330
1E
100
AcDbEntity
  8
0
100
AcDbLine
 10
187.999997
 20
92.137626
 30
0.0
 11
187.999997
 21
64.137626
 31
0.0
  0
LINE
  5
B9
330
1E
100
AcDbEntity
  8
0
100
AcDbLine
 10
187.999997
 20
84.33762599999999
 30
0.0
 11
187.999997
 21
80.13762599999999
 31
0.0
  0
LINE
  5
BA
330
1E
100
AcDbEntity
  8
0
100
AcDbLine
 10
187.999997
 20
84.33762599999999
 30
0.0
 11
187.999997
 21
78.337626
 31
0.0
  0
LINE
  5
BB
330
1E
100
AcDbEntity
  8
0
100
AcDbLine
 10
187.999997
 20
84.33762599999999
 30
0.0
 11
187.999997
 21
88.937626
 31
0.0
  0
LINE
  5
BC
330
1E
100
AcDbEntity
  8
0
100
AcDbLine
 10
187.999997
 20
85.33762600000001
 30
0.0
 11
187.999997
 21
80.13762599999999
 31
0.0
  0
LINE
  5
BD
330
1E
100
AcDbEntity
  8
0
100
AcDbLine
 10
187.999997
 20
83.53762600000001
 30
0.0
 11
187.999997
 21
82.83762600000001
 31
0.0
  0
LINE
  5
BE
330
1E
100
AcDbEntity
  8
0
100
AcDbLine
 10
187.999997
 20
91.73762600000001
 30
0.0
 11
187.999997
 21
88.937626
 31
0.0
  0
LINE
  5
BF
330
1E
100
AcDbEntity
  8
0
100
AcDbLine
 10
187.999997
 20
82.83762600000001
 30
0.0
 11
187.999997
 21
83.53762600000001
 31
0.0
  0
LINE
  5
C0
330
1E
100
AcDbEntity
  8
0
100
AcDbLine
 10
187.999997
 20
88.937626
 30
0.0
 11
187.999997
 21
91.73762600000001
 31
0.0
  0
LINE
  5
C1
330
1E
100
AcDbEntity
  8
0
100
AcDbLine
 10
187.999997
 20
88.937626
 30
0.0
 11
187.999997
 21
84.33762599999999
 31
0.0
  0
LINE
  5
C2
330
1E
100
AcDbEntity
  8
0
100
AcDbLine
 10
187.999997
 20
93.43762599999999
 30
0.0
 11
187.999997
 21
94.637626
 31
0.0
  0
LINE
  5
C3
330
1E
100
AcDbEntity
  8
0
100
AcDbLine
 10
187.999997
 20
94.137626
 30
0.0
 11
187.999997
 21
93.037626
 31
0.0
  0
LINE
  5
C4
330
1E
100
AcDbEntity
  8
0
100
AcDbLine
 10
187.999997
 20
93.037626
 30
0.0
 11
187.999997
 21
94.137626
 31
0.0
  0
LINE
  5
C5
330
1E
100
AcDbEntity
  8
0
100
AcDbLine
 10
187.999997
 20
80.13762599999999
 30
0.0
 11
187.999997
 21
85.33762600000001
 31
0.0
  0
LINE
  5
C6
330
1E
100
AcDbEntity
  8
0
100
AcDbLine
 10
187.999997
 20
80.13762599999999
 30
0.0
 11
187.999997
 21
80.93762599999999
 31
0.0
  0
LINE
  5
C7
330
1E
100
AcDbEntity
  8
0
100
AcDbLine
 10
187.999997
 20
80.13762599999999
 30
0.0
 11
187.999997
 21
84.33762599999999
 31
0.0
  0
LINE
  5
C8
330
1E
100
AcDbEntity
  8
0
100
AcDbLine
 10
187.999997
 20
80.13762599999999
 30
0.0
 11
187.999997
 21
79.53762600000001
 31
0.0
  0
LINE
  5
C9
330
1E
100
AcDbEntity
  8
0
100
AcDbLine
 10
187.999997
 20
95.637626
 30
0.0
 11
187.999997
 21
96.437626
 31
0.0
  0
LINE
  5
CA
330
1E
100
AcDbEntity
  8
0
100
AcDbLine
 10
187.999997
 20
95.637626
 30
0.0
 11
187.999997
 21
94.637626
 31
0.0
  0
LINE
  5
CB
330
1E
100
AcDbEntity
  8
0
100
AcDbLine
 10
187.999997
 20
96.93762599999999
 30
0.0
 11
187.999997
 21
96.437626
 31
0.0
  0
LINE
  5
CC
330
1E
100
AcDbEntity
  8
0
100
AcDbLine
 10
187.999997
 20
96.437626
 30
0.0
 11
187.999997
 21
95.637626
 31
0.0
  0
LINE
  5
CD
330
1E
100
AcDbEntity
  8
0
100
AcDbLine
 10
187.999997
 20
96.437626
 30
0.0
 11
187.999997
 21
96.93762599999999
 31
0.0
  0
LINE
  5
CE
330
1E
100
AcDbEntity
  8
0
100
AcDbLine
 10
187.999997
 20
94.637626
 30
0.0
 11
187.999997
 21
93.43762599999999
 31
0.0
  0
LINE
  5
CF
330
1E
100
AcDbEntity
  8
0
100
AcDbLine
 10
187.999997
 20
94.637626
 30
0.0
 11
187.999997
 21
95.637626
 31
0.0
  0
LINE
  5
D0
330
1E
100
AcDbEntity
  8
0
100
AcDbLine
 10
187.599997
 20
49.437626
 30
0.0
 11
187.999997
 21
48.137626
 31
0.0
  0
LINE
  5
D1
330
1E
100
AcDbEntity
  8
0
100
AcDbLine
 10
187.999997
 20
48.137626
 30
0.0
 11
187.999997
 21
43.937626
 31
0.0
  0
LINE
  5
D2
330
1E
100
AcDbEntity
  8
0
100
AcDbLine
 10
187.999997
 20
48.137626
 30
0.0
 11
187.999997
 21
48.737626
 31
0.0
  0
LINE
  5
D3
330
1E
100
AcDbEntity
  8
0
100
AcDbLine
 10
187.999997
 20
43.937626
 30
0.0
 11
187.999997
 21
48.137626
 31
0.0
  0
LINE
  5
D4
330
1E
100
AcDbEntity
  8
0
100
AcDbLine
 10
187.999997
 20
43.937626
 30
0.0
 11
187.999997
 21
39.337626
 31
0.0
  0
LINE
  5
D5
330
1E
100
AcDbEntity
  8
0
100
AcDbLine
 10
187.999997
 20
33.637626
 30
0.0
 11
187.999997
 21
32.637626
 31
0.0
  0
LINE
  5
D6
330
1E
100
AcDbEntity
  8
0
100
AcDbLine
 10
187.999997
 20
33.637626
 30
0.0
 11
187.999997
 21
34.837626
 31
0.0
  0
LINE
  5
D7
330
1E
100
AcDbEntity
  8
0
100
AcDbLine
 10
187.999997
 20
31.837626
 30
0.0
 11
187.999997
 21
32.637626
 31
0.0
  0
LINE
  5
D8
330
1E
100
AcDbEntity
  8
0
100
AcDbLine
 10
187.999997
 20
31.837626
 30
0.0
 11
187.999997
 21
31.337626
 31
0.0
  0
LINE
  5
D9
330
1E
100
AcDbEntity
  8
0
100
AcDbLine
 10
187.999997
 20
31.337626
 30
0.0
 11
187.999997
 21
31.837626
 31
0.0
  0
LINE
  5
DA
330
1E
100
AcDbEntity
  8
0
100
AcDbLine
 10
187.999997
 20
31.337626
 30
0.0
 11
187.999997
 21
31.137626
 31
0.0
  0
LINE
  5
DB
330
1E
100
AcDbEntity
  8
0
100
AcDbLine
 10
188.299997
 20
31.237626
 30
0.0
 11
188.299997
 21
30.637626
 31
0.0
  0
LINE
  5
DC
330
1E
100
AcDbEntity
  8
0
100
AcDbLine
 10
188.299997
 20
31.237626
 30
0.0
 11
188.299997
 21
32.137626
 31
0.0
  0
LINE
  5
DD
330
1E
100
AcDbEntity
  8
0
100
AcDbLine
 10
188.299997
 20
30.637626
 30
0.0
 11
188.299997
 21
30.437626
 31
0.0
  0
LINE
  5
DE
330
1E
100
AcDbEntity
  8
0
100
AcDbLine
 10
188.299997
 20
30.637626
 30
0.0
 11
188.299997
 21
31.237626
 31
0.0
  0
LINE
  5
DF
330
1E
100
AcDbEntity
  8
0
100
AcDbLine
 10
188.299997
 20
32.137626
 30
0.0
 11
188.299997
 21
33.337626
 31
0.0
  0
LINE
  5
E0
330
1E
100
AcDbEntity
  8
0
100
AcDbLine
 10
188.299997
 20
32.137626
 30
0.0
 11
188.299997
 21
31.237626
 31
0.0
  0
LINE
  5
E1
330
1E
100
AcDbEntity
  8
0
100
AcDbLine
 10
188.299997
 20
33.337626
 30
0.0
 11
188.299997
 21
32.137626
 31
0.0
  0
LINE
  5
E2
330
1E
100
AcDbEntity
  8
0
100
AcDbLine
 10
188.299997
 20
33.337626
 30
0.0
 11
188.299997
 21
34.637626
 31
0.0
  0
LINE
  5
E3
330
1E
100
AcDbEntity
  8
0
100
AcDbLine
 10
188.299997
 20
34.637626
 30
0.0
 11
188.299997
 21
33.337626
 31
0.0
  0
LINE
  5
E4
330
1E
100
AcDbEntity
  8
0
100
AcDbLine
 10
188.299997
 20
34.637626
 30
0.0
 11
188.299997
 21
36.137626
 31
0.0
  0
LINE
  5
E5
330
1E
100
AcDbEntity
  8
0
100
AcDbLine
 10
188.299997
 20
36.137626
 30
0.0
 11
188.299997
 21
34.637626
 31
0.0
  0
LINE
  5
E6
330
1E
100
AcDbEntity
  8
0
100
AcDbLine
 10
188.299997
 20
36.137626
 30
0.0
 11
188.299997
 21
64.137626
 31
0.0
  0
LINE
  5
E7
330
1E
100
AcDbEntity
  8
0
100
AcDbLine
 10
188.299997
 20
64.137626
 30
0.0
 11
188.299997
 21
92.137626
 31
0.0
  0
LINE
  5
E8
330
1E
100
AcDbEntity
  8
0
100
AcDbLine
 10
188.299997
 20
64.137626
 30
0.0
 11
188.299997
 21
36.137626
 31
0.0
  0
LINE
  5
E9
330
1E
100
AcDbEntity
  8
0
100
AcDbLine
 10
188.299997
 20
97.03762600000001
 30
0.0
 11
188.299997
 21
96.13762600000001
 31
0.0
  0
LINE
  5
EA
330
1E
100
AcDbEntity
  8
0
100
AcDbLine
 10
188.299997
 20
97.03762600000001
 30
0.0
 11
188.299997
 21
97.63762599999999
 31
0.0
  0
LINE
  5
EB
330
1E
100
AcDbEntity
  8
0
100
AcDbLine
 10
188.299997
 20
97.63762599999999
 30
0.0
 11
188.299997
 21
97.03762600000001
 31
0.0
  0
LINE
  5
EC
330
1E
100
AcDbEntity
  8
0
100
AcDbLine
 10
188.299997
 20
97.63762599999999
 30
0.0
 11
188.299997
 21
97.83762600000001
 31
0.0
  0
LINE
  5
ED
330
1E
100
AcDbEntity
  8
0
100
AcDbLine
 10
188.299997
 20
96.13762600000001
 30
0.0
 11
188.299997
 21
94.937626
 31
0.0
  0
LINE
  5
EE
330
1E
100
AcDbEntity
  8
0
100
AcDbLine
 10
188.299997
 20
96.13762600000001
 30
0.0
 11
188.299997
 21
97.03762600000001
 31
0.0
  0
LINE
  5
EF
330
1E
100
AcDbEntity
  8
0
100
AcDbLine
 10
188.299997
 20
94.937626
 30
0.0
 11
188.299997
 21
93.63762599999999
 31
0.0
  0
LINE
  5
F0
330
1E
100
AcDbEntity
  8
0
100
AcDbLine
 10
188.299997
 20
94.937626
 30
0.0
 11
188.299997
 21
96.13762600000001
 31
0.0
  0
LINE
  5
F1
330
1E
100
AcDbEntity
  8
0
100
AcDbLine
 10
188.299997
 20
93.63762599999999
 30
0.0
 11
188.299997
 21
92.137626
 31
0.0
  0
LINE
  5
F2
330
1E
100
AcDbEntity
  8
0
100
AcDbLine
 10
188.299997
 20
93.63762599999999
 30
0.0
 11
188.299997
 21
94.937626
 31
0.0
  0
LINE
  5
F3
330
1E
100
AcDbEntity
  8
0
100
AcDbLine
 10
188.299997
 20
92.137626
 30
0.0
 11
188.299997
 21
64.137626
 31
0.0
  0
LINE
  5
F4
330
1E
100
AcDbEntity
  8
0
100
AcDbLine
 10
188.299997
 20
92.137626
 30
0.0
 11
188.299997
 21
93.63762599999999
 31
0.0
  0
LINE
  5
F5
330
1E
100
AcDbEntity
  8
0
100
AcDbLine
 10
188.299997
 20
97.83762600000001
 30
0.0
 11
188.999997
 21
98.137626
 31
0.0
  0
LINE
  5
F6
330
1E
100
AcDbEntity
  8
0
100
AcDbLine
 10
188.299997
 20
97.83762600000001
 30
0.0
 11
188.299997
 21
97.63762599999999
 31
0.0
  0
LINE
  5
F7
330
1E
100
AcDbEntity
  8
0
100
AcDbLine
 10
188.999997
 20
98.137626
 30
0.0
 11
194.999997
 21
98.137626
 31
0.0
  0
LINE
  5
F8
330
1E
100
AcDbEntity
  8
0
100
AcDbLine
 10
187.999997
 20
31.137626
 30
0.0
 11
187.999997
 21
31.337626
 31
0.0
  0
LINE
  5
F9
330
1E
100
AcDbEntity
  8
0
100
AcDbLine
 10
187.999997
 20
31.137626
 30
0.0
 11
188.299997
 21
30.437626
 31
0.0
  0
LINE
  5
FA
330
1E
100
AcDbEntity
  8
0
100
AcDbLine
 10
188.299997
 20
30.437626
 30
0.0
 11
188.299997
 21
30.637626
 31
0.0
  0
LINE
  5
FB
330
1E
100
AcDbEntity
  8
0
100
AcDbLine
 10
194.999997
 20
30.337626
 30
0.0
 11
194.999997
 21
30.137626
 31
0.0
  0
LINE
  5
FC
330
1E
100
AcDbEntity
  8
0
100
AcDbLine
 10
194.999997
 20
30.337626
 30
0.0
 11
194.999997
 21
30.937626
 31
0.0
  0
LINE
  5
FD
330
1E
100
AcDbEntity
  8
0
100
AcDbLine
 10
194.999997
 20
30.937626
 30
0.0
 11
194.999997
 21
30.337626
 31
0.0
  0
LINE
  5
FE
330
1E
100
AcDbEntity
  8
0
100
AcDbLine
 10
194.999997
 20
30.937626
 30
0.0
 11
194.999997
 21
31.937626
 31
0.0
  0
LINE
  5
FF
330
1E
100
AcDbEntity
  8
0
100
AcDbLine
 10
194.999997
 20
31.937626
 30
0.0
 11
194.999997
 21
30.937626
 31
0.0
  0
LINE
  5
100
330
1E
100
AcDbEntity
  8
0
100
AcDbLine
 10
194.999997
 20
31.937626
 30
0.0
 11
194.999997
 21
33.137626
 31
0.0
  0
LINE
  5
101
330
1E
100
AcDbEntity
  8
0
100
AcDbLine
 10
194.999997
 20
33.137626
 30
0.0
 11
194.999997
 21
31.937626
 31
0.0
  0
LINE
  5
102
330
1E
100
AcDbEntity
  8
0
100
AcDbLine
 10
194.999997
 20
33.137626
 30
0.0
 11
194.999997
 21
34.637626
 31
0.0
  0
LINE
  5
103
330
1E
100
AcDbEntity
  8
0
100
AcDbLine
 10
194.999997
 20
34.637626
 30
0.0
 11
194.999997
 21
33.137626
 31
0.0
  0
LINE
  5
104
330
1E
100
AcDbEntity
  8
0
100
AcDbLine
 10
194.999997
 20
34.637626
 30
0.0
 11
194.999997
 21
36.137626
 31
0.0
  0
LINE
  5
105
330
1E
100
AcDbEntity
  8
0
100
AcDbLine
 10
194.999997
 20
36.137626
 30
0.0
 11
194.999997
 21
34.637626
 31
0.0
  0
LINE
  5
106
330
1E
100
AcDbEntity
  8
0
100
AcDbLine
 10
194.999997
 20
36.137626
 30
0.0
 11
194.999997
 21
64.137626
 31
0.0
  0
LINE
  5
107
330
1E
100
AcDbEntity
  8
0
100
AcDbLine
 10
194.999997
 20
98.137626
 30
0.0
 11
194.999997
 21
97.937626
 31
0.0
  0
LINE
  5
108
330
1E
100
AcDbEntity
  8
0
100
AcDbLine
 10
194.999997
 20
97.937626
 30
0.0
 11
194.999997
 21
97.337626
 31
0.0
  0
LINE
  5
109
330
1E
100
AcDbEntity
  8
0
100
AcDbLine
 10
194.999997
 20
97.937626
 30
0.0
 11
194.999997
 21
98.137626
 31
0.0
  0
LINE
  5
10A
330
1E
100
AcDbEntity
  8
0
100
AcDbLine
 10
194.999997
 20
97.337626
 30
0.0
 11
194.999997
 21
96.337626
 31
0.0
  0
LINE
  5
10B
330
1E
100
AcDbEntity
  8
0
100
AcDbLine
 10
194.999997
 20
97.337626
 30
0.0
 11
194.999997
 21
97.937626
 31
0.0
  0
LINE
  5
10C
330
1E
100
AcDbEntity
  8
0
100
AcDbLine
 10
194.999997
 20
96.337626
 30
0.0
 11
194.999997
 21
95.13762599999999
 31
0.0
  0
LINE
  5
10D
330
1E
100
AcDbEntity
  8
0
100
AcDbLine
 10
194.999997
 20
96.337626
 30
0.0
 11
194.999997
 21
97.337626
 31
0.0
  0
LINE
  5
10E
330
1E
100
AcDbEntity
  8
0
100
AcDbLine
 10
194.999997
 20
95.13762599999999
 30
0.0
 11
194.999997
 21
96.337626
 31
0.0
  0
LINE
  5
10F
330
1E
100
AcDbEntity
  8
0
100
AcDbLine
 10
194.999997
 20
95.13762599999999
 30
0.0
 11
194.999997
 21
93.63762599999999
 31
0.0
  0
LINE
  5
110
330
1E
100
AcDbEntity
  8
0
100
AcDbLine
 10
194.999997
 20
93.63762599999999
 30
0.0
 11
194.999997
 21
95.13762599999999
 31
0.0
  0
LINE
  5
111
330
1E
100
AcDbEntity
  8
0
100
AcDbLine
 10
194.999997
 20
93.63762599999999
 30
0.0
 11
194.999997
 21
92.137626
 31
0.0
  0
LINE
  5
112
330
1E
100
AcDbEntity
  8
0
100
AcDbLine
 10
194.999997
 20
92.137626
 30
0.0
 11
194.999997
 21
93.63762599999999
 31
0.0
  0
LINE
  5
113
330
1E
100
AcDbEntity
  8
0
100
AcDbLine
 10
194.999997
 20
92.137626
 30
0.0
 11
194.999997
 21
64.137626
 31
0.0
  0
LINE
  5
114
330
1E
100
AcDbEntity
  8
0
100
AcDbLine
 10
194.999997
 20
64.137626
 30
0.0
 11
194.999997
 21
92.137626
 31
0.0
  0
LINE
  5
115
330
1E
100
AcDbEntity
  8
0
100
AcDbLine
 10
194.999997
 20
64.137626
 30
0.0
 11
194.999997
 21
36.137626
 31
0.0
  0
LINE
  5
116
330
1E
100
AcDbEntity
  8
0
100
AcDbLine
 10
194.999997
 20
30.137626
 30
0.0
 11
194.999997
 21
30.337626
 31
0.0
  0
LINE
  5
117
330
1E
100
AcDbEntity
  8
0
100
AcDbLine
 10
188.999997
 20
30.137626
 30
0.0
 11
194.999997
 21
30.137626
 31
0.0
  0
LINE
  5
11C
330
1E
100
AcDbEntity
  8
0
100
AcDbLine
 10
188.299997
 20
97.83762600000001
 30
0.0
 11
187.999997
 21
96.93762599999999
 31
0.0
  0
LINE
  5
11D
330
1E
100
AcDbEntity
  8
0
100
AcDbLine
 10
187.999997
 20
96.93762599999999
 30
0.0
 11
187.999997
 21
92.137626
 31
0.0
  0
LINE
  5
11E
330
1E
100
AcDbEntity
  8
0
100
AcDbLine
 10
188.299997
 20
30.437626
 30
0.0
 11
188.999997
 21
30.137626
 31
0.0
  0
ENDSEC
  0
SECTION
  2
OBJECTS
  0
DICTIONARY
  5
C
330
0
100
AcDbDictionary
281
     1
  3
ACAD_GROUP
350
D
  3
ACAD_LAYOUT
350
19
  3
ACAD_MLINESTYLE
350
16
  3
ACAD_PLOTSETTINGS
350
18
  3
ACAD_PLOTSTYLENAME
350
E
  3
AcDbVariableDictionary
350
11F
  0
DICTIONARY
  5
D
102
{ACAD_REACTORS
330
C
102
}
330
C
100
AcDbDictionary
281
     1
  0
DICTIONARY
  5
19
102
{ACAD_REACTORS
330
C
102
}
330
C
100
AcDbDictionary
281
     1
  3
Layout1
350
1D
  3
Model
350
21
  0
DICTIONARY
  5
16
102
{ACAD_REACTORS
330
C
102
}
330
C
100
AcDbDictionary
281
     1
  3
Standard
350
17
  0
DICTIONARY
  5
18
102
{ACAD_REACTORS
330
C
102
}
330
C
100
AcDbDictionary
281
     1
  0
ACDBDICTIONARYWDFLT
  5
E
102
{ACAD_REACTORS
330
C
102
}
330
C
100
AcDbDictionary
281
     1
  3
Normal
350
F
100
AcDbDictionaryWithDefault
340
F
  0
DICTIONARY
  5
11F
102
{ACAD_REACTORS
330
C
102
}
330
C
100
AcDbDictionary
281
     1
  3
DIMASSOC
350
120
  0
LAYOUT
  5
1D
102
{ACAD_REACTORS
330
19
102
}
330
19
100
AcDbPlotSettings
  1

  2
hp deskjet 980c series
  4

  6

 40
0.0
 41
0.0
 42
0.0
 43
0.0
 44
0.0
 45
0.0
 46
0.0
 47
0.0
 48
0.0
 49
0.0
140
0.0
141
0.0
142
1.0
143
1.0
 70
   688
 72
     0
 73
     0
 74
     5
  7

 75
    16
147
1.0
148
0.0
149
0.0
100
AcDbLayout
  1
Layout1
 70
     1
 71
     1
 10
0.0
 20
0.0
 11
12.0
 21
9.0
 12
0.0
 22
0.0
 32
0.0
 14
1.000000000000000E+20
 24
1.000000000000000E+20
 34
1.000000000000000E+20
 15
-1.000000000000000E+20
 25
-1.000000000000000E+20
 35
-1.000000000000000E+20
146
0.0
 13
0.0
 23
0.0
 33
0.0
 16
1.0
 26
0.0
 36
0.0
 17
0.0
 27
1.0
 37
0.0
 76
     0
330
1A
  0
LAYOUT
  5
21
102
{ACAD_REACTORS
330
19
102
}
330
19
100
AcDbPlotSettings
  1

  2
hp deskjet 980c series
  4

  6

 40
0.0
 41
0.0
 42
0.0
 43
0.0
 44
0.0
 45
0.0
 46
0.0
 47
0.0
 48
0.0
 49
0.0
140
0.0
141
0.0
142
1.0
143
1.0
 70
  1712
 72
     0
 73
     0
 74
     0
  7

 75
     0
147
1.0
148
0.0
149
0.0
100
AcDbLayout
  1
Model
 70
     1
 71
     0
 10
0.0
 20
0.0
 11
12.0
 21
9.0
 12
0.0
 22
0.0
 32
0.0
 14
0.0
 24
0.0
 34
0.0
 15
0.0
 25
0.0
 35
0.0
146
0.0
 13
0.0
 23
0.0
 33
0.0
 16
1.0
 26
0.0
 36
0.0
 17
0.0
 27
1.0
 37
0.0
 76
     0
330
1E
  0
MLINESTYLE
  5
17
102
{ACAD_REACTORS
330
16
102
}
330
16
100
AcDbMlineStyle
  2
STANDARD
 70
     0
  3

 62
   256
 51
90.0
 52
90.0
 71
     2
 49
0.5
 62
   256
  6
BYLAYER
 49
-0.5
 62
   256
  6
BYLAYER
  0
ACDBPLACEHOLDER
  5
F
102
{ACAD_REACTORS
330
E
102
}
330
E
  0
DICTIONARYVAR
  5
120
102
{ACAD_REACTORS
330
11F
102
}
330
11F
100
DictionaryVariables
280
     0
  1
1
  0
ENDSEC
  0
EOF
