  0
SECTION
  2
HEADER
  9
$ACADVER
  1
AC1015
  9
$ACADMAINTVER
 70
    13
  9
$DWGCODEPAGE
  3
ANSI_1252
  9
$INSBASE
 10
0.0
 20
0.0
 30
0.0
  9
$EXTMIN
 10
-0.0000000000000089
 20
0.0000250000000064
 30
0.0
  9
$EXTMAX
 10
320.0
 20
275.9999749999999
 30
0.0
  9
$LIMMIN
 10
0.0
 20
0.0
  9
$LIMMAX
 10
12.0
 20
9.0
  9
$ORTHOMODE
 70
     0
  9
$REGENMODE
 70
     1
  9
$FILLMODE
 70
     1
  9
$QTEXTMODE
 70
     0
  9
$MIRRTEXT
 70
     1
  9
$LTSCALE
 40
1.0
  9
$ATTMODE
 70
     1
  9
$TEXTSIZE
 40
0.2
  9
$TRACEWID
 40
0.05
  9
$TEXTSTYLE
  7
Standard
  9
$CLAYER
  8
0
  9
$CELTYPE
  6
Continuous
  9
$CECOLOR
 62
   256
  9
$CELTSCALE
 40
1.0
  9
$DISPSILH
 70
     0
  9
$DIMSCALE
 40
1.0
  9
$DIMASZ
 40
0.18
  9
$DIMEXO
 40
0.0625
  9
$DIMDLI
 40
0.38
  9
$DIMRND
 40
0.0
  9
$DIMDLE
 40
0.0
  9
$DIMEXE
 40
0.18
  9
$DIMTP
 40
0.0
  9
$DIMTM
 40
0.0
  9
$DIMTXT
 40
0.18
  9
$DIMCEN
 40
0.09
  9
$DIMTSZ
 40
0.0
  9
$DIMTOL
 70
     0
  9
$DIMLIM
 70
     0
  9
$DIMTIH
 70
     1
  9
$DIMTOH
 70
     1
  9
$DIMSE1
 70
     0
  9
$DIMSE2
 70
     0
  9
$DIMTAD
 70
     0
  9
$DIMZIN
 70
     0
  9
$DIMBLK
  1

  9
$DIMASO
 70
     1
  9
$DIMSHO
 70
     1
  9
$DIMPOST
  1

  9
$DIMAPOST
  1

  9
$DIMALT
 70
     0
  9
$DIMALTD
 70
     2
  9
$DIMALTF
 40
25.4
  9
$DIMLFAC
 40
1.0
  9
$DIMTOFL
 70
     0
  9
$DIMTVP
 40
0.0
  9
$DIMTIX
 70
     0
  9
$DIMSOXD
 70
     0
  9
$DIMSAH
 70
     0
  9
$DIMBLK1
  1

  9
$DIMBLK2
  1

  9
$DIMSTYLE
  2
Standard
  9
$DIMCLRD
 70
     0
  9
$DIMCLRE
 70
     0
  9
$DIMCLRT
 70
     0
  9
$DIMTFAC
 40
1.0
  9
$DIMGAP
 40
0.09
  9
$DIMJUST
 70
     0
  9
$DIMSD1
 70
     0
  9
$DIMSD2
 70
     0
  9
$DIMTOLJ
 70
     1
  9
$DIMTZIN
 70
     0
  9
$DIMALTZ
 70
     0
  9
$DIMALTTZ
 70
     0
  9
$DIMUPT
 70
     0
  9
$DIMDEC
 70
     4
  9
$DIMTDEC
 70
     4
  9
$DIMALTU
 70
     2
  9
$DIMALTTD
 70
     2
  9
$DIMTXSTY
  7
Standard
  9
$DIMAUNIT
 70
     0
  9
$DIMADEC
 70
     0
  9
$DIMALTRND
 40
0.0
  9
$DIMAZIN
 70
     0
  9
$DIMDSEP
 70
    46
  9
$DIMATFIT
 70
     3
  9
$DIMFRAC
 70
     0
  9
$DIMLDRBLK
  1

  9
$DIMLUNIT
 70
     2
  9
$DIMLWD
 70
    -2
  9
$DIMLWE
 70
    -2
  9
$DIMTMOVE
 70
     0
  9
$LUNITS
 70
     2
  9
$LUPREC
 70
     4
  9
$SKETCHINC
 40
0.1
  9
$FILLETRAD
 40
0.0
  9
$AUNITS
 70
     0
  9
$AUPREC
 70
     0
  9
$MENU
  1
.
  9
$ELEVATION
 40
0.0
  9
$PELEVATION
 40
0.0
  9
$THICKNESS
 40
0.0
  9
$LIMCHECK
 70
     0
  9
$CHAMFERA
 40
0.0
  9
$CHAMFERB
 40
0.0
  9
$CHAMFERC
 40
0.0
  9
$CHAMFERD
 40
0.0
  9
$SKPOLY
 70
     0
  9
$TDCREATE
 40
2454637.849593426
  9
$TDUCREATE
 40
2454637.766260092
  9
$TDUPDATE
 40
2454637.850637812
  9
$TDUUPDATE
 40
2454637.767304479
  9
$TDINDWG
 40
0.0010445602
  9
$TDUSRTIMER
 40
0.0010445602
  9
$USRTIMER
 70
     1
  9
$ANGBASE
 50
0.0
  9
$ANGDIR
 70
     0
  9
$PDMODE
 70
     0
  9
$PDSIZE
 40
0.0
  9
$PLINEWID
 40
0.0
  9
$SPLFRAME
 70
     0
  9
$SPLINETYPE
 70
     6
  9
$SPLINESEGS
 70
     8
  9
$HANDSEED
  5
4FA
  9
$SURFTAB1
 70
     6
  9
$SURFTAB2
 70
     6
  9
$SURFTYPE
 70
     6
  9
$SURFU
 70
     6
  9
$SURFV
 70
     6
  9
$UCSBASE
  2

  9
$UCSNAME
  2

  9
$UCSORG
 10
0.0
 20
0.0
 30
0.0
  9
$UCSXDIR
 10
1.0
 20
0.0
 30
0.0
  9
$UCSYDIR
 10
0.0
 20
1.0
 30
0.0
  9
$UCSORTHOREF
  2

  9
$UCSORTHOVIEW
 70
     1
  9
$UCSORGTOP
 10
0.0
 20
0.0
 30
0.0
  9
$UCSORGBOTTOM
 10
0.0
 20
0.0
 30
0.0
  9
$UCSORGLEFT
 10
0.0
 20
0.0
 30
0.0
  9
$UCSORGRIGHT
 10
0.0
 20
0.0
 30
0.0
  9
$UCSORGFRONT
 10
0.0
 20
0.0
 30
0.0
  9
$UCSORGBACK
 10
0.0
 20
0.0
 30
0.0
  9
$PUCSBASE
  2

  9
$PUCSNAME
  2

  9
$PUCSORG
 10
0.0
 20
0.0
 30
0.0
  9
$PUCSXDIR
 10
1.0
 20
0.0
 30
0.0
  9
$PUCSYDIR
 10
0.0
 20
1.0
 30
0.0
  9
$PUCSORTHOREF
  2

  9
$PUCSORTHOVIEW
 70
     0
  9
$PUCSORGTOP
 10
0.0
 20
0.0
 30
0.0
  9
$PUCSORGBOTTOM
 10
0.0
 20
0.0
 30
0.0
  9
$PUCSORGLEFT
 10
0.0
 20
0.0
 30
0.0
  9
$PUCSORGRIGHT
 10
0.0
 20
0.0
 30
0.0
  9
$PUCSORGFRONT
 10
0.0
 20
0.0
 30
0.0
  9
$PUCSORGBACK
 10
0.0
 20
0.0
 30
0.0
  9
$USERI1
 70
     0
  9
$USERI2
 70
     0
  9
$USERI3
 70
     0
  9
$USERI4
 70
     0
  9
$USERI5
 70
     0
  9
$USERR1
 40
0.0
  9
$USERR2
 40
0.0
  9
$USERR3
 40
0.0
  9
$USERR4
 40
0.0
  9
$USERR5
 40
0.0
  9
$WORLDVIEW
 70
     1
  9
$SHADEDGE
 70
     3
  9
$SHADEDIF
 70
    70
  9
$TILEMODE
 70
     1
  9
$MAXACTVP
 70
    64
  9
$PINSBASE
 10
0.0
 20
0.0
 30
0.0
  9
$PLIMCHECK
 70
     0
  9
$PEXTMIN
 10
1.000000000000000E+20
 20
1.000000000000000E+20
 30
1.000000000000000E+20
  9
$PEXTMAX
 10
-1.000000000000000E+20
 20
-1.000000000000000E+20
 30
-1.000000000000000E+20
  9
$PLIMMIN
 10
0.0
 20
0.0
  9
$PLIMMAX
 10
12.0
 20
9.0
  9
$UNITMODE
 70
     0
  9
$VISRETAIN
 70
     1
  9
$PLINEGEN
 70
     0
  9
$PSLTSCALE
 70
     1
  9
$TREEDEPTH
 70
  3020
  9
$CMLSTYLE
  2
Standard
  9
$CMLJUST
 70
     0
  9
$CMLSCALE
 40
1.0
  9
$PROXYGRAPHICS
 70
     1
  9
$MEASUREMENT
 70
     0
  9
$CELWEIGHT
370
    -1
  9
$ENDCAPS
280
     0
  9
$JOINSTYLE
280
     0
  9
$LWDISPLAY
290
     0
  9
$INSUNITS
 70
     0
  9
$HYPERLINKBASE
  1

  9
$STYLESHEET
  1

  9
$XEDIT
290
     1
  9
$CEPSNTYPE
380
     0
  9
$PSTYLEMODE
290
     1
  9
$FINGERPRINTGUID
  2
{560272FE-4FBA-485C-B19C-1DE7EE5DB43E}
  9
$VERSIONGUID
  2
{E84E68CA-8904-463C-98FA-8FBF870DB088}
  9
$EXTNAMES
290
     1
  9
$PSVPSCALE
 40
0.0
  9
$OLESTARTUP
290
     0
  0
ENDSEC
  0
SECTION
  2
CLASSES
  0
CLASS
  1
ACDBDICTIONARYWDFLT
  2
AcDbDictionaryWithDefault
  3
AutoCAD 2000
 90
        0
280
     0
281
     0
  0
CLASS
  1
ACDBPLACEHOLDER
  2
AcDbPlaceHolder
  3
AutoCAD 2000
 90
        0
280
     0
281
     0
  0
CLASS
  1
LAYOUT
  2
AcDbLayout
  3
AutoCAD 2000
 90
        0
280
     0
281
     0
  0
CLASS
  1
DICTIONARYVAR
  2
AcDbDictionaryVar
  3
AutoCAD 2000
 90
        0
280
     0
281
     0
  0
ENDSEC
  0
SECTION
  2
TABLES
  0
TABLE
  2
VPORT
  5
8
330
0
100
AcDbSymbolTable
 70
     2
  0
VPORT
  5
4F9
330
8
100
AcDbSymbolTableRecord
100
AcDbViewportTableRecord
  2
*Active
 70
     0
 10
0.0
 20
0.0
 11
1.0
 21
1.0
 12
160.0
 22
138.0
 13
0.0
 23
0.0
 14
1.0
 24
1.0
 15
0.0
 25
0.0
 16
0.0
 26
0.0
 36
1.0
 17
0.0
 27
0.0
 37
0.0
 40
278.1175966751918
 41
2.043533930857874
 42
50.0
 43
0.0
 44
0.0
 50
0.0
 51
0.0
 71
     0
 72
   100
 73
     1
 74
     3
 75
     0
 76
     0
 77
     0
 78
     0
281
     0
 65
     1
110
0.0
120
0.0
130
0.0
111
1.0
121
0.0
131
0.0
112
0.0
122
1.0
132
0.0
 79
     1
146
0.0
  0
ENDTAB
  0
TABLE
  2
LTYPE
  5
5
330
0
100
AcDbSymbolTable
 70
     1
  0
LTYPE
  5
13
330
5
100
AcDbSymbolTableRecord
100
AcDbLinetypeTableRecord
  2
ByBlock
 70
     0
  3

 72
    65
 73
     0
 40
0.0
  0
LTYPE
  5
14
330
5
100
AcDbSymbolTableRecord
100
AcDbLinetypeTableRecord
  2
ByLayer
 70
     0
  3

 72
    65
 73
     0
 40
0.0
  0
LTYPE
  5
15
330
5
100
AcDbSymbolTableRecord
100
AcDbLinetypeTableRecord
  2
Continuous
 70
     0
  3
Solid line
 72
    65
 73
     0
 40
0.0
  0
ENDTAB
  0
TABLE
  2
LAYER
  5
2
330
0
100
AcDbSymbolTable
 70
     1
  0
LAYER
  5
10
330
2
100
AcDbSymbolTableRecord
100
AcDbLayerTableRecord
  2
0
 70
     0
 62
     7
  6
Continuous
370
    -3
390
F
  0
ENDTAB
  0
TABLE
  2
STYLE
  5
3
330
0
100
AcDbSymbolTable
 70
     1
  0
STYLE
  5
11
330
3
100
AcDbSymbolTableRecord
100
AcDbTextStyleTableRecord
  2
Standard
 70
     0
 40
0.0
 41
1.0
 50
0.0
 71
     0
 42
0.2
  3
txt
  4

  0
ENDTAB
  0
TABLE
  2
VIEW
  5
6
330
0
100
AcDbSymbolTable
 70
     0
  0
ENDTAB
  0
TABLE
  2
UCS
  5
7
330
0
100
AcDbSymbolTable
 70
     0
  0
ENDTAB
  0
TABLE
  2
APPID
  5
9
330
0
100
AcDbSymbolTable
 70
     1
  0
APPID
  5
12
330
9
100
AcDbSymbolTableRecord
100
AcDbRegAppTableRecord
  2
ACAD
 70
     0
  0
ENDTAB
  0
TABLE
  2
DIMSTYLE
  5
A
330
0
100
AcDbSymbolTable
 70
     1
100
AcDbDimStyleTable
 71
     0
  0
DIMSTYLE
105
3AF
330
A
100
AcDbSymbolTableRecord
100
AcDbDimStyleTableRecord
  2
Standard
 70
     0
340
11
  0
ENDTAB
  0
TABLE
  2
BLOCK_RECORD
  5
1
330
0
100
AcDbSymbolTable
 70
     0
  0
BLOCK_RECORD
  5
1E
330
1
100
AcDbSymbolTableRecord
100
AcDbBlockTableRecord
  2
*Model_Space
340
21
  0
BLOCK_RECORD
  5
1A
330
1
100
AcDbSymbolTableRecord
100
AcDbBlockTableRecord
  2
*Paper_Space
340
1D
  0
ENDTAB
  0
ENDSEC
  0
SECTION
  2
BLOCKS
  0
BLOCK
  5
1F
330
1E
100
AcDbEntity
  8
0
100
AcDbBlockBegin
  2
*Model_Space
 70
     0
 10
0.0
 20
0.0
 30
0.0
  3
*Model_Space
  1

  0
ENDBLK
  5
20
330
1E
100
AcDbEntity
  8
0
100
AcDbBlockEnd
  0
BLOCK
  5
1B
330
1A
100
AcDbEntity
 67
     1
  8
0
100
AcDbBlockBegin
  2
*Paper_Space
 70
     0
 10
0.0
 20
0.0
 30
0.0
  3
*Paper_Space
  1

  0
ENDBLK
  5
1C
330
1A
100
AcDbEntity
 67
     1
  8
0
100
AcDbBlockEnd
  0
ENDSEC
  0
SECTION
  2
ENTITIES
  0
LINE
  5
22
330
1E
100
AcDbEntity
  8
0
100
AcDbLine
 10
-0.0000000000000089
 20
186.999975
 30
0.0
 11
0.299999999999991
 21
187.2999749999999
 31
0.0
  0
LINE
  5
23
330
1E
100
AcDbEntity
  8
0
100
AcDbLine
 10
-0.0000000000000089
 20
186.999975
 30
0.0
 11
-0.0000000000000089
 21
185.499975
 31
0.0
  0
LINE
  5
24
330
1E
100
AcDbEntity
  8
0
100
AcDbLine
 10
0.8999999999999909
 20
184.999975
 30
0.0
 11
1.799999999999989
 21
184.999975
 31
0.0
  0
LINE
  5
25
330
1E
100
AcDbEntity
  8
0
100
AcDbLine
 10
0.4999999999999911
 20
184.999975
 30
0.0
 11
0.8999999999999909
 21
184.999975
 31
0.0
  0
LINE
  5
26
330
1E
100
AcDbEntity
  8
0
100
AcDbLine
 10
1.799999999999989
 20
184.999975
 30
0.0
 11
3.39999999999999
 21
184.999975
 31
0.0
  0
LINE
  5
27
330
1E
100
AcDbEntity
  8
0
100
AcDbLine
 10
0.199999999999991
 20
185.199975
 30
0.0
 11
0.4999999999999911
 21
184.999975
 31
0.0
  0
LINE
  5
28
330
1E
100
AcDbEntity
  8
0
100
AcDbLine
 10
7.89999999999999
 20
184.999975
 30
0.0
 11
10.5
 21
184.999975
 31
0.0
  0
LINE
  5
29
330
1E
100
AcDbEntity
  8
0
100
AcDbLine
 10
5.49999999999999
 20
184.999975
 30
0.0
 11
7.89999999999999
 21
184.999975
 31
0.0
  0
LINE
  5
2A
330
1E
100
AcDbEntity
  8
0
100
AcDbLine
 10
10.5
 20
184.999975
 30
0.0
 11
60.0
 21
184.999975
 31
0.0
  0
LINE
  5
2B
330
1E
100
AcDbEntity
  8
0
100
AcDbLine
 10
10.5
 20
184.999975
 30
0.0
 11
60.0
 21
184.999975
 31
0.0
  0
LINE
  5
2C
330
1E
100
AcDbEntity
  8
0
100
AcDbLine
 10
3.39999999999999
 20
184.999975
 30
0.0
 11
5.49999999999999
 21
184.999975
 31
0.0
  0
LINE
  5
33
330
1E
100
AcDbEntity
  8
0
100
AcDbLine
 10
-0.0000000000000089
 20
185.499975
 30
0.0
 11
-0.0000000000000089
 21
186.999975
 31
0.0
  0
LINE
  5
34
330
1E
100
AcDbEntity
  8
0
100
AcDbLine
 10
-0.0000000000000089
 20
185.499975
 30
0.0
 11
0.199999999999991
 21
185.199975
 31
0.0
  0
LINE
  5
35
330
1E
100
AcDbEntity
  8
0
100
AcDbLine
 10
0.299999999999991
 20
187.2999749999999
 30
0.0
 11
1.399999999999989
 21
187.599975
 31
0.0
  0
LINE
  5
36
330
1E
100
AcDbEntity
  8
0
100
AcDbLine
 10
10.5
 20
188.2999749999999
 30
0.0
 11
39.8
 21
189.999975
 31
0.0
  0
LINE
  5
37
330
1E
100
AcDbEntity
  8
0
100
AcDbLine
 10
30.0
 20
229.999975
 30
0.0
 11
30.0
 21
235.999975
 31
0.0
  0
LINE
  5
38
330
1E
100
AcDbEntity
  8
0
100
AcDbLine
 10
30.0
 20
229.999975
 30
0.0
 11
30.3
 21
229.2999749999999
 31
0.0
  0
LINE
  5
39
330
1E
100
AcDbEntity
  8
0
100
AcDbLine
 10
30.0
 20
235.999975
 30
0.0
 11
30.0
 21
229.999975
 31
0.0
  0
LINE
  5
3A
330
1E
100
AcDbEntity
  8
0
100
AcDbLine
 10
10.5
 20
188.2999749999999
 30
0.0
 11
39.8
 21
189.999975
 31
0.0
  0
LINE
  5
3B
330
1E
100
AcDbEntity
  8
0
100
AcDbLine
 10
7.83504999999999
 20
188.149975
 30
0.0
 11
10.5
 21
188.2999749999999
 31
0.0
  0
LINE
  5
3C
330
1E
100
AcDbEntity
  8
0
100
AcDbLine
 10
5.32223999999999
 20
187.9849749999999
 30
0.0
 11
7.83504999999999
 21
188.149975
 31
0.0
  0
LINE
  5
3D
330
1E
100
AcDbEntity
  8
0
100
AcDbLine
 10
2.99999999999999
 20
187.7999749999999
 30
0.0
 11
5.32223999999999
 21
187.9849749999999
 31
0.0
  0
LINE
  5
3E
330
1E
100
AcDbEntity
  8
0
100
AcDbLine
 10
1.399999999999989
 20
187.599975
 30
0.0
 11
2.99999999999999
 21
187.7999749999999
 31
0.0
  0
LINE
  5
40
330
1E
100
AcDbEntity
  8
0
100
AcDbLine
 10
0.299999999999991
 20
187.2999749999999
 30
0.0
 11
1.399999999999989
 21
187.599975
 31
0.0
  0
LINE
  5
43
330
1E
100
AcDbEntity
  8
0
100
AcDbLine
 10
31.0
 20
228.999975
 30
0.0
 11
31.2
 21
228.999975
 31
0.0
  0
LINE
  5
44
330
1E
100
AcDbEntity
  8
0
100
AcDbLine
 10
31.69999999999999
 20
228.999975
 30
0.0
 11
32.5
 21
228.999975
 31
0.0
  0
LINE
  5
45
330
1E
100
AcDbEntity
  8
0
100
AcDbLine
 10
31.2
 20
228.999975
 30
0.0
 11
31.69999999999999
 21
228.999975
 31
0.0
  0
LINE
  5
46
330
1E
100
AcDbEntity
  8
0
100
AcDbLine
 10
31.1
 20
229.2999749999999
 30
0.0
 11
32.0
 21
229.2999749999999
 31
0.0
  0
LINE
  5
47
330
1E
100
AcDbEntity
  8
0
100
AcDbLine
 10
30.5
 20
229.2999749999999
 30
0.0
 11
31.1
 21
229.2999749999999
 31
0.0
  0
LINE
  5
48
330
1E
100
AcDbEntity
  8
0
100
AcDbLine
 10
30.3
 20
229.2999749999999
 30
0.0
 11
30.5
 21
229.2999749999999
 31
0.0
  0
LINE
  5
49
330
1E
100
AcDbEntity
  8
0
100
AcDbLine
 10
30.8
 20
235.999975
 30
0.0
 11
31.8
 21
235.999975
 31
0.0
  0
LINE
  5
4A
330
1E
100
AcDbEntity
  8
0
100
AcDbLine
 10
30.2
 20
235.999975
 30
0.0
 11
30.8
 21
235.999975
 31
0.0
  0
LINE
  5
4B
330
1E
100
AcDbEntity
  8
0
100
AcDbLine
 10
30.0
 20
235.999975
 30
0.0
 11
30.2
 21
235.999975
 31
0.0
  0
LINE
  5
4C
330
1E
100
AcDbEntity
  8
0
100
AcDbLine
 10
32.5
 20
228.999975
 30
0.0
 11
33.5
 21
228.999975
 31
0.0
  0
LINE
  5
4D
330
1E
100
AcDbEntity
  8
0
100
AcDbLine
 10
33.0
 20
228.999975
 30
0.0
 11
35.7
 21
228.999975
 31
0.0
  0
LINE
  5
4E
330
1E
100
AcDbEntity
  8
0
100
AcDbLine
 10
32.0
 20
228.999975
 30
0.0
 11
33.0
 21
228.999975
 31
0.0
  0
LINE
  5
4F
330
1E
100
AcDbEntity
  8
0
100
AcDbLine
 10
32.0
 20
229.2999749999999
 30
0.0
 11
33.2
 21
229.2999749999999
 31
0.0
  0
LINE
  5
50
330
1E
100
AcDbEntity
  8
0
100
AcDbLine
 10
33.5
 20
228.999975
 30
0.0
 11
34.7
 21
228.999975
 31
0.0
  0
LINE
  5
51
330
1E
100
AcDbEntity
  8
0
100
AcDbLine
 10
34.39999999999999
 20
228.999975
 30
0.0
 11
37.0
 21
228.999975
 31
0.0
  0
LINE
  5
52
330
1E
100
AcDbEntity
  8
0
100
AcDbLine
 10
33.39999999999999
 20
228.999975
 30
0.0
 11
34.39999999999999
 21
228.999975
 31
0.0
  0
LINE
  5
53
330
1E
100
AcDbEntity
  8
0
100
AcDbLine
 10
33.2
 20
229.2999749999999
 30
0.0
 11
34.5
 21
229.2999749999999
 31
0.0
  0
LINE
  5
54
330
1E
100
AcDbEntity
  8
0
100
AcDbLine
 10
34.5
 20
229.2999749999999
 30
0.0
 11
36.0
 21
229.2999749999999
 31
0.0
  0
LINE
  5
55
330
1E
100
AcDbEntity
  8
0
100
AcDbLine
 10
31.8
 20
235.999975
 30
0.0
 11
33.0
 21
235.999975
 31
0.0
  0
LINE
  5
56
330
1E
100
AcDbEntity
  8
0
100
AcDbLine
 10
33.0
 20
235.999975
 30
0.0
 11
34.5
 21
235.999975
 31
0.0
  0
LINE
  5
57
330
1E
100
AcDbEntity
  8
0
100
AcDbLine
 10
34.7
 20
228.999975
 30
0.0
 11
36.0
 21
228.999975
 31
0.0
  0
LINE
  5
59
330
1E
100
AcDbEntity
  8
0
100
AcDbLine
 10
36.0
 20
228.999975
 30
0.0
 11
46.50000000000011
 21
228.999975
 31
0.0
  0
LINE
  5
5A
330
1E
100
AcDbEntity
  8
0
100
AcDbLine
 10
37.0
 20
228.999975
 30
0.0
 11
41.2
 21
228.999975
 31
0.0
  0
LINE
  5
5B
330
1E
100
AcDbEntity
  8
0
100
AcDbLine
 10
39.8
 20
189.999975
 30
0.0
 11
42.2
 21
190.399975
 31
0.0
  0
LINE
  5
5C
330
1E
100
AcDbEntity
  8
0
100
AcDbLine
 10
41.2
 20
228.999975
 30
0.0
 11
46.50000000000011
 21
228.999975
 31
0.0
  0
LINE
  5
5D
330
1E
100
AcDbEntity
  8
0
100
AcDbLine
 10
44.59999999999999
 20
191.2999749999999
 30
0.0
 11
46.7
 21
192.999975
 31
0.0
  0
LINE
  5
5E
330
1E
100
AcDbEntity
  8
0
100
AcDbLine
 10
42.2
 20
190.399975
 30
0.0
 11
44.59999999999999
 21
191.2999749999999
 31
0.0
  0
LINE
  5
61
330
1E
100
AcDbEntity
  8
0
100
AcDbLine
 10
40.2
 20
228.999975
 30
0.0
 11
46.1
 21
228.999975
 31
0.0
  0
LINE
  5
62
330
1E
100
AcDbEntity
  8
0
100
AcDbLine
 10
45.89999999999999
 20
228.999975
 30
0.0
 11
46.50000000000011
 21
228.999975
 31
0.0
  0
LINE
  5
63
330
1E
100
AcDbEntity
  8
0
100
AcDbLine
 10
45.4
 20
228.999975
 30
0.0
 11
45.89999999999999
 21
228.999975
 31
0.0
  0
LINE
  5
64
330
1E
100
AcDbEntity
  8
0
100
AcDbLine
 10
47.8
 20
228.599975
 30
0.0
 11
48.79999999999999
 21
227.7999749999999
 31
0.0
  0
LINE
  5
65
330
1E
100
AcDbEntity
  8
0
100
AcDbLine
 10
46.5
 20
228.999975
 30
0.0
 11
47.8
 21
228.599975
 31
0.0
  0
LINE
  5
66
330
1E
100
AcDbEntity
  8
0
100
AcDbLine
 10
48.2
 20
195.099975
 30
0.0
 11
49.0
 21
197.099975
 31
0.0
  0
LINE
  5
67
330
1E
100
AcDbEntity
  8
0
100
AcDbLine
 10
46.7
 20
192.999975
 30
0.0
 11
48.2
 21
195.099975
 31
0.0
  0
LINE
  5
68
330
1E
100
AcDbEntity
  8
0
100
AcDbLine
 10
49.29999999999999
 20
226.7999749999999
 30
0.0
 11
49.5
 21
225.9999749999999
 31
0.0
  0
LINE
  5
69
330
1E
100
AcDbEntity
  8
0
100
AcDbLine
 10
48.79999999999999
 20
227.7999749999999
 30
0.0
 11
49.29999999999999
 21
226.7999749999999
 31
0.0
  0
LINE
  5
6A
330
1E
100
AcDbEntity
  8
0
100
AcDbLine
 10
49.5
 20
199.999975
 30
0.0
 11
49.5
 21
222.999975
 31
0.0
  0
LINE
  5
6B
330
1E
100
AcDbEntity
  8
0
100
AcDbLine
 10
49.5
 20
222.999975
 30
0.0
 11
49.7
 21
223.399975
 31
0.0
  0
LINE
  5
6C
330
1E
100
AcDbEntity
  8
0
100
AcDbLine
 10
49.5
 20
222.999975
 30
0.0
 11
49.5
 21
199.999975
 31
0.0
  0
LINE
  5
6D
330
1E
100
AcDbEntity
  8
0
100
AcDbLine
 10
49.7
 20
223.5999749999999
 30
0.0
 11
50.1
 21
223.5999749999999
 31
0.0
  0
LINE
  5
6E
330
1E
100
AcDbEntity
  8
0
100
AcDbLine
 10
49.7
 20
223.5999749999999
 30
0.0
 11
49.7
 21
224.899975
 31
0.0
  0
LINE
  5
6F
330
1E
100
AcDbEntity
  8
0
100
AcDbLine
 10
49.7
 20
223.5999749999999
 30
0.0
 11
50.0
 21
223.5999749999999
 31
0.0
  0
LINE
  5
70
330
1E
100
AcDbEntity
  8
0
100
AcDbLine
 10
49.7
 20
224.899975
 30
0.0
 11
50.1
 21
224.899975
 31
0.0
  0
LINE
  5
71
330
1E
100
AcDbEntity
  8
0
100
AcDbLine
 10
49.7
 20
224.899975
 30
0.0
 11
49.7
 21
223.5999749999999
 31
0.0
  0
LINE
  5
72
330
1E
100
AcDbEntity
  8
0
100
AcDbLine
 10
49.7
 20
223.399975
 30
0.0
 11
50.0
 21
223.5999749999999
 31
0.0
  0
LINE
  5
73
330
1E
100
AcDbEntity
  8
0
100
AcDbLine
 10
50.1
 20
223.5999749999999
 30
0.0
 11
51.1
 21
223.5999749999999
 31
0.0
  0
LINE
  5
74
330
1E
100
AcDbEntity
  8
0
100
AcDbLine
 10
52.7
 20
223.5999749999999
 30
0.0
 11
54.9
 21
223.5999749999999
 31
0.0
  0
LINE
  5
75
330
1E
100
AcDbEntity
  8
0
100
AcDbLine
 10
51.1
 20
223.5999749999999
 30
0.0
 11
52.7
 21
223.5999749999999
 31
0.0
  0
LINE
  5
76
330
1E
100
AcDbEntity
  8
0
100
AcDbLine
 10
51.29999999999999
 20
223.5999749999999
 30
0.0
 11
52.9
 21
223.5999749999999
 31
0.0
  0
LINE
  5
77
330
1E
100
AcDbEntity
  8
0
100
AcDbLine
 10
50.4
 20
223.5999749999999
 30
0.0
 11
51.29999999999999
 21
223.5999749999999
 31
0.0
  0
LINE
  5
78
330
1E
100
AcDbEntity
  8
0
100
AcDbLine
 10
52.7
 20
224.899975
 30
0.0
 11
54.9
 21
224.899975
 31
0.0
  0
LINE
  5
79
330
1E
100
AcDbEntity
  8
0
100
AcDbLine
 10
51.1
 20
224.899975
 30
0.0
 11
52.7
 21
224.899975
 31
0.0
  0
LINE
  5
7A
330
1E
100
AcDbEntity
  8
0
100
AcDbLine
 10
50.1
 20
224.899975
 30
0.0
 11
51.1
 21
224.899975
 31
0.0
  0
LINE
  5
7B
330
1E
100
AcDbEntity
  8
0
100
AcDbLine
 10
50.0
 20
223.5999749999999
 30
0.0
 11
50.4
 21
223.5999749999999
 31
0.0
  0
LINE
  5
7C
330
1E
100
AcDbEntity
  8
0
100
AcDbLine
 10
49.7
 20
225.099975
 30
0.0
 11
50.0
 21
224.899975
 31
0.0
  0
LINE
  5
7D
330
1E
100
AcDbEntity
  8
0
100
AcDbLine
 10
49.5
 20
225.9999749999999
 30
0.0
 11
49.5
 21
225.499975
 31
0.0
  0
LINE
  5
7E
330
1E
100
AcDbEntity
  8
0
100
AcDbLine
 10
49.5
 20
225.499975
 30
0.0
 11
49.7
 21
225.099975
 31
0.0
  0
LINE
  5
7F
330
1E
100
AcDbEntity
  8
0
100
AcDbLine
 10
49.5
 20
225.499975
 30
0.0
 11
49.5
 21
225.9999749999999
 31
0.0
  0
LINE
  5
80
330
1E
100
AcDbEntity
  8
0
100
AcDbLine
 10
49.4
 20
198.999975
 30
0.0
 11
49.5
 21
199.999975
 31
0.0
  0
LINE
  5
81
330
1E
100
AcDbEntity
  8
0
100
AcDbLine
 10
49.0
 20
197.099975
 30
0.0
 11
49.4
 21
198.999975
 31
0.0
  0
LINE
  5
82
330
1E
100
AcDbEntity
  8
0
100
AcDbLine
 10
48.7
 20
228.999975
 30
0.0
 11
52.0
 21
228.999975
 31
0.0
  0
LINE
  5
83
330
1E
100
AcDbEntity
  8
0
100
AcDbLine
 10
52.0
 20
228.999975
 30
0.0
 11
55.89999999999999
 21
228.999975
 31
0.0
  0
LINE
  5
84
330
1E
100
AcDbEntity
  8
0
100
AcDbLine
 10
60.0
 20
184.999975
 30
0.0
 11
62.6
 21
184.999975
 31
0.0
  0
LINE
  5
85
330
1E
100
AcDbEntity
  8
0
100
AcDbLine
 10
62.6
 20
184.999975
 30
0.0
 11
65.0
 21
184.999975
 31
0.0
  0
LINE
  5
86
330
1E
100
AcDbEntity
  8
0
100
AcDbLine
 10
65.0
 20
184.999975
 30
0.0
 11
67.09999999999999
 21
184.999975
 31
0.0
  0
LINE
  5
87
330
1E
100
AcDbEntity
  8
0
100
AcDbLine
 10
68.7
 20
184.999975
 30
0.0
 11
69.59999999999999
 21
184.999975
 31
0.0
  0
LINE
  5
88
330
1E
100
AcDbEntity
  8
0
100
AcDbLine
 10
69.59999999999999
 20
184.999975
 30
0.0
 11
70.0
 21
184.999975
 31
0.0
  0
LINE
  5
89
330
1E
100
AcDbEntity
  8
0
100
AcDbLine
 10
67.09999999999999
 20
184.999975
 30
0.0
 11
68.7
 21
184.999975
 31
0.0
  0
LINE
  5
8A
330
1E
100
AcDbEntity
  8
0
100
AcDbLine
 10
70.0
 20
184.999975
 30
0.0
 11
70.3
 21
185.199975
 31
0.0
  0
LINE
  5
8B
330
1E
100
AcDbEntity
  8
0
100
AcDbLine
 10
70.5
 20
185.499975
 30
0.0
 11
70.5
 21
186.999975
 31
0.0
  0
LINE
  5
8C
330
1E
100
AcDbEntity
  8
0
100
AcDbLine
 10
70.3
 20
185.199975
 30
0.0
 11
70.5
 21
185.499975
 31
0.0
  0
LINE
  5
8E
330
1E
100
AcDbEntity
  8
0
100
AcDbLine
 10
54.9
 20
223.5999749999999
 30
0.0
 11
57.4
 21
223.5999749999999
 31
0.0
  0
LINE
  5
8F
330
1E
100
AcDbEntity
  8
0
100
AcDbLine
 10
52.9
 20
223.5999749999999
 30
0.0
 11
55.0
 21
223.5999749999999
 31
0.0
  0
LINE
  5
90
330
1E
100
AcDbEntity
  8
0
100
AcDbLine
 10
65.09999999999999
 20
223.5999749999999
 30
0.0
 11
67.3
 21
223.5999749999999
 31
0.0
  0
LINE
  5
91
330
1E
100
AcDbEntity
  8
0
100
AcDbLine
 10
65.0
 20
223.5999749999999
 30
0.0
 11
67.09999999999999
 21
223.5999749999999
 31
0.0
  0
LINE
  5
92
330
1E
100
AcDbEntity
  8
0
100
AcDbLine
 10
62.6
 20
223.5999749999999
 30
0.0
 11
65.0
 21
223.5999749999999
 31
0.0
  0
LINE
  5
93
330
1E
100
AcDbEntity
  8
0
100
AcDbLine
 10
62.6
 20
223.5999749999999
 30
0.0
 11
65.09999999999999
 21
223.5999749999999
 31
0.0
  0
LINE
  5
94
330
1E
100
AcDbEntity
  8
0
100
AcDbLine
 10
60.0
 20
223.5999749999999
 30
0.0
 11
62.6
 21
223.5999749999999
 31
0.0
  0
LINE
  5
95
330
1E
100
AcDbEntity
  8
0
100
AcDbLine
 10
55.0
 20
223.5999749999999
 30
0.0
 11
57.4
 21
223.5999749999999
 31
0.0
  0
LINE
  5
96
330
1E
100
AcDbEntity
  8
0
100
AcDbLine
 10
57.4
 20
223.5999749999999
 30
0.0
 11
60.0
 21
223.5999749999999
 31
0.0
  0
LINE
  5
97
330
1E
100
AcDbEntity
  8
0
100
AcDbLine
 10
67.3
 20
223.5999749999999
 30
0.0
 11
68.9
 21
223.5999749999999
 31
0.0
  0
LINE
  5
98
330
1E
100
AcDbEntity
  8
0
100
AcDbLine
 10
68.9
 20
223.5999749999999
 30
0.0
 11
69.90000000000001
 21
223.5999749999999
 31
0.0
  0
LINE
  5
99
330
1E
100
AcDbEntity
  8
0
100
AcDbLine
 10
67.09999999999999
 20
223.5999749999999
 30
0.0
 11
68.7
 21
223.5999749999999
 31
0.0
  0
LINE
  5
9A
330
1E
100
AcDbEntity
  8
0
100
AcDbLine
 10
60.0
 20
224.899975
 30
0.0
 11
62.6
 21
224.899975
 31
0.0
  0
LINE
  5
9B
330
1E
100
AcDbEntity
  8
0
100
AcDbLine
 10
62.6
 20
224.899975
 30
0.0
 11
65.09999999999999
 21
224.899975
 31
0.0
  0
LINE
  5
9C
330
1E
100
AcDbEntity
  8
0
100
AcDbLine
 10
65.09999999999999
 20
224.899975
 30
0.0
 11
67.3
 21
224.899975
 31
0.0
  0
LINE
  5
9D
330
1E
100
AcDbEntity
  8
0
100
AcDbLine
 10
67.3
 20
224.899975
 30
0.0
 11
68.9
 21
224.899975
 31
0.0
  0
LINE
  5
9E
330
1E
100
AcDbEntity
  8
0
100
AcDbLine
 10
68.9
 20
224.899975
 30
0.0
 11
69.90000000000001
 21
224.899975
 31
0.0
  0
LINE
  5
9F
330
1E
100
AcDbEntity
  8
0
100
AcDbLine
 10
57.4
 20
224.899975
 30
0.0
 11
60.0
 21
224.899975
 31
0.0
  0
LINE
  5
A0
330
1E
100
AcDbEntity
  8
0
100
AcDbLine
 10
54.9
 20
224.899975
 30
0.0
 11
57.4
 21
224.899975
 31
0.0
  0
LINE
  5
A1
330
1E
100
AcDbEntity
  8
0
100
AcDbLine
 10
68.7
 20
223.5999749999999
 30
0.0
 11
69.59999999999999
 21
223.5999749999999
 31
0.0
  0
LINE
  5
A2
330
1E
100
AcDbEntity
  8
0
100
AcDbLine
 10
69.90000000000001
 20
223.5999749999999
 30
0.0
 11
70.3
 21
223.5999749999999
 31
0.0
  0
LINE
  5
A3
330
1E
100
AcDbEntity
  8
0
100
AcDbLine
 10
70.3
 20
223.5999749999999
 30
0.0
 11
70.3
 21
224.899975
 31
0.0
  0
LINE
  5
A4
330
1E
100
AcDbEntity
  8
0
100
AcDbLine
 10
70.3
 20
223.399975
 30
0.0
 11
70.5
 21
222.999975
 31
0.0
  0
LINE
  5
A5
330
1E
100
AcDbEntity
  8
0
100
AcDbLine
 10
70.3
 20
224.899975
 30
0.0
 11
70.3
 21
223.5999749999999
 31
0.0
  0
LINE
  5
A6
330
1E
100
AcDbEntity
  8
0
100
AcDbLine
 10
69.90000000000001
 20
224.899975
 30
0.0
 11
70.3
 21
224.899975
 31
0.0
  0
LINE
  5
A7
330
1E
100
AcDbEntity
  8
0
100
AcDbLine
 10
70.0
 20
223.5999749999999
 30
0.0
 11
70.3
 21
223.399975
 31
0.0
  0
LINE
  5
A8
330
1E
100
AcDbEntity
  8
0
100
AcDbLine
 10
70.0
 20
223.5999749999999
 30
0.0
 11
70.3
 21
223.5999749999999
 31
0.0
  0
LINE
  5
A9
330
1E
100
AcDbEntity
  8
0
100
AcDbLine
 10
69.59999999999999
 20
223.5999749999999
 30
0.0
 11
70.0
 21
223.5999749999999
 31
0.0
  0
LINE
  5
AA
330
1E
100
AcDbEntity
  8
0
100
AcDbLine
 10
64.1
 20
228.999975
 30
0.0
 11
68.0
 21
228.999975
 31
0.0
  0
LINE
  5
AB
330
1E
100
AcDbEntity
  8
0
100
AcDbLine
 10
60.0
 20
228.999975
 30
0.0
 11
67.2
 21
228.999975
 31
0.0
  0
LINE
  5
AC
330
1E
100
AcDbEntity
  8
0
100
AcDbLine
 10
60.0
 20
228.999975
 30
0.0
 11
64.1
 21
228.999975
 31
0.0
  0
LINE
  5
AD
330
1E
100
AcDbEntity
  8
0
100
AcDbLine
 10
68.0
 20
228.999975
 30
0.0
 11
71.29999999999999
 21
228.999975
 31
0.0
  0
LINE
  5
AE
330
1E
100
AcDbEntity
  8
0
100
AcDbLine
 10
67.2
 20
228.999975
 30
0.0
 11
73.9
 21
228.999975
 31
0.0
  0
LINE
  5
AF
330
1E
100
AcDbEntity
  8
0
100
AcDbLine
 10
70.0
 20
224.899975
 30
0.0
 11
70.3
 21
225.099975
 31
0.0
  0
LINE
  5
B0
330
1E
100
AcDbEntity
  8
0
100
AcDbLine
 10
70.5
 20
225.499975
 30
0.0
 11
70.5
 21
225.9999749999999
 31
0.0
  0
LINE
  5
B1
330
1E
100
AcDbEntity
  8
0
100
AcDbLine
 10
70.5
 20
222.999975
 30
0.0
 11
70.5
 21
186.999975
 31
0.0
  0
LINE
  5
B2
330
1E
100
AcDbEntity
  8
0
100
AcDbLine
 10
70.5
 20
225.9999749999999
 30
0.0
 11
70.7
 21
226.7999749999999
 31
0.0
  0
LINE
  5
B3
330
1E
100
AcDbEntity
  8
0
100
AcDbLine
 10
70.5
 20
225.9999749999999
 30
0.0
 11
70.5
 21
225.499975
 31
0.0
  0
LINE
  5
B4
330
1E
100
AcDbEntity
  8
0
100
AcDbLine
 10
70.3
 20
225.099975
 30
0.0
 11
70.5
 21
225.499975
 31
0.0
  0
LINE
  5
B6
330
1E
100
AcDbEntity
  8
0
100
AcDbLine
 10
70.7
 20
226.7999749999999
 30
0.0
 11
71.2
 21
227.7999749999999
 31
0.0
  0
LINE
  5
B7
330
1E
100
AcDbEntity
  8
0
100
AcDbLine
 10
71.2
 20
227.7999749999999
 30
0.0
 11
72.2
 21
228.599975
 31
0.0
  0
LINE
  5
B8
330
1E
100
AcDbEntity
  8
0
100
AcDbLine
 10
73.5
 20
228.999975
 30
0.0
 11
74.1
 21
228.999975
 31
0.0
  0
LINE
  5
B9
330
1E
100
AcDbEntity
  8
0
100
AcDbLine
 10
73.4999999999999
 20
228.999975
 30
0.0
 11
84.0
 21
228.999975
 31
0.0
  0
LINE
  5
BA
330
1E
100
AcDbEntity
  8
0
100
AcDbLine
 10
73.4999999999999
 20
228.999975
 30
0.0
 11
78.79999999999999
 21
228.999975
 31
0.0
  0
LINE
  5
BB
330
1E
100
AcDbEntity
  8
0
100
AcDbLine
 10
71.29999999999999
 20
228.999975
 30
0.0
 11
73.9
 21
228.999975
 31
0.0
  0
LINE
  5
BC
330
1E
100
AcDbEntity
  8
0
100
AcDbLine
 10
74.1
 20
228.999975
 30
0.0
 11
74.59999999999999
 21
228.999975
 31
0.0
  0
LINE
  5
BD
330
1E
100
AcDbEntity
  8
0
100
AcDbLine
 10
78.79999999999999
 20
228.999975
 30
0.0
 11
83.0
 21
228.999975
 31
0.0
  0
LINE
  5
BE
330
1E
100
AcDbEntity
  8
0
100
AcDbLine
 10
73.9
 20
228.999975
 30
0.0
 11
75.4
 21
228.999975
 31
0.0
  0
LINE
  5
BF
330
1E
100
AcDbEntity
  8
0
100
AcDbLine
 10
73.9
 20
228.999975
 30
0.0
 11
79.8
 21
228.999975
 31
0.0
  0
LINE
  5
C0
330
1E
100
AcDbEntity
  8
0
100
AcDbLine
 10
75.4
 20
228.999975
 30
0.0
 11
76.0
 21
228.999975
 31
0.0
  0
LINE
  5
C1
330
1E
100
AcDbEntity
  8
0
100
AcDbLine
 10
83.0
 20
228.999975
 30
0.0
 11
85.6
 21
228.999975
 31
0.0
  0
LINE
  5
C2
330
1E
100
AcDbEntity
  8
0
100
AcDbLine
 10
84.0
 20
228.999975
 30
0.0
 11
85.29999999999999
 21
228.999975
 31
0.0
  0
LINE
  5
C3
330
1E
100
AcDbEntity
  8
0
100
AcDbLine
 10
85.6
 20
228.999975
 30
0.0
 11
86.6
 21
228.999975
 31
0.0
  0
LINE
  5
C4
330
1E
100
AcDbEntity
  8
0
100
AcDbLine
 10
85.29999999999999
 20
228.999975
 30
0.0
 11
86.5
 21
228.999975
 31
0.0
  0
LINE
  5
C5
330
1E
100
AcDbEntity
  8
0
100
AcDbLine
 10
86.5
 20
228.999975
 30
0.0
 11
87.5
 21
228.999975
 31
0.0
  0
LINE
  5
C6
330
1E
100
AcDbEntity
  8
0
100
AcDbLine
 10
79.8
 20
228.999975
 30
0.0
 11
84.29999999999999
 21
228.999975
 31
0.0
  0
LINE
  5
C7
330
1E
100
AcDbEntity
  8
0
100
AcDbLine
 10
84.29999999999999
 20
228.999975
 30
0.0
 11
87.0
 21
228.999975
 31
0.0
  0
LINE
  5
C8
330
1E
100
AcDbEntity
  8
0
100
AcDbLine
 10
87.5
 20
228.999975
 30
0.0
 11
88.3
 21
228.999975
 31
0.0
  0
LINE
  5
C9
330
1E
100
AcDbEntity
  8
0
100
AcDbLine
 10
131.6999999999999
 20
228.999975
 30
0.0
 11
132.4999999999999
 21
228.999975
 31
0.0
  0
LINE
  5
CA
330
1E
100
AcDbEntity
  8
0
100
AcDbLine
 10
131.1999999999999
 20
228.999975
 30
0.0
 11
131.6999999999999
 21
228.999975
 31
0.0
  0
LINE
  5
CB
330
1E
100
AcDbEntity
  8
0
100
AcDbLine
 10
131.0
 20
228.999975
 30
0.0
 11
131.1999999999999
 21
228.999975
 31
0.0
  0
LINE
  5
CC
330
1E
100
AcDbEntity
  8
0
100
AcDbLine
 10
132.4999999999999
 20
228.999975
 30
0.0
 11
133.4999999999999
 21
228.999975
 31
0.0
  0
LINE
  5
CD
330
1E
100
AcDbEntity
  8
0
100
AcDbLine
 10
133.4999999999999
 20
228.999975
 30
0.0
 11
134.6999999999999
 21
228.999975
 31
0.0
  0
LINE
  5
CE
330
1E
100
AcDbEntity
  8
0
100
AcDbLine
 10
134.6999999999999
 20
228.999975
 30
0.0
 11
136.0
 21
228.999975
 31
0.0
  0
LINE
  5
CF
330
1E
100
AcDbEntity
  8
0
100
AcDbLine
 10
136.0
 20
228.999975
 30
0.0
 11
146.5
 21
228.999975
 31
0.0
  0
LINE
  5
D0
330
1E
100
AcDbEntity
  8
0
100
AcDbLine
 10
137.0
 20
228.999975
 30
0.0
 11
141.1999999999999
 21
228.999975
 31
0.0
  0
LINE
  5
D1
330
1E
100
AcDbEntity
  8
0
100
AcDbLine
 10
134.4
 20
228.999975
 30
0.0
 11
137.0
 21
228.999975
 31
0.0
  0
LINE
  5
D2
330
1E
100
AcDbEntity
  8
0
100
AcDbLine
 10
141.1999999999999
 20
228.999975
 30
0.0
 11
146.5
 21
228.999975
 31
0.0
  0
LINE
  5
D3
330
1E
100
AcDbEntity
  8
0
100
AcDbLine
 10
88.3
 20
228.999975
 30
0.0
 11
88.8
 21
228.999975
 31
0.0
  0
LINE
  5
D4
330
1E
100
AcDbEntity
  8
0
100
AcDbLine
 10
133.4
 20
228.999975
 30
0.0
 11
134.4
 21
228.999975
 31
0.0
  0
LINE
  5
D5
330
1E
100
AcDbEntity
  8
0
100
AcDbLine
 10
140.1999999999999
 20
228.999975
 30
0.0
 11
146.1
 21
228.999975
 31
0.0
  0
LINE
  5
D6
330
1E
100
AcDbEntity
  8
0
100
AcDbLine
 10
145.9
 20
228.999975
 30
0.0
 11
146.5
 21
228.999975
 31
0.0
  0
LINE
  5
D7
330
1E
100
AcDbEntity
  8
0
100
AcDbLine
 10
145.4
 20
228.999975
 30
0.0
 11
145.9
 21
228.999975
 31
0.0
  0
LINE
  5
D8
330
1E
100
AcDbEntity
  8
0
100
AcDbLine
 10
146.1
 20
228.999975
 30
0.0
 11
148.6999999999999
 21
228.999975
 31
0.0
  0
LINE
  5
D9
330
1E
100
AcDbEntity
  8
0
100
AcDbLine
 10
146.1
 20
228.999975
 30
0.0
 11
152.8
 21
228.999975
 31
0.0
  0
LINE
  5
DA
330
1E
100
AcDbEntity
  8
0
100
AcDbLine
 10
144.5999999999999
 20
228.999975
 30
0.0
 11
146.1
 21
228.999975
 31
0.0
  0
LINE
  5
DB
330
1E
100
AcDbEntity
  8
0
100
AcDbLine
 10
144.0
 20
228.999975
 30
0.0
 11
144.5999999999999
 21
228.999975
 31
0.0
  0
LINE
  5
DC
330
1E
100
AcDbEntity
  8
0
100
AcDbLine
 10
135.6999999999999
 20
228.999975
 30
0.0
 11
140.1999999999999
 21
228.999975
 31
0.0
  0
LINE
  5
DD
330
1E
100
AcDbEntity
  8
0
100
AcDbLine
 10
133.0
 20
228.999975
 30
0.0
 11
135.6999999999999
 21
228.999975
 31
0.0
  0
LINE
  5
DE
330
1E
100
AcDbEntity
  8
0
100
AcDbLine
 10
132.0
 20
228.999975
 30
0.0
 11
133.0
 21
228.999975
 31
0.0
  0
LINE
  5
DF
330
1E
100
AcDbEntity
  8
0
100
AcDbLine
 10
88.8
 20
228.999975
 30
0.0
 11
89.0
 21
228.999975
 31
0.0
  0
LINE
  5
E0
330
1E
100
AcDbEntity
  8
0
100
AcDbLine
 10
87.0
 20
228.999975
 30
0.0
 11
88.0
 21
228.999975
 31
0.0
  0
LINE
  5
E1
330
1E
100
AcDbEntity
  8
0
100
AcDbLine
 10
72.2
 20
228.599975
 30
0.0
 11
73.5
 21
228.999975
 31
0.0
  0
LINE
  5
E2
330
1E
100
AcDbEntity
  8
0
100
AcDbLine
 10
70.5
 20
186.999975
 30
0.0
 11
70.5
 21
185.499975
 31
0.0
  0
LINE
  5
E3
330
1E
100
AcDbEntity
  8
0
100
AcDbLine
 10
70.5
 20
186.999975
 30
0.0
 11
70.5
 21
222.999975
 31
0.0
  0
LINE
  5
E4
330
1E
100
AcDbEntity
  8
0
100
AcDbLine
 10
55.89999999999999
 20
228.999975
 30
0.0
 11
60.0
 21
228.999975
 31
0.0
  0
LINE
  5
E5
330
1E
100
AcDbEntity
  8
0
100
AcDbLine
 10
52.8
 20
228.999975
 30
0.0
 11
60.0
 21
228.999975
 31
0.0
  0
LINE
  5
E6
330
1E
100
AcDbEntity
  8
0
100
AcDbLine
 10
46.1
 20
228.999975
 30
0.0
 11
48.7
 21
228.999975
 31
0.0
  0
LINE
  5
E7
330
1E
100
AcDbEntity
  8
0
100
AcDbLine
 10
46.1
 20
228.999975
 30
0.0
 11
52.8
 21
228.999975
 31
0.0
  0
LINE
  5
E8
330
1E
100
AcDbEntity
  8
0
100
AcDbLine
 10
44.59999999999999
 20
228.999975
 30
0.0
 11
46.1
 21
228.999975
 31
0.0
  0
LINE
  5
E9
330
1E
100
AcDbEntity
  8
0
100
AcDbLine
 10
88.0
 20
229.2999749999999
 30
0.0
 11
88.9
 21
229.2999749999999
 31
0.0
  0
LINE
  5
EA
330
1E
100
AcDbEntity
  8
0
100
AcDbLine
 10
88.9
 20
229.2999749999999
 30
0.0
 11
89.50000000000001
 21
229.2999749999999
 31
0.0
  0
LINE
  5
EB
330
1E
100
AcDbEntity
  8
0
100
AcDbLine
 10
131.0999999999999
 20
229.2999749999999
 30
0.0
 11
132.0
 21
229.2999749999999
 31
0.0
  0
LINE
  5
EC
330
1E
100
AcDbEntity
  8
0
100
AcDbLine
 10
130.4999999999999
 20
229.2999749999999
 30
0.0
 11
131.0999999999999
 21
229.2999749999999
 31
0.0
  0
LINE
  5
ED
330
1E
100
AcDbEntity
  8
0
100
AcDbLine
 10
130.3
 20
229.2999749999999
 30
0.0
 11
130.4999999999999
 21
229.2999749999999
 31
0.0
  0
LINE
  5
EE
330
1E
100
AcDbEntity
  8
0
100
AcDbLine
 10
130.3
 20
229.2999749999999
 30
0.0
 11
131.0
 21
228.999975
 31
0.0
  0
LINE
  5
EF
330
1E
100
AcDbEntity
  8
0
100
AcDbLine
 10
132.0
 20
229.2999749999999
 30
0.0
 11
133.1999999999999
 21
229.2999749999999
 31
0.0
  0
LINE
  5
F0
330
1E
100
AcDbEntity
  8
0
100
AcDbLine
 10
133.1999999999999
 20
229.2999749999999
 30
0.0
 11
134.4999999999999
 21
229.2999749999999
 31
0.0
  0
LINE
  5
F1
330
1E
100
AcDbEntity
  8
0
100
AcDbLine
 10
134.4999999999999
 20
229.2999749999999
 30
0.0
 11
136.0
 21
229.2999749999999
 31
0.0
  0
LINE
  5
F2
330
1E
100
AcDbEntity
  8
0
100
AcDbLine
 10
136.0
 20
229.2999749999999
 30
0.0
 11
160.0
 21
229.2999749999999
 31
0.0
  0
LINE
  5
F3
330
1E
100
AcDbEntity
  8
0
100
AcDbLine
 10
89.50000000000001
 20
229.2999749999999
 30
0.0
 11
89.7
 21
229.2999749999999
 31
0.0
  0
LINE
  5
F4
330
1E
100
AcDbEntity
  8
0
100
AcDbLine
 10
86.79999999999999
 20
229.2999749999999
 30
0.0
 11
88.0
 21
229.2999749999999
 31
0.0
  0
LINE
  5
F5
330
1E
100
AcDbEntity
  8
0
100
AcDbLine
 10
85.5
 20
229.2999749999999
 30
0.0
 11
86.79999999999999
 21
229.2999749999999
 31
0.0
  0
LINE
  5
F6
330
1E
100
AcDbEntity
  8
0
100
AcDbLine
 10
84.0
 20
229.2999749999999
 30
0.0
 11
85.5
 21
229.2999749999999
 31
0.0
  0
LINE
  5
F7
330
1E
100
AcDbEntity
  8
0
100
AcDbLine
 10
60.0
 20
229.2999749999999
 30
0.0
 11
84.0
 21
229.2999749999999
 31
0.0
  0
LINE
  5
F8
330
1E
100
AcDbEntity
  8
0
100
AcDbLine
 10
44.0
 20
228.999975
 30
0.0
 11
44.59999999999999
 21
228.999975
 31
0.0
  0
LINE
  5
F9
330
1E
100
AcDbEntity
  8
0
100
AcDbLine
 10
35.7
 20
228.999975
 30
0.0
 11
40.2
 21
228.999975
 31
0.0
  0
LINE
  5
FA
330
1E
100
AcDbEntity
  8
0
100
AcDbLine
 10
47.0
 20
235.999975
 30
0.0
 11
47.0
 21
260.999975
 31
0.0
  0
LINE
  5
FB
330
1E
100
AcDbEntity
  8
0
100
AcDbLine
 10
73.0
 20
235.999975
 30
0.0
 11
73.0
 21
249.999975
 31
0.0
  0
LINE
  5
FC
330
1E
100
AcDbEntity
  8
0
100
AcDbLine
 10
88.2
 20
235.999975
 30
0.0
 11
89.19999999999999
 21
235.999975
 31
0.0
  0
LINE
  5
FD
330
1E
100
AcDbEntity
  8
0
100
AcDbLine
 10
89.19999999999999
 20
235.999975
 30
0.0
 11
89.8
 21
235.999975
 31
0.0
  0
LINE
  5
FE
330
1E
100
AcDbEntity
  8
0
100
AcDbLine
 10
130.0
 20
229.999975
 30
0.0
 11
130.0
 21
235.999975
 31
0.0
  0
LINE
  5
FF
330
1E
100
AcDbEntity
  8
0
100
AcDbLine
 10
130.0
 20
229.999975
 30
0.0
 11
130.3
 21
229.2999749999999
 31
0.0
  0
LINE
  5
100
330
1E
100
AcDbEntity
  8
0
100
AcDbLine
 10
130.8
 20
235.999975
 30
0.0
 11
131.8
 21
235.999975
 31
0.0
  0
LINE
  5
101
330
1E
100
AcDbEntity
  8
0
100
AcDbLine
 10
130.1999999999999
 20
235.999975
 30
0.0
 11
130.8
 21
235.999975
 31
0.0
  0
LINE
  5
102
330
1E
100
AcDbEntity
  8
0
100
AcDbLine
 10
130.0
 20
235.999975
 30
0.0
 11
130.1999999999999
 21
235.999975
 31
0.0
  0
LINE
  5
103
330
1E
100
AcDbEntity
  8
0
100
AcDbLine
 10
130.0
 20
235.999975
 30
0.0
 11
130.0
 21
229.999975
 31
0.0
  0
LINE
  5
104
330
1E
100
AcDbEntity
  8
0
100
AcDbLine
 10
131.8
 20
235.999975
 30
0.0
 11
133.0
 21
235.999975
 31
0.0
  0
LINE
  5
105
330
1E
100
AcDbEntity
  8
0
100
AcDbLine
 10
133.0
 20
235.999975
 30
0.0
 11
134.4999999999999
 21
235.999975
 31
0.0
  0
LINE
  5
106
330
1E
100
AcDbEntity
  8
0
100
AcDbLine
 10
134.4999999999999
 20
235.999975
 30
0.0
 11
136.0
 21
235.999975
 31
0.0
  0
LINE
  5
107
330
1E
100
AcDbEntity
  8
0
100
AcDbLine
 10
136.0
 20
235.999975
 30
0.0
 11
160.0
 21
235.999975
 31
0.0
  0
LINE
  5
108
330
1E
100
AcDbEntity
  8
0
100
AcDbLine
 10
89.8
 20
235.999975
 30
0.0
 11
90.0
 21
235.999975
 31
0.0
  0
LINE
  5
109
330
1E
100
AcDbEntity
  8
0
100
AcDbLine
 10
87.0
 20
235.999975
 30
0.0
 11
88.2
 21
235.999975
 31
0.0
  0
LINE
  5
10A
330
1E
100
AcDbEntity
  8
0
100
AcDbLine
 10
85.5
 20
235.999975
 30
0.0
 11
87.0
 21
235.999975
 31
0.0
  0
LINE
  5
10B
330
1E
100
AcDbEntity
  8
0
100
AcDbLine
 10
84.0
 20
235.999975
 30
0.0
 11
85.5
 21
235.999975
 31
0.0
  0
LINE
  5
10C
330
1E
100
AcDbEntity
  8
0
100
AcDbLine
 10
60.0
 20
235.999975
 30
0.0
 11
84.0
 21
235.999975
 31
0.0
  0
LINE
  5
10D
330
1E
100
AcDbEntity
  8
0
100
AcDbLine
 10
36.0
 20
229.2999749999999
 30
0.0
 11
60.0
 21
229.2999749999999
 31
0.0
  0
LINE
  5
10E
330
1E
100
AcDbEntity
  8
0
100
AcDbLine
 10
34.5
 20
235.999975
 30
0.0
 11
36.0
 21
235.999975
 31
0.0
  0
LINE
  5
10F
330
1E
100
AcDbEntity
  8
0
100
AcDbLine
 10
52.134
 20
251.375575
 30
0.0
 11
53.86600000000001
 21
250.3755749999999
 31
0.0
  0
LINE
  5
110
330
1E
100
AcDbEntity
  8
0
100
AcDbLine
 10
52.134
 20
251.375575
 30
0.0
 11
53.13399999999999
 21
253.1076749999999
 31
0.0
  0
LINE
  5
111
330
1E
100
AcDbEntity
  8
0
100
AcDbLine
 10
53.86600000000001
 20
250.3755749999999
 30
0.0
 11
54.435766896487
 21
251.362468241405
 31
0.0
  0
LINE
  5
112
330
1E
100
AcDbEntity
  8
0
100
AcDbLine
 10
53.86600000000001
 20
250.3755749999999
 30
0.0
 11
54.86600000000001
 21
252.107675
 31
0.0
  0
LINE
  5
113
330
1E
100
AcDbEntity
  8
0
100
AcDbLine
 10
60.0
 20
249.999975
 30
0.0
 11
63.328
 21
250.467975
 31
0.0
  0
LINE
  5
114
330
1E
100
AcDbEntity
  8
0
100
AcDbLine
 10
66.134
 20
250.3755749999999
 30
0.0
 11
67.86599999999999
 21
251.375575
 31
0.0
  0
LINE
  5
115
330
1E
100
AcDbEntity
  8
0
100
AcDbLine
 10
63.328
 20
250.467975
 30
0.0
 11
65.564233103513
 21
251.362468241405
 31
0.0
  0
LINE
  5
116
330
1E
100
AcDbEntity
  8
0
100
AcDbLine
 10
63.328
 20
250.467975
 30
0.0
 11
66.448
 21
251.7159749999999
 31
0.0
  0
LINE
  5
117
330
1E
100
AcDbEntity
  8
0
100
AcDbLine
 10
65.564233103513
 20
251.362468241405
 30
0.0
 11
66.134
 21
250.3755749999999
 31
0.0
  0
LINE
  5
118
330
1E
100
AcDbEntity
  8
0
100
AcDbLine
 10
66.448
 20
251.7159749999999
 30
0.0
 11
69.20399999999999
 21
253.795975
 31
0.0
  0
LINE
  5
119
330
1E
100
AcDbEntity
  8
0
100
AcDbLine
 10
56.672
 20
250.467975
 30
0.0
 11
60.0
 21
249.999975
 31
0.0
  0
LINE
  5
11A
330
1E
100
AcDbEntity
  8
0
100
AcDbLine
 10
54.435766896487
 20
251.362468241405
 30
0.0
 11
56.672
 21
250.467975
 31
0.0
  0
LINE
  5
11B
330
1E
100
AcDbEntity
  8
0
100
AcDbLine
 10
60.0
 20
251.857075
 30
0.0
 11
62.8526
 21
252.258275
 31
0.0
  0
LINE
  5
11C
330
1E
100
AcDbEntity
  8
0
100
AcDbLine
 10
53.55199999999999
 20
251.7159749999999
 30
0.0
 11
56.672
 21
250.467975
 31
0.0
  0
LINE
  5
11D
330
1E
100
AcDbEntity
  8
0
100
AcDbLine
 10
92.0
 20
249.999975
 30
0.0
 11
92.0
 21
250.467975
 31
0.0
  0
LINE
  5
11E
330
1E
100
AcDbEntity
  8
0
100
AcDbLine
 10
92.0
 20
251.7159749999999
 30
0.0
 11
92.0
 21
250.467975
 31
0.0
  0
LINE
  5
11F
330
1E
100
AcDbEntity
  8
0
100
AcDbLine
 10
92.0
 20
251.7159749999999
 30
0.0
 11
92.0
 21
253.795975
 31
0.0
  0
LINE
  5
120
330
1E
100
AcDbEntity
  8
0
100
AcDbLine
 10
92.0
 20
250.467975
 30
0.0
 11
92.0
 21
249.999975
 31
0.0
  0
LINE
  5
121
330
1E
100
AcDbEntity
  8
0
100
AcDbLine
 10
92.0
 20
250.467975
 30
0.0
 11
92.0
 21
251.7159749999999
 31
0.0
  0
LINE
  5
122
330
1E
100
AcDbEntity
  8
0
100
AcDbLine
 10
73.0
 20
249.999975
 30
0.0
 11
92.0
 21
249.999975
 31
0.0
  0
LINE
  5
123
330
1E
100
AcDbEntity
  8
0
100
AcDbLine
 10
73.0
 20
249.999975
 30
0.0
 11
73.0
 21
235.999975
 31
0.0
  0
LINE
  5
124
330
1E
100
AcDbEntity
  8
0
100
AcDbLine
 10
35.0
 20
260.999975
 30
0.0
 11
35.2
 21
260.999975
 31
0.0
  0
LINE
  5
125
330
1E
100
AcDbEntity
  8
0
100
AcDbLine
 10
35.0
 20
260.999975
 30
0.0
 11
35.0
 21
264.999975
 31
0.0
  0
LINE
  5
126
330
1E
100
AcDbEntity
  8
0
100
AcDbLine
 10
35.2
 20
260.999975
 30
0.0
 11
35.7
 21
260.999975
 31
0.0
  0
LINE
  5
127
330
1E
100
AcDbEntity
  8
0
100
AcDbLine
 10
35.7
 20
260.999975
 30
0.0
 11
36.5
 21
260.999975
 31
0.0
  0
LINE
  5
128
330
1E
100
AcDbEntity
  8
0
100
AcDbLine
 10
36.5
 20
260.999975
 30
0.0
 11
37.5
 21
260.999975
 31
0.0
  0
LINE
  5
129
330
1E
100
AcDbEntity
  8
0
100
AcDbLine
 10
53.13399999999999
 20
253.1076749999999
 30
0.0
 11
54.86600000000001
 21
252.107675
 31
0.0
  0
LINE
  5
12A
330
1E
100
AcDbEntity
  8
0
100
AcDbLine
 10
57.14739999999999
 20
252.258275
 30
0.0
 11
60.0
 21
251.857075
 31
0.0
  0
LINE
  5
12B
330
1E
100
AcDbEntity
  8
0
100
AcDbLine
 10
54.4731
 20
253.327975
 30
0.0
 11
57.14739999999999
 21
252.258275
 31
0.0
  0
LINE
  5
12C
330
1E
100
AcDbEntity
  8
0
100
AcDbLine
 10
52.1109
 20
255.110875
 30
0.0
 11
54.4731
 21
253.327975
 31
0.0
  0
LINE
  5
12D
330
1E
100
AcDbEntity
  8
0
100
AcDbLine
 10
50.328
 20
257.473075
 30
0.0
 11
52.1109
 21
255.110875
 31
0.0
  0
LINE
  5
12E
330
1E
100
AcDbEntity
  8
0
100
AcDbLine
 10
50.79600000000001
 20
253.795975
 30
0.0
 11
53.55199999999999
 21
251.7159749999999
 31
0.0
  0
LINE
  5
12F
330
1E
100
AcDbEntity
  8
0
100
AcDbLine
 10
48.716
 20
256.551975
 30
0.0
 11
50.79600000000001
 21
253.795975
 31
0.0
  0
LINE
  5
130
330
1E
100
AcDbEntity
  8
0
100
AcDbLine
 10
49.2583
 20
260.147375
 30
0.0
 11
50.328
 21
257.473075
 31
0.0
  0
LINE
  5
131
330
1E
100
AcDbEntity
  8
0
100
AcDbLine
 10
47.468
 20
259.6719749999999
 30
0.0
 11
48.716
 21
256.551975
 31
0.0
  0
LINE
  5
132
330
1E
100
AcDbEntity
  8
0
100
AcDbLine
 10
37.5
 20
260.999975
 30
0.0
 11
47.28125
 21
260.999975
 31
0.0
  0
LINE
  5
133
330
1E
100
AcDbEntity
  8
0
100
AcDbLine
 10
37.5
 20
260.999975
 30
0.0
 11
47.0
 21
260.999975
 31
0.0
  0
LINE
  5
134
330
1E
100
AcDbEntity
  8
0
100
AcDbLine
 10
35.0
 20
264.999975
 30
0.0
 11
35.2
 21
264.999975
 31
0.0
  0
LINE
  5
135
330
1E
100
AcDbEntity
  8
0
100
AcDbLine
 10
35.0
 20
264.999975
 30
0.0
 11
35.0
 21
260.999975
 31
0.0
  0
LINE
  5
136
330
1E
100
AcDbEntity
  8
0
100
AcDbLine
 10
35.2
 20
264.999975
 30
0.0
 11
35.7
 21
264.999975
 31
0.0
  0
LINE
  5
137
330
1E
100
AcDbEntity
  8
0
100
AcDbLine
 10
35.7
 20
264.999975
 30
0.0
 11
36.5
 21
264.999975
 31
0.0
  0
LINE
  5
138
330
1E
100
AcDbEntity
  8
0
100
AcDbLine
 10
36.5
 20
264.999975
 30
0.0
 11
37.5
 21
264.999975
 31
0.0
  0
LINE
  5
139
330
1E
100
AcDbEntity
  8
0
100
AcDbLine
 10
48.0
 20
261.999975
 30
0.0
 11
48.0
 21
263.999975
 31
0.0
  0
LINE
  5
13A
330
1E
100
AcDbEntity
  8
0
100
AcDbLine
 10
46.0
 20
261.999975
 30
0.0
 11
48.0
 21
261.999975
 31
0.0
  0
LINE
  5
13B
330
1E
100
AcDbEntity
  8
0
100
AcDbLine
 10
46.0
 20
261.999975
 30
0.0
 11
47.14062499999999
 21
261.999975
 31
0.0
  0
LINE
  5
13C
330
1E
100
AcDbEntity
  8
0
100
AcDbLine
 10
46.0
 20
261.999975
 30
0.0
 11
46.0
 21
263.999975
 31
0.0
  0
LINE
  5
13D
330
1E
100
AcDbEntity
  8
0
100
AcDbLine
 10
48.8571
 20
262.999975
 30
0.0
 11
49.2583
 21
260.147375
 31
0.0
  0
LINE
  5
13E
330
1E
100
AcDbEntity
  8
0
100
AcDbLine
 10
48.8571
 20
262.999975
 30
0.0
 11
49.2583
 21
265.8525749999999
 31
0.0
  0
LINE
  5
13F
330
1E
100
AcDbEntity
  8
0
100
AcDbLine
 10
48.0
 20
263.999975
 30
0.0
 11
48.0
 21
261.999975
 31
0.0
  0
LINE
  5
140
330
1E
100
AcDbEntity
  8
0
100
AcDbLine
 10
46.0
 20
263.999975
 30
0.0
 11
46.0
 21
261.999975
 31
0.0
  0
LINE
  5
141
330
1E
100
AcDbEntity
  8
0
100
AcDbLine
 10
46.0
 20
263.999975
 30
0.0
 11
48.0
 21
263.999975
 31
0.0
  0
LINE
  5
142
330
1E
100
AcDbEntity
  8
0
100
AcDbLine
 10
49.2583
 20
265.8525749999999
 30
0.0
 11
50.328
 21
268.526875
 31
0.0
  0
LINE
  5
143
330
1E
100
AcDbEntity
  8
0
100
AcDbLine
 10
52.1109
 20
270.889075
 30
0.0
 11
54.4731
 21
272.6719749999999
 31
0.0
  0
LINE
  5
144
330
1E
100
AcDbEntity
  8
0
100
AcDbLine
 10
50.79600000000001
 20
272.2039749999999
 30
0.0
 11
53.55199999999999
 21
274.2839749999999
 31
0.0
  0
LINE
  5
145
330
1E
100
AcDbEntity
  8
0
100
AcDbLine
 10
50.328
 20
268.526875
 30
0.0
 11
52.1109
 21
270.889075
 31
0.0
  0
LINE
  5
146
330
1E
100
AcDbEntity
  8
0
100
AcDbLine
 10
53.13399999999999
 20
272.8922749999999
 30
0.0
 11
54.86600000000001
 21
273.8922749999999
 31
0.0
  0
LINE
  5
147
330
1E
100
AcDbEntity
  8
0
100
AcDbLine
 10
52.134
 20
274.624375
 30
0.0
 11
53.86600000000001
 21
275.6243749999999
 31
0.0
  0
LINE
  5
148
330
1E
100
AcDbEntity
  8
0
100
AcDbLine
 10
52.134
 20
274.624375
 30
0.0
 11
52.7012265751552
 21
273.641881849174
 31
0.0
  0
LINE
  5
149
330
1E
100
AcDbEntity
  8
0
100
AcDbLine
 10
52.134
 20
274.624375
 30
0.0
 11
53.13399999999999
 21
272.8922749999999
 31
0.0
  0
LINE
  5
14A
330
1E
100
AcDbEntity
  8
0
100
AcDbLine
 10
52.134
 20
274.624375
 30
0.0
 11
52.7012265751552
 21
273.641881849174
 31
0.0
  0
LINE
  5
14B
330
1E
100
AcDbEntity
  8
0
100
AcDbLine
 10
53.86600000000001
 20
275.6243749999999
 30
0.0
 11
54.86600000000001
 21
273.8922749999999
 31
0.0
  0
LINE
  5
14C
330
1E
100
AcDbEntity
  8
0
100
AcDbLine
 10
53.55199999999999
 20
274.2839749999999
 30
0.0
 11
56.672
 21
275.5319749999999
 31
0.0
  0
LINE
  5
14D
330
1E
100
AcDbEntity
  8
0
100
AcDbLine
 10
57.14739999999999
 20
273.7416749999999
 30
0.0
 11
60.0
 21
274.142875
 31
0.0
  0
LINE
  5
14E
330
1E
100
AcDbEntity
  8
0
100
AcDbLine
 10
56.672
 20
275.5319749999999
 30
0.0
 11
60.0
 21
275.9999749999999
 31
0.0
  0
LINE
  5
14F
330
1E
100
AcDbEntity
  8
0
100
AcDbLine
 10
54.4731
 20
272.6719749999999
 30
0.0
 11
57.14739999999999
 21
273.7416749999999
 31
0.0
  0
LINE
  5
150
330
1E
100
AcDbEntity
  8
0
100
AcDbLine
 10
48.716
 20
269.4479749999999
 30
0.0
 11
50.79600000000001
 21
272.2039749999999
 31
0.0
  0
LINE
  5
151
330
1E
100
AcDbEntity
  8
0
100
AcDbLine
 10
47.468
 20
266.327975
 30
0.0
 11
48.716
 21
269.4479749999999
 31
0.0
  0
LINE
  5
152
330
1E
100
AcDbEntity
  8
0
100
AcDbLine
 10
60.0
 20
274.142875
 30
0.0
 11
62.8526
 21
273.7416749999999
 31
0.0
  0
LINE
  5
153
330
1E
100
AcDbEntity
  8
0
100
AcDbLine
 10
47.0
 20
262.999975
 30
0.0
 11
47.468
 21
259.6719749999999
 31
0.0
  0
LINE
  5
154
330
1E
100
AcDbEntity
  8
0
100
AcDbLine
 10
47.0
 20
262.999975
 30
0.0
 11
47.468
 21
266.327975
 31
0.0
  0
LINE
  5
155
330
1E
100
AcDbEntity
  8
0
100
AcDbLine
 10
37.5
 20
264.999975
 30
0.0
 11
47.28125
 21
264.999975
 31
0.0
  0
LINE
  5
156
330
1E
100
AcDbEntity
  8
0
100
AcDbLine
 10
47.0
 20
260.999975
 30
0.0
 11
47.0
 21
235.999975
 31
0.0
  0
LINE
  5
157
330
1E
100
AcDbEntity
  8
0
100
AcDbLine
 10
65.134
 20
252.107675
 30
0.0
 11
66.134
 21
250.3755749999999
 31
0.0
  0
LINE
  5
158
330
1E
100
AcDbEntity
  8
0
100
AcDbLine
 10
65.134
 20
252.107675
 30
0.0
 11
66.866
 21
253.1076749999999
 31
0.0
  0
LINE
  5
159
330
1E
100
AcDbEntity
  8
0
100
AcDbLine
 10
66.866
 20
253.1076749999999
 30
0.0
 11
67.86599999999999
 21
251.375575
 31
0.0
  0
LINE
  5
15A
330
1E
100
AcDbEntity
  8
0
100
AcDbLine
 10
62.8526
 20
252.258275
 30
0.0
 11
65.5269
 21
253.327975
 31
0.0
  0
LINE
  5
15B
330
1E
100
AcDbEntity
  8
0
100
AcDbLine
 10
65.5269
 20
253.327975
 30
0.0
 11
67.8891
 21
255.110875
 31
0.0
  0
LINE
  5
15C
330
1E
100
AcDbEntity
  8
0
100
AcDbLine
 10
69.20399999999999
 20
253.795975
 30
0.0
 11
71.28399999999999
 21
256.551975
 31
0.0
  0
LINE
  5
15D
330
1E
100
AcDbEntity
  8
0
100
AcDbLine
 10
71.28399999999999
 20
256.551975
 30
0.0
 11
72.53199999999999
 21
259.6719749999999
 31
0.0
  0
LINE
  5
15E
330
1E
100
AcDbEntity
  8
0
100
AcDbLine
 10
69.672
 20
257.473075
 30
0.0
 11
70.74169999999999
 21
260.147375
 31
0.0
  0
LINE
  5
15F
330
1E
100
AcDbEntity
  8
0
100
AcDbLine
 10
67.8891
 20
255.110875
 30
0.0
 11
69.672
 21
257.473075
 31
0.0
  0
LINE
  5
160
330
1E
100
AcDbEntity
  8
0
100
AcDbLine
 10
72.53199999999999
 20
259.6719749999999
 30
0.0
 11
72.859375
 21
261.999975
 31
0.0
  0
LINE
  5
161
330
1E
100
AcDbEntity
  8
0
100
AcDbLine
 10
72.53199999999999
 20
259.6719749999999
 30
0.0
 11
73.0
 21
262.999975
 31
0.0
  0
LINE
  5
162
330
1E
100
AcDbEntity
  8
0
100
AcDbLine
 10
69.672
 20
268.526875
 30
0.0
 11
70.74169999999999
 21
265.8525749999999
 31
0.0
  0
LINE
  5
163
330
1E
100
AcDbEntity
  8
0
100
AcDbLine
 10
72.0
 20
261.999975
 30
0.0
 11
74.0
 21
261.999975
 31
0.0
  0
LINE
  5
164
330
1E
100
AcDbEntity
  8
0
100
AcDbLine
 10
72.0
 20
261.999975
 30
0.0
 11
72.0
 21
263.999975
 31
0.0
  0
LINE
  5
165
330
1E
100
AcDbEntity
  8
0
100
AcDbLine
 10
72.0
 20
263.999975
 30
0.0
 11
74.0
 21
263.999975
 31
0.0
  0
LINE
  5
166
330
1E
100
AcDbEntity
  8
0
100
AcDbLine
 10
72.0
 20
263.999975
 30
0.0
 11
72.0
 21
261.999975
 31
0.0
  0
LINE
  5
167
330
1E
100
AcDbEntity
  8
0
100
AcDbLine
 10
70.74169999999999
 20
265.8525749999999
 30
0.0
 11
71.1429
 21
262.999975
 31
0.0
  0
LINE
  5
168
330
1E
100
AcDbEntity
  8
0
100
AcDbLine
 10
71.28399999999999
 20
269.4479749999999
 30
0.0
 11
72.53199999999999
 21
266.327975
 31
0.0
  0
LINE
  5
169
330
1E
100
AcDbEntity
  8
0
100
AcDbLine
 10
72.859375
 20
261.999975
 30
0.0
 11
74.0
 21
261.999975
 31
0.0
  0
LINE
  5
16A
330
1E
100
AcDbEntity
  8
0
100
AcDbLine
 10
74.0
 20
263.999975
 30
0.0
 11
74.0
 21
261.999975
 31
0.0
  0
LINE
  5
16B
330
1E
100
AcDbEntity
  8
0
100
AcDbLine
 10
74.0
 20
261.999975
 30
0.0
 11
74.0
 21
263.999975
 31
0.0
  0
LINE
  5
16C
330
1E
100
AcDbEntity
  8
0
100
AcDbLine
 10
72.53199999999999
 20
266.327975
 30
0.0
 11
73.0
 21
262.999975
 31
0.0
  0
LINE
  5
16D
330
1E
100
AcDbEntity
  8
0
100
AcDbLine
 10
70.74169999999999
 20
260.147375
 30
0.0
 11
71.1429
 21
262.999975
 31
0.0
  0
LINE
  5
16E
330
1E
100
AcDbEntity
  8
0
100
AcDbLine
 10
92.0
 20
266.327975
 30
0.0
 11
92.0
 21
262.999975
 31
0.0
  0
LINE
  5
16F
330
1E
100
AcDbEntity
  8
0
100
AcDbLine
 10
92.0
 20
266.327975
 30
0.0
 11
92.0
 21
269.4479749999999
 31
0.0
  0
LINE
  5
170
330
1E
100
AcDbEntity
  8
0
100
AcDbLine
 10
65.134
 20
273.8922749999999
 30
0.0
 11
66.134
 21
275.6243749999999
 31
0.0
  0
LINE
  5
171
330
1E
100
AcDbEntity
  8
0
100
AcDbLine
 10
65.134
 20
273.8922749999999
 30
0.0
 11
66.866
 21
272.8922749999999
 31
0.0
  0
LINE
  5
172
330
1E
100
AcDbEntity
  8
0
100
AcDbLine
 10
67.29877342484479
 20
273.641881849174
 30
0.0
 11
67.86599999999999
 21
274.624375
 31
0.0
  0
LINE
  5
173
330
1E
100
AcDbEntity
  8
0
100
AcDbLine
 10
66.866
 20
272.8922749999999
 30
0.0
 11
67.86599999999999
 21
274.624375
 31
0.0
  0
LINE
  5
174
330
1E
100
AcDbEntity
  8
0
100
AcDbLine
 10
62.8526
 20
273.7416749999999
 30
0.0
 11
65.5269
 21
272.6719749999999
 31
0.0
  0
LINE
  5
175
330
1E
100
AcDbEntity
  8
0
100
AcDbLine
 10
65.5269
 20
272.6719749999999
 30
0.0
 11
67.8891
 21
270.889075
 31
0.0
  0
LINE
  5
176
330
1E
100
AcDbEntity
  8
0
100
AcDbLine
 10
67.8891
 20
270.889075
 30
0.0
 11
69.672
 21
268.526875
 31
0.0
  0
LINE
  5
177
330
1E
100
AcDbEntity
  8
0
100
AcDbLine
 10
66.448
 20
274.2839749999999
 30
0.0
 11
69.20399999999999
 21
272.2039749999999
 31
0.0
  0
LINE
  5
178
330
1E
100
AcDbEntity
  8
0
100
AcDbLine
 10
69.20399999999999
 20
272.2039749999999
 30
0.0
 11
71.28399999999999
 21
269.4479749999999
 31
0.0
  0
LINE
  5
179
330
1E
100
AcDbEntity
  8
0
100
AcDbLine
 10
92.0
 20
269.4479749999999
 30
0.0
 11
92.0
 21
266.327975
 31
0.0
  0
LINE
  5
17A
330
1E
100
AcDbEntity
  8
0
100
AcDbLine
 10
92.0
 20
269.4479749999999
 30
0.0
 11
92.0
 21
272.2039749999999
 31
0.0
  0
LINE
  5
17B
330
1E
100
AcDbEntity
  8
0
100
AcDbLine
 10
92.0
 20
272.2039749999999
 30
0.0
 11
92.0
 21
269.4479749999999
 31
0.0
  0
LINE
  5
17C
330
1E
100
AcDbEntity
  8
0
100
AcDbLine
 10
92.0
 20
272.2039749999999
 30
0.0
 11
92.0
 21
274.2839749999999
 31
0.0
  0
LINE
  5
17D
330
1E
100
AcDbEntity
  8
0
100
AcDbLine
 10
65.564233103513
 20
274.637481758595
 30
0.0
 11
66.134
 21
275.6243749999999
 31
0.0
  0
LINE
  5
17E
330
1E
100
AcDbEntity
  8
0
100
AcDbLine
 10
66.134
 20
275.6243749999999
 30
0.0
 11
67.86599999999999
 21
274.624375
 31
0.0
  0
LINE
  5
17F
330
1E
100
AcDbEntity
  8
0
100
AcDbLine
 10
63.328
 20
275.5319749999999
 30
0.0
 11
66.448
 21
274.2839749999999
 31
0.0
  0
LINE
  5
180
330
1E
100
AcDbEntity
  8
0
100
AcDbLine
 10
92.0
 20
274.2839749999999
 30
0.0
 11
92.0
 21
272.2039749999999
 31
0.0
  0
LINE
  5
181
330
1E
100
AcDbEntity
  8
0
100
AcDbLine
 10
92.0
 20
274.2839749999999
 30
0.0
 11
92.0
 21
275.5319749999999
 31
0.0
  0
LINE
  5
182
330
1E
100
AcDbEntity
  8
0
100
AcDbLine
 10
92.0
 20
275.5319749999999
 30
0.0
 11
92.0
 21
274.2839749999999
 31
0.0
  0
LINE
  5
183
330
1E
100
AcDbEntity
  8
0
100
AcDbLine
 10
92.0
 20
275.5319749999999
 30
0.0
 11
92.0
 21
275.9999749999999
 31
0.0
  0
LINE
  5
184
330
1E
100
AcDbEntity
  8
0
100
AcDbLine
 10
92.0
 20
275.9999749999999
 30
0.0
 11
92.0
 21
275.5319749999999
 31
0.0
  0
LINE
  5
185
330
1E
100
AcDbEntity
  8
0
100
AcDbLine
 10
92.0
 20
262.999975
 30
0.0
 11
92.0
 21
259.6719749999999
 31
0.0
  0
LINE
  5
186
330
1E
100
AcDbEntity
  8
0
100
AcDbLine
 10
92.0
 20
262.999975
 30
0.0
 11
92.0
 21
266.327975
 31
0.0
  0
LINE
  5
187
330
1E
100
AcDbEntity
  8
0
100
AcDbLine
 10
92.0
 20
259.6719749999999
 30
0.0
 11
92.0
 21
256.551975
 31
0.0
  0
LINE
  5
188
330
1E
100
AcDbEntity
  8
0
100
AcDbLine
 10
92.0
 20
259.6719749999999
 30
0.0
 11
92.0
 21
262.999975
 31
0.0
  0
LINE
  5
189
330
1E
100
AcDbEntity
  8
0
100
AcDbLine
 10
92.0
 20
256.551975
 30
0.0
 11
92.0
 21
253.795975
 31
0.0
  0
LINE
  5
18A
330
1E
100
AcDbEntity
  8
0
100
AcDbLine
 10
92.0
 20
256.551975
 30
0.0
 11
92.0
 21
259.6719749999999
 31
0.0
  0
LINE
  5
18B
330
1E
100
AcDbEntity
  8
0
100
AcDbLine
 10
92.0
 20
253.795975
 30
0.0
 11
92.0
 21
251.7159749999999
 31
0.0
  0
LINE
  5
18C
330
1E
100
AcDbEntity
  8
0
100
AcDbLine
 10
92.0
 20
253.795975
 30
0.0
 11
92.0
 21
256.551975
 31
0.0
  0
LINE
  5
18D
330
1E
100
AcDbEntity
  8
0
100
AcDbLine
 10
60.0
 20
275.9999749999999
 30
0.0
 11
92.0
 21
275.9999749999999
 31
0.0
  0
LINE
  5
18E
330
1E
100
AcDbEntity
  8
0
100
AcDbLine
 10
60.0
 20
275.9999749999999
 30
0.0
 11
63.328
 21
275.5319749999999
 31
0.0
  0
LINE
  5
18F
330
1E
100
AcDbEntity
  8
0
100
AcDbLine
 10
92.0
 20
251.999975
 30
0.0
 11
132.0
 21
251.999975
 31
0.0
  0
LINE
  5
190
330
1E
100
AcDbEntity
  8
0
100
AcDbLine
 10
132.0
 20
251.7159749999999
 30
0.0
 11
132.0
 21
251.999975
 31
0.0
  0
LINE
  5
191
330
1E
100
AcDbEntity
  8
0
100
AcDbLine
 10
132.0
 20
251.7159749999999
 30
0.0
 11
132.0
 21
250.467975
 31
0.0
  0
LINE
  5
192
330
1E
100
AcDbEntity
  8
0
100
AcDbLine
 10
132.0
 20
251.7159749999999
 30
0.0
 11
132.0
 21
253.795975
 31
0.0
  0
LINE
  5
193
330
1E
100
AcDbEntity
  8
0
100
AcDbLine
 10
132.0
 20
250.467975
 30
0.0
 11
132.0
 21
251.7159749999999
 31
0.0
  0
LINE
  5
194
330
1E
100
AcDbEntity
  8
0
100
AcDbLine
 10
132.0
 20
250.467975
 30
0.0
 11
132.0
 21
249.999975
 31
0.0
  0
LINE
  5
195
330
1E
100
AcDbEntity
  8
0
100
AcDbLine
 10
132.0
 20
249.999975
 30
0.0
 11
132.0
 21
250.467975
 31
0.0
  0
LINE
  5
196
330
1E
100
AcDbEntity
  8
0
100
AcDbLine
 10
132.0
 20
249.999975
 30
0.0
 11
147.0
 21
249.999975
 31
0.0
  0
LINE
  5
197
330
1E
100
AcDbEntity
  8
0
100
AcDbLine
 10
132.0
 20
256.551975
 30
0.0
 11
132.0
 21
253.795975
 31
0.0
  0
LINE
  5
198
330
1E
100
AcDbEntity
  8
0
100
AcDbLine
 10
132.0
 20
256.551975
 30
0.0
 11
132.0
 21
259.6719749999999
 31
0.0
  0
LINE
  5
199
330
1E
100
AcDbEntity
  8
0
100
AcDbLine
 10
132.0
 20
253.795975
 30
0.0
 11
132.0
 21
251.7159749999999
 31
0.0
  0
LINE
  5
19A
330
1E
100
AcDbEntity
  8
0
100
AcDbLine
 10
132.0
 20
253.795975
 30
0.0
 11
132.0
 21
256.551975
 31
0.0
  0
LINE
  5
19B
330
1E
100
AcDbEntity
  8
0
100
AcDbLine
 10
132.0
 20
259.6719749999999
 30
0.0
 11
132.0
 21
256.551975
 31
0.0
  0
LINE
  5
19C
330
1E
100
AcDbEntity
  8
0
100
AcDbLine
 10
132.0
 20
259.6719749999999
 30
0.0
 11
132.0
 21
262.999975
 31
0.0
  0
LINE
  5
19D
330
1E
100
AcDbEntity
  8
0
100
AcDbLine
 10
132.0
 20
262.999975
 30
0.0
 11
132.0
 21
265.8159749999999
 31
0.0
  0
LINE
  5
19E
330
1E
100
AcDbEntity
  8
0
100
AcDbLine
 10
132.0
 20
262.999975
 30
0.0
 11
132.0
 21
259.6719749999999
 31
0.0
  0
LINE
  5
19F
330
1E
100
AcDbEntity
  8
0
100
AcDbLine
 10
132.0
 20
262.999975
 30
0.0
 11
132.0
 21
266.327975
 31
0.0
  0
LINE
  5
1A0
330
1E
100
AcDbEntity
  8
0
100
AcDbLine
 10
132.0
 20
266.327975
 30
0.0
 11
132.0
 21
262.999975
 31
0.0
  0
LINE
  5
1A1
330
1E
100
AcDbEntity
  8
0
100
AcDbLine
 10
132.0
 20
266.327975
 30
0.0
 11
132.0
 21
269.4479749999999
 31
0.0
  0
LINE
  5
1A2
330
1E
100
AcDbEntity
  8
0
100
AcDbLine
 10
132.0
 20
269.4479749999999
 30
0.0
 11
132.0
 21
266.327975
 31
0.0
  0
LINE
  5
1A3
330
1E
100
AcDbEntity
  8
0
100
AcDbLine
 10
132.0
 20
269.4479749999999
 30
0.0
 11
132.0
 21
272.2039749999999
 31
0.0
  0
LINE
  5
1A4
330
1E
100
AcDbEntity
  8
0
100
AcDbLine
 10
132.0
 20
265.8159749999999
 30
0.0
 11
132.0
 21
268.455975
 31
0.0
  0
LINE
  5
1A5
330
1E
100
AcDbEntity
  8
0
100
AcDbLine
 10
132.0
 20
268.455975
 30
0.0
 11
132.0
 21
270.787975
 31
0.0
  0
LINE
  5
1A6
330
1E
100
AcDbEntity
  8
0
100
AcDbLine
 10
132.0
 20
272.2039749999999
 30
0.0
 11
132.0
 21
269.4479749999999
 31
0.0
  0
LINE
  5
1A7
330
1E
100
AcDbEntity
  8
0
100
AcDbLine
 10
132.0
 20
272.2039749999999
 30
0.0
 11
132.0
 21
274.2839749999999
 31
0.0
  0
LINE
  5
1A8
330
1E
100
AcDbEntity
  8
0
100
AcDbLine
 10
132.0
 20
270.787975
 30
0.0
 11
132.0
 21
272.547975
 31
0.0
  0
LINE
  5
1A9
330
1E
100
AcDbEntity
  8
0
100
AcDbLine
 10
132.0
 20
272.547975
 30
0.0
 11
132.0
 21
273.6039749999999
 31
0.0
  0
LINE
  5
1AA
330
1E
100
AcDbEntity
  8
0
100
AcDbLine
 10
132.0
 20
274.2839749999999
 30
0.0
 11
132.0
 21
272.2039749999999
 31
0.0
  0
LINE
  5
1AB
330
1E
100
AcDbEntity
  8
0
100
AcDbLine
 10
132.0
 20
274.2839749999999
 30
0.0
 11
132.0
 21
275.5319749999999
 31
0.0
  0
LINE
  5
1AC
330
1E
100
AcDbEntity
  8
0
100
AcDbLine
 10
132.0
 20
273.9999749999999
 30
0.0
 11
132.0
 21
274.2839749999999
 31
0.0
  0
LINE
  5
1AD
330
1E
100
AcDbEntity
  8
0
100
AcDbLine
 10
132.0
 20
274.2839749999999
 30
0.0
 11
132.0
 21
275.5319749999999
 31
0.0
  0
LINE
  5
1AE
330
1E
100
AcDbEntity
  8
0
100
AcDbLine
 10
132.0
 20
274.2839749999999
 30
0.0
 11
132.0
 21
273.9999749999999
 31
0.0
  0
LINE
  5
1AF
330
1E
100
AcDbEntity
  8
0
100
AcDbLine
 10
132.0
 20
275.5319749999999
 30
0.0
 11
132.0
 21
275.9999749999999
 31
0.0
  0
LINE
  5
1B0
330
1E
100
AcDbEntity
  8
0
100
AcDbLine
 10
132.0
 20
275.5319749999999
 30
0.0
 11
132.0
 21
274.2839749999999
 31
0.0
  0
LINE
  5
1B1
330
1E
100
AcDbEntity
  8
0
100
AcDbLine
 10
132.0
 20
275.5319749999999
 30
0.0
 11
132.0
 21
274.2839749999999
 31
0.0
  0
LINE
  5
1B2
330
1E
100
AcDbEntity
  8
0
100
AcDbLine
 10
132.0
 20
275.9999749999999
 30
0.0
 11
188.0
 21
275.9999749999999
 31
0.0
  0
LINE
  5
1B3
330
1E
100
AcDbEntity
  8
0
100
AcDbLine
 10
132.0
 20
275.9999749999999
 30
0.0
 11
132.0
 21
275.5319749999999
 31
0.0
  0
LINE
  5
1B4
330
1E
100
AcDbEntity
  8
0
100
AcDbLine
 10
132.0
 20
273.6039749999999
 30
0.0
 11
132.0
 21
273.9999749999999
 31
0.0
  0
LINE
  5
1B5
330
1E
100
AcDbEntity
  8
0
100
AcDbLine
 10
132.0
 20
260.1839749999999
 30
0.0
 11
132.0
 21
262.999975
 31
0.0
  0
LINE
  5
1B6
330
1E
100
AcDbEntity
  8
0
100
AcDbLine
 10
132.0
 20
257.543975
 30
0.0
 11
132.0
 21
260.1839749999999
 31
0.0
  0
LINE
  5
1B7
330
1E
100
AcDbEntity
  8
0
100
AcDbLine
 10
132.0
 20
255.211975
 30
0.0
 11
132.0
 21
257.543975
 31
0.0
  0
LINE
  5
1B8
330
1E
100
AcDbEntity
  8
0
100
AcDbLine
 10
132.0
 20
253.451975
 30
0.0
 11
132.0
 21
255.211975
 31
0.0
  0
LINE
  5
1B9
330
1E
100
AcDbEntity
  8
0
100
AcDbLine
 10
132.0
 20
252.3959749999999
 30
0.0
 11
132.0
 21
253.451975
 31
0.0
  0
LINE
  5
1BA
330
1E
100
AcDbEntity
  8
0
100
AcDbLine
 10
132.0
 20
251.999975
 30
0.0
 11
132.0
 21
252.3959749999999
 31
0.0
  0
LINE
  5
1BB
330
1E
100
AcDbEntity
  8
0
100
AcDbLine
 10
132.0
 20
251.999975
 30
0.0
 11
132.0
 21
251.7159749999999
 31
0.0
  0
LINE
  5
1BC
330
1E
100
AcDbEntity
  8
0
100
AcDbLine
 10
92.0
 20
273.9999749999999
 30
0.0
 11
132.0
 21
273.9999749999999
 31
0.0
  0
LINE
  5
1BD
330
1E
100
AcDbEntity
  8
0
100
AcDbLine
 10
36.0
 20
235.999975
 30
0.0
 11
60.0
 21
235.999975
 31
0.0
  0
LINE
  5
1BE
330
1E
100
AcDbEntity
  8
0
100
AcDbLine
 10
149.5
 20
28.319275
 30
0.0
 11
149.5
 21
31.165475
 31
0.0
  0
LINE
  5
1BF
330
1E
100
AcDbEntity
  8
0
100
AcDbLine
 10
149.5
 20
28.319275
 30
0.0
 11
149.5
 21
25.921175
 31
0.0
  0
LINE
  5
1C0
330
1E
100
AcDbEntity
  8
0
100
AcDbLine
 10
149.5
 20
25.921175
 30
0.0
 11
149.5
 21
28.319275
 31
0.0
  0
LINE
  5
1C1
330
1E
100
AcDbEntity
  8
0
100
AcDbLine
 10
149.5
 20
25.921175
 30
0.0
 11
149.5
 21
24.011975
 31
0.0
  0
LINE
  5
1C2
330
1E
100
AcDbEntity
  8
0
100
AcDbLine
 10
149.5
 20
31.165475
 30
0.0
 11
149.5
 21
34.410875
 31
0.0
  0
LINE
  5
1C3
330
1E
100
AcDbEntity
  8
0
100
AcDbLine
 10
149.5
 20
31.165475
 30
0.0
 11
149.5
 21
28.319275
 31
0.0
  0
LINE
  5
1C4
330
1E
100
AcDbEntity
  8
0
100
AcDbLine
 10
149.5
 20
41.871375
 30
0.0
 11
149.5
 21
45.958975
 31
0.0
  0
LINE
  5
1C5
330
1E
100
AcDbEntity
  8
0
100
AcDbLine
 10
149.5
 20
41.871375
 30
0.0
 11
149.5
 21
37.99997499999999
 31
0.0
  0
LINE
  5
1C6
330
1E
100
AcDbEntity
  8
0
100
AcDbLine
 10
149.5
 20
45.958975
 30
0.0
 11
149.5
 21
50.192575
 31
0.0
  0
LINE
  5
1C7
330
1E
100
AcDbEntity
  8
0
100
AcDbLine
 10
149.5
 20
45.958975
 30
0.0
 11
149.5
 21
41.871375
 31
0.0
  0
LINE
  5
1C8
330
1E
100
AcDbEntity
  8
0
100
AcDbLine
 10
149.5
 20
50.192575
 30
0.0
 11
149.5
 21
45.958975
 31
0.0
  0
LINE
  5
1C9
330
1E
100
AcDbEntity
  8
0
100
AcDbLine
 10
149.5
 20
50.192575
 30
0.0
 11
149.5
 21
54.499975
 31
0.0
  0
LINE
  5
1CA
330
1E
100
AcDbEntity
  8
0
100
AcDbLine
 10
149.5
 20
37.99997499999999
 30
0.0
 11
149.5
 21
34.410875
 31
0.0
  0
LINE
  5
1CB
330
1E
100
AcDbEntity
  8
0
100
AcDbLine
 10
149.5
 20
37.99997499999999
 30
0.0
 11
149.5
 21
41.871375
 31
0.0
  0
LINE
  5
1CC
330
1E
100
AcDbEntity
  8
0
100
AcDbLine
 10
149.5
 20
34.410875
 30
0.0
 11
149.5
 21
31.165475
 31
0.0
  0
LINE
  5
1CD
330
1E
100
AcDbEntity
  8
0
100
AcDbLine
 10
149.5
 20
34.410875
 30
0.0
 11
149.5
 21
37.99997499999999
 31
0.0
  0
LINE
  5
1CE
330
1E
100
AcDbEntity
  8
0
100
AcDbLine
 10
149.5
 20
24.011975
 30
0.0
 11
149.5
 21
9.86679500000001
 31
0.0
  0
LINE
  5
1CF
330
1E
100
AcDbEntity
  8
0
100
AcDbLine
 10
149.5
 20
24.011975
 30
0.0
 11
149.5
 21
25.921175
 31
0.0
  0
LINE
  5
1D0
330
1E
100
AcDbEntity
  8
0
100
AcDbLine
 10
149.5
 20
9.86679500000001
 30
0.0
 11
149.5
 21
24.011975
 31
0.0
  0
LINE
  5
1D1
330
1E
100
AcDbEntity
  8
0
100
AcDbLine
 10
149.5
 20
9.86679500000001
 30
0.0
 11
149.9
 21
7.329625000000009
 31
0.0
  0
LINE
  5
1D2
330
1E
100
AcDbEntity
  8
0
100
AcDbLine
 10
149.5
 20
54.499975
 30
0.0
 11
149.5
 21
225.499975
 31
0.0
  0
LINE
  5
1D3
330
1E
100
AcDbEntity
  8
0
100
AcDbLine
 10
149.5
 20
54.499975
 30
0.0
 11
149.5
 21
50.192575
 31
0.0
  0
LINE
  5
1D4
330
1E
100
AcDbEntity
  8
0
100
AcDbLine
 10
149.5
 20
225.9999749999999
 30
0.0
 11
149.5
 21
225.499975
 31
0.0
  0
LINE
  5
1D5
330
1E
100
AcDbEntity
  8
0
100
AcDbLine
 10
160.0
 20
0.0000250000000064
 30
0.0
 11
162.6999999999999
 21
0.375902000000006
 31
0.0
  0
LINE
  5
1D6
330
1E
100
AcDbEntity
  8
0
100
AcDbLine
 10
162.6999999999999
 20
0.375902000000006
 30
0.0
 11
165.1999999999999
 21
1.31559500000001
 31
0.0
  0
LINE
  5
1D7
330
1E
100
AcDbEntity
  8
0
100
AcDbLine
 10
160.0
 20
0.0000250000000064
 30
0.0
 11
162.6999999999999
 21
0.375902000000006
 31
0.0
  0
LINE
  5
1D8
330
1E
100
AcDbEntity
  8
0
100
AcDbLine
 10
149.9
 20
7.329625000000009
 30
0.0
 11
150.9
 21
4.980395000000009
 31
0.0
  0
LINE
  5
1D9
330
1E
100
AcDbEntity
  8
0
100
AcDbLine
 10
150.9
 20
4.980395000000009
 30
0.0
 11
152.5999999999999
 21
2.913075000000009
 31
0.0
  0
LINE
  5
1DA
330
1E
100
AcDbEntity
  8
0
100
AcDbLine
 10
152.5999999999999
 20
2.913075000000009
 30
0.0
 11
154.8
 21
1.31559500000001
 31
0.0
  0
LINE
  5
1DB
330
1E
100
AcDbEntity
  8
0
100
AcDbLine
 10
162.6999999999999
 20
0.375902000000007
 30
0.0
 11
165.1999999999999
 21
1.31559500000001
 31
0.0
  0
LINE
  5
1DC
330
1E
100
AcDbEntity
  8
0
100
AcDbLine
 10
170.5
 20
9.86679500000001
 30
0.0
 11
170.5
 21
24.011975
 31
0.0
  0
LINE
  5
1DD
330
1E
100
AcDbEntity
  8
0
100
AcDbLine
 10
170.1
 20
7.329625000000009
 30
0.0
 11
170.5
 21
9.86679500000001
 31
0.0
  0
LINE
  5
1DE
330
1E
100
AcDbEntity
  8
0
100
AcDbLine
 10
169.1
 20
4.980395000000009
 30
0.0
 11
170.1
 21
7.329625000000009
 31
0.0
  0
LINE
  5
1DF
330
1E
100
AcDbEntity
  8
0
100
AcDbLine
 10
167.4
 20
2.913075000000009
 30
0.0
 11
169.1
 21
4.980395000000009
 31
0.0
  0
LINE
  5
1E0
330
1E
100
AcDbEntity
  8
0
100
AcDbLine
 10
165.1999999999999
 20
1.31559500000001
 30
0.0
 11
167.4
 21
2.913075000000009
 31
0.0
  0
LINE
  5
1E1
330
1E
100
AcDbEntity
  8
0
100
AcDbLine
 10
170.5
 20
28.319275
 30
0.0
 11
170.5
 21
25.921175
 31
0.0
  0
LINE
  5
1E2
330
1E
100
AcDbEntity
  8
0
100
AcDbLine
 10
170.5
 20
28.319275
 30
0.0
 11
170.5
 21
31.165475
 31
0.0
  0
LINE
  5
1E3
330
1E
100
AcDbEntity
  8
0
100
AcDbLine
 10
170.5
 20
37.99997499999999
 30
0.0
 11
170.5
 21
41.871375
 31
0.0
  0
LINE
  5
1E4
330
1E
100
AcDbEntity
  8
0
100
AcDbLine
 10
170.5
 20
37.99997499999999
 30
0.0
 11
170.5
 21
34.410875
 31
0.0
  0
LINE
  5
1E5
330
1E
100
AcDbEntity
  8
0
100
AcDbLine
 10
170.5
 20
41.871375
 30
0.0
 11
170.5
 21
37.99997499999999
 31
0.0
  0
LINE
  5
1E6
330
1E
100
AcDbEntity
  8
0
100
AcDbLine
 10
170.5
 20
41.871375
 30
0.0
 11
170.5
 21
45.958975
 31
0.0
  0
LINE
  5
1E7
330
1E
100
AcDbEntity
  8
0
100
AcDbLine
 10
170.5
 20
50.192575
 30
0.0
 11
170.5
 21
45.958975
 31
0.0
  0
LINE
  5
1E8
330
1E
100
AcDbEntity
  8
0
100
AcDbLine
 10
170.5
 20
50.192575
 30
0.0
 11
170.5
 21
54.499975
 31
0.0
  0
LINE
  5
1E9
330
1E
100
AcDbEntity
  8
0
100
AcDbLine
 10
170.5
 20
45.958975
 30
0.0
 11
170.5
 21
50.192575
 31
0.0
  0
LINE
  5
1EA
330
1E
100
AcDbEntity
  8
0
100
AcDbLine
 10
170.5
 20
45.958975
 30
0.0
 11
170.5
 21
41.871375
 31
0.0
  0
LINE
  5
1EB
330
1E
100
AcDbEntity
  8
0
100
AcDbLine
 10
170.5
 20
34.410875
 30
0.0
 11
170.5
 21
31.165475
 31
0.0
  0
LINE
  5
1EC
330
1E
100
AcDbEntity
  8
0
100
AcDbLine
 10
170.5
 20
34.410875
 30
0.0
 11
170.5
 21
37.99997499999999
 31
0.0
  0
LINE
  5
1ED
330
1E
100
AcDbEntity
  8
0
100
AcDbLine
 10
170.5
 20
31.165475
 30
0.0
 11
170.5
 21
28.319275
 31
0.0
  0
LINE
  5
1EE
330
1E
100
AcDbEntity
  8
0
100
AcDbLine
 10
170.5
 20
31.165475
 30
0.0
 11
170.5
 21
34.410875
 31
0.0
  0
LINE
  5
1EF
330
1E
100
AcDbEntity
  8
0
100
AcDbLine
 10
170.5
 20
25.921175
 30
0.0
 11
170.5
 21
24.011975
 31
0.0
  0
LINE
  5
1F0
330
1E
100
AcDbEntity
  8
0
100
AcDbLine
 10
170.5
 20
25.921175
 30
0.0
 11
170.5
 21
28.319275
 31
0.0
  0
LINE
  5
1F1
330
1E
100
AcDbEntity
  8
0
100
AcDbLine
 10
170.5
 20
24.011975
 30
0.0
 11
170.5
 21
25.921175
 31
0.0
  0
LINE
  5
1F2
330
1E
100
AcDbEntity
  8
0
100
AcDbLine
 10
170.5
 20
24.011975
 30
0.0
 11
170.5
 21
9.86679500000001
 31
0.0
  0
LINE
  5
1F3
330
1E
100
AcDbEntity
  8
0
100
AcDbLine
 10
170.5
 20
54.499975
 30
0.0
 11
170.5
 21
225.499975
 31
0.0
  0
LINE
  5
1F4
330
1E
100
AcDbEntity
  8
0
100
AcDbLine
 10
170.5
 20
54.499975
 30
0.0
 11
170.5
 21
50.192575
 31
0.0
  0
LINE
  5
1F5
330
1E
100
AcDbEntity
  8
0
100
AcDbLine
 10
170.5
 20
225.499975
 30
0.0
 11
170.5
 21
225.9999749999999
 31
0.0
  0
LINE
  5
1F6
330
1E
100
AcDbEntity
  8
0
100
AcDbLine
 10
170.5
 20
225.499975
 30
0.0
 11
170.5
 21
54.499975
 31
0.0
  0
LINE
  5
263
330
1E
100
AcDbEntity
  8
0
100
AcDbLine
 10
170.5
 20
225.9999749999999
 30
0.0
 11
170.6999999999999
 21
226.7999749999999
 31
0.0
  0
LINE
  5
264
330
1E
100
AcDbEntity
  8
0
100
AcDbLine
 10
170.5
 20
225.9999749999999
 30
0.0
 11
170.5
 21
225.499975
 31
0.0
  0
LINE
  5
265
330
1E
100
AcDbEntity
  8
0
100
AcDbLine
 10
170.6999999999999
 20
226.7999749999999
 30
0.0
 11
171.1999999999999
 21
227.7999749999999
 31
0.0
  0
LINE
  5
266
330
1E
100
AcDbEntity
  8
0
100
AcDbLine
 10
154.8
 20
1.31559500000001
 30
0.0
 11
157.3
 21
0.375902000000007
 31
0.0
  0
LINE
  5
267
330
1E
100
AcDbEntity
  8
0
100
AcDbLine
 10
154.8
 20
1.31559500000001
 30
0.0
 11
157.3
 21
0.375902000000006
 31
0.0
  0
LINE
  5
268
330
1E
100
AcDbEntity
  8
0
100
AcDbLine
 10
157.3
 20
0.375902000000006
 30
0.0
 11
160.0
 21
0.0000250000000064
 31
0.0
  0
LINE
  5
269
330
1E
100
AcDbEntity
  8
0
100
AcDbLine
 10
157.3
 20
0.375902000000006
 30
0.0
 11
160.0
 21
0.0000250000000064
 31
0.0
  0
LINE
  5
26A
330
1E
100
AcDbEntity
  8
0
100
AcDbLine
 10
149.5
 20
225.499975
 30
0.0
 11
149.5
 21
225.9999749999999
 31
0.0
  0
LINE
  5
26B
330
1E
100
AcDbEntity
  8
0
100
AcDbLine
 10
149.5
 20
225.499975
 30
0.0
 11
149.5
 21
54.499975
 31
0.0
  0
LINE
  5
26C
330
1E
100
AcDbEntity
  8
0
100
AcDbLine
 10
171.1999999999999
 20
227.7999749999999
 30
0.0
 11
172.1999999999999
 21
228.599975
 31
0.0
  0
LINE
  5
271
330
1E
100
AcDbEntity
  8
0
100
AcDbLine
 10
172.1999999999999
 20
228.599975
 30
0.0
 11
173.5
 21
228.999975
 31
0.0
  0
LINE
  5
272
330
1E
100
AcDbEntity
  8
0
100
AcDbLine
 10
149.3
 20
226.7999749999999
 30
0.0
 11
149.5
 21
225.9999749999999
 31
0.0
  0
LINE
  5
273
330
1E
100
AcDbEntity
  8
0
100
AcDbLine
 10
148.8
 20
227.7999749999999
 30
0.0
 11
149.3
 21
226.7999749999999
 31
0.0
  0
LINE
  5
274
330
1E
100
AcDbEntity
  8
0
100
AcDbLine
 10
148.6999999999999
 20
228.999975
 30
0.0
 11
152.0
 21
228.999975
 31
0.0
  0
LINE
  5
275
330
1E
100
AcDbEntity
  8
0
100
AcDbLine
 10
147.0
 20
249.999975
 30
0.0
 11
147.0
 21
235.999975
 31
0.0
  0
LINE
  5
276
330
1E
100
AcDbEntity
  8
0
100
AcDbLine
 10
147.0
 20
235.999975
 30
0.0
 11
147.0
 21
249.999975
 31
0.0
  0
LINE
  5
277
330
1E
100
AcDbEntity
  8
0
100
AcDbLine
 10
152.0
 20
228.999975
 30
0.0
 11
155.9
 21
228.999975
 31
0.0
  0
LINE
  5
278
330
1E
100
AcDbEntity
  8
0
100
AcDbLine
 10
164.1
 20
228.999975
 30
0.0
 11
168.0
 21
228.999975
 31
0.0
  0
LINE
  5
279
330
1E
100
AcDbEntity
  8
0
100
AcDbLine
 10
160.0
 20
228.999975
 30
0.0
 11
167.1999999999999
 21
228.999975
 31
0.0
  0
LINE
  5
27A
330
1E
100
AcDbEntity
  8
0
100
AcDbLine
 10
160.0
 20
228.999975
 30
0.0
 11
164.1
 21
228.999975
 31
0.0
  0
LINE
  5
27B
330
1E
100
AcDbEntity
  8
0
100
AcDbLine
 10
173.5
 20
228.999975
 30
0.0
 11
174.0999999999999
 21
228.999975
 31
0.0
  0
LINE
  5
27C
330
1E
100
AcDbEntity
  8
0
100
AcDbLine
 10
173.5
 20
228.999975
 30
0.0
 11
184.0
 21
228.999975
 31
0.0
  0
LINE
  5
27D
330
1E
100
AcDbEntity
  8
0
100
AcDbLine
 10
173.5
 20
228.999975
 30
0.0
 11
178.8
 21
228.999975
 31
0.0
  0
LINE
  5
27E
330
1E
100
AcDbEntity
  8
0
100
AcDbLine
 10
168.0
 20
228.999975
 30
0.0
 11
171.3
 21
228.999975
 31
0.0
  0
LINE
  5
27F
330
1E
100
AcDbEntity
  8
0
100
AcDbLine
 10
167.1999999999999
 20
228.999975
 30
0.0
 11
173.9
 21
228.999975
 31
0.0
  0
LINE
  5
280
330
1E
100
AcDbEntity
  8
0
100
AcDbLine
 10
171.3
 20
228.999975
 30
0.0
 11
173.9
 21
228.999975
 31
0.0
  0
LINE
  5
281
330
1E
100
AcDbEntity
  8
0
100
AcDbLine
 10
174.0999999999999
 20
228.999975
 30
0.0
 11
174.5999999999999
 21
228.999975
 31
0.0
  0
LINE
  5
282
330
1E
100
AcDbEntity
  8
0
100
AcDbLine
 10
178.8
 20
228.999975
 30
0.0
 11
183.0
 21
228.999975
 31
0.0
  0
LINE
  5
283
330
1E
100
AcDbEntity
  8
0
100
AcDbLine
 10
173.9
 20
228.999975
 30
0.0
 11
175.4
 21
228.999975
 31
0.0
  0
LINE
  5
284
330
1E
100
AcDbEntity
  8
0
100
AcDbLine
 10
173.9
 20
228.999975
 30
0.0
 11
179.8
 21
228.999975
 31
0.0
  0
LINE
  5
285
330
1E
100
AcDbEntity
  8
0
100
AcDbLine
 10
175.4
 20
228.999975
 30
0.0
 11
176.0
 21
228.999975
 31
0.0
  0
LINE
  5
286
330
1E
100
AcDbEntity
  8
0
100
AcDbLine
 10
183.0
 20
228.999975
 30
0.0
 11
185.5999999999999
 21
228.999975
 31
0.0
  0
LINE
  5
287
330
1E
100
AcDbEntity
  8
0
100
AcDbLine
 10
184.0
 20
228.999975
 30
0.0
 11
185.3
 21
228.999975
 31
0.0
  0
LINE
  5
288
330
1E
100
AcDbEntity
  8
0
100
AcDbLine
 10
185.5999999999999
 20
228.999975
 30
0.0
 11
186.5999999999999
 21
228.999975
 31
0.0
  0
LINE
  5
289
330
1E
100
AcDbEntity
  8
0
100
AcDbLine
 10
185.3
 20
228.999975
 30
0.0
 11
186.5
 21
228.999975
 31
0.0
  0
LINE
  5
28A
330
1E
100
AcDbEntity
  8
0
100
AcDbLine
 10
186.5
 20
228.999975
 30
0.0
 11
187.5
 21
228.999975
 31
0.0
  0
LINE
  5
28B
330
1E
100
AcDbEntity
  8
0
100
AcDbLine
 10
179.8
 20
228.999975
 30
0.0
 11
184.3
 21
228.999975
 31
0.0
  0
LINE
  5
28C
330
1E
100
AcDbEntity
  8
0
100
AcDbLine
 10
184.3
 20
228.999975
 30
0.0
 11
187.0
 21
228.999975
 31
0.0
  0
LINE
  5
28D
330
1E
100
AcDbEntity
  8
0
100
AcDbLine
 10
187.5
 20
228.999975
 30
0.0
 11
188.3
 21
228.999975
 31
0.0
  0
LINE
  5
2A4
330
1E
100
AcDbEntity
  8
0
100
AcDbLine
 10
188.3
 20
228.999975
 30
0.0
 11
188.8
 21
228.999975
 31
0.0
  0
LINE
  5
2C3
330
1E
100
AcDbEntity
  8
0
100
AcDbLine
 10
188.8
 20
228.999975
 30
0.0
 11
189.0
 21
228.999975
 31
0.0
  0
LINE
  5
2C4
330
1E
100
AcDbEntity
  8
0
100
AcDbLine
 10
187.0
 20
228.999975
 30
0.0
 11
188.0
 21
228.999975
 31
0.0
  0
LINE
  5
2C5
330
1E
100
AcDbEntity
  8
0
100
AcDbLine
 10
160.0
 20
229.2999749999999
 30
0.0
 11
184.0
 21
229.2999749999999
 31
0.0
  0
LINE
  5
2C6
330
1E
100
AcDbEntity
  8
0
100
AcDbLine
 10
185.5
 20
229.2999749999999
 30
0.0
 11
186.8
 21
229.2999749999999
 31
0.0
  0
LINE
  5
2C7
330
1E
100
AcDbEntity
  8
0
100
AcDbLine
 10
173.0
 20
235.999975
 30
0.0
 11
173.0
 21
249.999975
 31
0.0
  0
LINE
  5
2C8
330
1E
100
AcDbEntity
  8
0
100
AcDbLine
 10
184.0
 20
229.2999749999999
 30
0.0
 11
185.5
 21
229.2999749999999
 31
0.0
  0
LINE
  5
2C9
330
1E
100
AcDbEntity
  8
0
100
AcDbLine
 10
188.0
 20
229.2999749999999
 30
0.0
 11
188.9
 21
229.2999749999999
 31
0.0
  0
LINE
  5
2CA
330
1E
100
AcDbEntity
  8
0
100
AcDbLine
 10
188.9
 20
229.2999749999999
 30
0.0
 11
189.4999999999999
 21
229.2999749999999
 31
0.0
  0
LINE
  5
2CB
330
1E
100
AcDbEntity
  8
0
100
AcDbLine
 10
188.1999999999999
 20
235.999975
 30
0.0
 11
189.1999999999999
 21
235.999975
 31
0.0
  0
LINE
  5
2CC
330
1E
100
AcDbEntity
  8
0
100
AcDbLine
 10
189.7
 20
229.2999749999999
 30
0.0
 11
190.0
 21
229.999975
 31
0.0
  0
LINE
  5
2CD
330
1E
100
AcDbEntity
  8
0
100
AcDbLine
 10
189.4999999999999
 20
229.2999749999999
 30
0.0
 11
189.7
 21
229.2999749999999
 31
0.0
  0
LINE
  5
2F3
330
1E
100
AcDbEntity
  8
0
100
AcDbLine
 10
190.0
 20
229.999975
 30
0.0
 11
190.0
 21
235.999975
 31
0.0
  0
LINE
  5
2F4
330
1E
100
AcDbEntity
  8
0
100
AcDbLine
 10
190.0
 20
235.999975
 30
0.0
 11
190.0
 21
229.999975
 31
0.0
  0
LINE
  5
2F5
330
1E
100
AcDbEntity
  8
0
100
AcDbLine
 10
189.1999999999999
 20
235.999975
 30
0.0
 11
189.8
 21
235.999975
 31
0.0
  0
LINE
  5
2F6
330
1E
100
AcDbEntity
  8
0
100
AcDbLine
 10
189.8
 20
235.999975
 30
0.0
 11
190.0
 21
235.999975
 31
0.0
  0
LINE
  5
2F7
330
1E
100
AcDbEntity
  8
0
100
AcDbLine
 10
186.8
 20
229.2999749999999
 30
0.0
 11
188.0
 21
229.2999749999999
 31
0.0
  0
LINE
  5
2F8
330
1E
100
AcDbEntity
  8
0
100
AcDbLine
 10
187.0
 20
235.999975
 30
0.0
 11
188.1999999999999
 21
235.999975
 31
0.0
  0
LINE
  5
2F9
330
1E
100
AcDbEntity
  8
0
100
AcDbLine
 10
185.5
 20
235.999975
 30
0.0
 11
187.0
 21
235.999975
 31
0.0
  0
LINE
  5
306
330
1E
100
AcDbEntity
  8
0
100
AcDbLine
 10
188.0
 20
249.999975
 30
0.0
 11
188.0
 21
250.467975
 31
0.0
  0
LINE
  5
308
330
1E
100
AcDbEntity
  8
0
100
AcDbLine
 10
188.0
 20
266.327975
 30
0.0
 11
188.0
 21
262.999975
 31
0.0
  0
LINE
  5
309
330
1E
100
AcDbEntity
  8
0
100
AcDbLine
 10
188.0
 20
266.327975
 30
0.0
 11
188.0
 21
269.4479749999999
 31
0.0
  0
LINE
  5
30B
330
1E
100
AcDbEntity
  8
0
100
AcDbLine
 10
188.0
 20
269.4479749999999
 30
0.0
 11
188.0
 21
266.327975
 31
0.0
  0
LINE
  5
30C
330
1E
100
AcDbEntity
  8
0
100
AcDbLine
 10
188.0
 20
269.4479749999999
 30
0.0
 11
188.0
 21
272.2039749999999
 31
0.0
  0
LINE
  5
30D
330
1E
100
AcDbEntity
  8
0
100
AcDbLine
 10
188.0
 20
272.2039749999999
 30
0.0
 11
188.0
 21
269.4479749999999
 31
0.0
  0
LINE
  5
30E
330
1E
100
AcDbEntity
  8
0
100
AcDbLine
 10
188.0
 20
272.2039749999999
 30
0.0
 11
188.0
 21
274.2839749999999
 31
0.0
  0
LINE
  5
30F
330
1E
100
AcDbEntity
  8
0
100
AcDbLine
 10
188.0
 20
274.2839749999999
 30
0.0
 11
188.0
 21
272.2039749999999
 31
0.0
  0
LINE
  5
310
330
1E
100
AcDbEntity
  8
0
100
AcDbLine
 10
188.0
 20
274.2839749999999
 30
0.0
 11
188.0
 21
275.5319749999999
 31
0.0
  0
LINE
  5
311
330
1E
100
AcDbEntity
  8
0
100
AcDbLine
 10
188.0
 20
275.5319749999999
 30
0.0
 11
188.0
 21
274.2839749999999
 31
0.0
  0
LINE
  5
312
330
1E
100
AcDbEntity
  8
0
100
AcDbLine
 10
188.0
 20
275.5319749999999
 30
0.0
 11
188.0
 21
275.9999749999999
 31
0.0
  0
LINE
  5
313
330
1E
100
AcDbEntity
  8
0
100
AcDbLine
 10
188.0
 20
275.9999749999999
 30
0.0
 11
188.0
 21
275.5319749999999
 31
0.0
  0
LINE
  5
314
330
1E
100
AcDbEntity
  8
0
100
AcDbLine
 10
188.0
 20
262.999975
 30
0.0
 11
188.0
 21
259.6719749999999
 31
0.0
  0
LINE
  5
315
330
1E
100
AcDbEntity
  8
0
100
AcDbLine
 10
188.0
 20
262.999975
 30
0.0
 11
188.0
 21
266.327975
 31
0.0
  0
LINE
  5
316
330
1E
100
AcDbEntity
  8
0
100
AcDbLine
 10
188.0
 20
259.6719749999999
 30
0.0
 11
188.0
 21
256.551975
 31
0.0
  0
LINE
  5
317
330
1E
100
AcDbEntity
  8
0
100
AcDbLine
 10
188.0
 20
259.6719749999999
 30
0.0
 11
188.0
 21
262.999975
 31
0.0
  0
LINE
  5
318
330
1E
100
AcDbEntity
  8
0
100
AcDbLine
 10
188.0
 20
256.551975
 30
0.0
 11
188.0
 21
253.795975
 31
0.0
  0
LINE
  5
319
330
1E
100
AcDbEntity
  8
0
100
AcDbLine
 10
188.0
 20
256.551975
 30
0.0
 11
188.0
 21
259.6719749999999
 31
0.0
  0
LINE
  5
31A
330
1E
100
AcDbEntity
  8
0
100
AcDbLine
 10
188.0
 20
253.795975
 30
0.0
 11
188.0
 21
251.7159749999999
 31
0.0
  0
LINE
  5
31B
330
1E
100
AcDbEntity
  8
0
100
AcDbLine
 10
188.0
 20
253.795975
 30
0.0
 11
188.0
 21
256.551975
 31
0.0
  0
LINE
  5
3A3
330
1E
100
AcDbEntity
  8
0
100
AcDbLine
 10
188.0
 20
251.7159749999999
 30
0.0
 11
188.0
 21
250.467975
 31
0.0
  0
LINE
  5
3A4
330
1E
100
AcDbEntity
  8
0
100
AcDbLine
 10
188.0
 20
251.7159749999999
 30
0.0
 11
188.0
 21
253.795975
 31
0.0
  0
LINE
  5
3A5
330
1E
100
AcDbEntity
  8
0
100
AcDbLine
 10
188.0
 20
250.467975
 30
0.0
 11
188.0
 21
249.999975
 31
0.0
  0
LINE
  5
3A6
330
1E
100
AcDbEntity
  8
0
100
AcDbLine
 10
188.0
 20
250.467975
 30
0.0
 11
188.0
 21
251.7159749999999
 31
0.0
  0
LINE
  5
3A7
330
1E
100
AcDbEntity
  8
0
100
AcDbLine
 10
173.0
 20
249.999975
 30
0.0
 11
188.0
 21
249.999975
 31
0.0
  0
LINE
  5
3A8
330
1E
100
AcDbEntity
  8
0
100
AcDbLine
 10
173.0
 20
249.999975
 30
0.0
 11
173.0
 21
235.999975
 31
0.0
  0
LINE
  5
3A9
330
1E
100
AcDbEntity
  8
0
100
AcDbLine
 10
184.0
 20
235.999975
 30
0.0
 11
185.5
 21
235.999975
 31
0.0
  0
LINE
  5
3AA
330
1E
100
AcDbEntity
  8
0
100
AcDbLine
 10
160.0
 20
235.999975
 30
0.0
 11
184.0
 21
235.999975
 31
0.0
  0
LINE
  5
3AB
330
1E
100
AcDbEntity
  8
0
100
AcDbLine
 10
155.9
 20
228.999975
 30
0.0
 11
160.0
 21
228.999975
 31
0.0
  0
LINE
  5
3AC
330
1E
100
AcDbEntity
  8
0
100
AcDbLine
 10
152.8
 20
228.999975
 30
0.0
 11
160.0
 21
228.999975
 31
0.0
  0
LINE
  5
3AD
330
1E
100
AcDbEntity
  8
0
100
AcDbLine
 10
147.8
 20
228.599975
 30
0.0
 11
148.8
 21
227.7999749999999
 31
0.0
  0
LINE
  5
3AE
330
1E
100
AcDbEntity
  8
0
100
AcDbLine
 10
146.5
 20
228.999975
 30
0.0
 11
147.8
 21
228.599975
 31
0.0
  0
LINE
  5
3B3
330
1E
100
AcDbEntity
  8
0
100
AcDbLine
 10
90.0
 20
235.999975
 30
0.0
 11
90.00690727966048
 21
229.6431983615606
 31
0.0
  0
LINE
  5
3B4
330
1E
100
AcDbEntity
  8
0
100
AcDbLine
 10
90.00690727966048
 20
229.6431983615606
 30
0.0
 11
89.7
 21
229.2999749999999
 31
0.0
  0
LINE
  5
3B5
330
1E
100
AcDbEntity
  8
0
100
AcDbLine
 10
89.7
 20
229.2999749999999
 30
0.0
 11
89.0
 21
228.999975
 31
0.0
  0
LINE
  5
3B6
330
1E
100
AcDbEntity
  8
0
100
AcDbLine
 10
30.3
 20
229.2999749999999
 30
0.0
 11
31.0
 21
228.999975
 31
0.0
  0
LINE
  5
3B7
330
1E
100
AcDbEntity
  8
0
100
AcDbLine
 10
189.0
 20
228.999975
 30
0.0
 11
189.7
 21
229.2999749999999
 31
0.0
  0
LINE
  5
3B8
330
1E
100
AcDbEntity
  8
0
100
AcDbLine
 10
260.0
 20
275.9999749999999
 30
0.0
 11
256.672
 21
275.5319749999999
 31
0.0
  0
LINE
  5
3B9
330
1E
100
AcDbEntity
  8
0
100
AcDbLine
 10
260.0
 20
275.9999749999999
 30
0.0
 11
228.0
 21
275.9999749999999
 31
0.0
  0
LINE
  5
3BA
330
1E
100
AcDbEntity
  8
0
100
AcDbLine
 10
260.0
 20
274.142875
 30
0.0
 11
257.1474
 21
273.7416749999999
 31
0.0
  0
LINE
  5
3BB
330
1E
100
AcDbEntity
  8
0
100
AcDbLine
 10
260.0
 20
251.857075
 30
0.0
 11
257.1474
 21
252.258275
 31
0.0
  0
LINE
  5
3BC
330
1E
100
AcDbEntity
  8
0
100
AcDbLine
 10
260.0
 20
249.999975
 30
0.0
 11
256.672
 21
250.467975
 31
0.0
  0
LINE
  5
3BD
330
1E
100
AcDbEntity
  8
0
100
AcDbLine
 10
260.0
 20
235.999975
 30
0.0
 11
236.0
 21
235.999975
 31
0.0
  0
LINE
  5
3BE
330
1E
100
AcDbEntity
  8
0
100
AcDbLine
 10
260.0
 20
229.2999749999999
 30
0.0
 11
236.0
 21
229.2999749999999
 31
0.0
  0
LINE
  5
3BF
330
1E
100
AcDbEntity
  8
0
100
AcDbLine
 10
260.0
 20
228.999975
 30
0.0
 11
255.9
 21
228.999975
 31
0.0
  0
LINE
  5
3C0
330
1E
100
AcDbEntity
  8
0
100
AcDbLine
 10
260.0
 20
228.999975
 30
0.0
 11
252.8
 21
228.999975
 31
0.0
  0
LINE
  5
3C1
330
1E
100
AcDbEntity
  8
0
100
AcDbLine
 10
260.0
 20
224.899975
 30
0.0
 11
257.3999999999999
 21
224.899975
 31
0.0
  0
LINE
  5
3C2
330
1E
100
AcDbEntity
  8
0
100
AcDbLine
 10
260.0
 20
223.5999749999999
 30
0.0
 11
257.3999999999999
 21
223.5999749999999
 31
0.0
  0
LINE
  5
3C3
330
1E
100
AcDbEntity
  8
0
100
AcDbLine
 10
260.0
 20
184.999975
 30
0.0
 11
257.3999999999999
 21
184.999975
 31
0.0
  0
LINE
  5
3C4
330
1E
100
AcDbEntity
  8
0
100
AcDbLine
 10
270.3
 20
224.899975
 30
0.0
 11
270.3
 21
223.5999749999999
 31
0.0
  0
LINE
  5
3C5
330
1E
100
AcDbEntity
  8
0
100
AcDbLine
 10
270.3
 20
223.5999749999999
 30
0.0
 11
270.3
 21
224.899975
 31
0.0
  0
LINE
  5
3C6
330
1E
100
AcDbEntity
  8
0
100
AcDbLine
 10
312.16495
 20
188.149975
 30
0.0
 11
309.5
 21
188.2999749999999
 31
0.0
  0
LINE
  5
3C7
330
1E
100
AcDbEntity
  8
0
100
AcDbLine
 10
312.1
 20
184.999975
 30
0.0
 11
309.5
 21
184.999975
 31
0.0
  0
LINE
  5
3C8
330
1E
100
AcDbEntity
  8
0
100
AcDbLine
 10
317.0
 20
187.7999749999999
 30
0.0
 11
314.67776
 21
187.9849749999999
 31
0.0
  0
LINE
  5
3C9
330
1E
100
AcDbEntity
  8
0
100
AcDbLine
 10
316.6
 20
184.999975
 30
0.0
 11
314.5
 21
184.999975
 31
0.0
  0
LINE
  5
3CA
330
1E
100
AcDbEntity
  8
0
100
AcDbLine
 10
320.0
 20
185.499975
 30
0.0
 11
320.0
 21
186.999975
 31
0.0
  0
LINE
  5
3CB
330
1E
100
AcDbEntity
  8
0
100
AcDbLine
 10
320.0
 20
186.999975
 30
0.0
 11
320.0
 21
185.499975
 31
0.0
  0
LINE
  5
3CC
330
1E
100
AcDbEntity
  8
0
100
AcDbLine
 10
319.5
 20
184.999975
 30
0.0
 11
319.1
 21
184.999975
 31
0.0
  0
LINE
  5
3CD
330
1E
100
AcDbEntity
  8
0
100
AcDbLine
 10
320.0
 20
185.499975
 30
0.0
 11
319.8
 21
185.199975
 31
0.0
  0
LINE
  5
3CE
330
1E
100
AcDbEntity
  8
0
100
AcDbLine
 10
319.8
 20
185.199975
 30
0.0
 11
319.5
 21
184.999975
 31
0.0
  0
LINE
  5
3CF
330
1E
100
AcDbEntity
  8
0
100
AcDbLine
 10
318.1999999999999
 20
184.999975
 30
0.0
 11
316.6
 21
184.999975
 31
0.0
  0
LINE
  5
3D0
330
1E
100
AcDbEntity
  8
0
100
AcDbLine
 10
319.1
 20
184.999975
 30
0.0
 11
318.1999999999999
 21
184.999975
 31
0.0
  0
LINE
  5
3D1
330
1E
100
AcDbEntity
  8
0
100
AcDbLine
 10
319.7
 20
187.2999749999999
 30
0.0
 11
318.6
 21
187.599975
 31
0.0
  0
LINE
  5
3D2
330
1E
100
AcDbEntity
  8
0
100
AcDbLine
 10
319.7
 20
187.2999749999999
 30
0.0
 11
318.6
 21
187.599975
 31
0.0
  0
LINE
  5
3D3
330
1E
100
AcDbEntity
  8
0
100
AcDbLine
 10
320.0
 20
186.999975
 30
0.0
 11
319.7
 21
187.2999749999999
 31
0.0
  0
LINE
  5
3D4
330
1E
100
AcDbEntity
  8
0
100
AcDbLine
 10
318.6
 20
187.599975
 30
0.0
 11
317.0
 21
187.7999749999999
 31
0.0
  0
LINE
  5
3D5
330
1E
100
AcDbEntity
  8
0
100
AcDbLine
 10
314.5
 20
184.999975
 30
0.0
 11
312.1
 21
184.999975
 31
0.0
  0
LINE
  5
3D6
330
1E
100
AcDbEntity
  8
0
100
AcDbLine
 10
314.67776
 20
187.9849749999999
 30
0.0
 11
312.16495
 21
188.149975
 31
0.0
  0
LINE
  5
3D7
330
1E
100
AcDbEntity
  8
0
100
AcDbLine
 10
309.5
 20
188.2999749999999
 30
0.0
 11
280.1999999999999
 21
189.999975
 31
0.0
  0
LINE
  5
3D8
330
1E
100
AcDbEntity
  8
0
100
AcDbLine
 10
309.5
 20
188.2999749999999
 30
0.0
 11
280.1999999999999
 21
189.999975
 31
0.0
  0
LINE
  5
3D9
330
1E
100
AcDbEntity
  8
0
100
AcDbLine
 10
309.5
 20
184.999975
 30
0.0
 11
260.0
 21
184.999975
 31
0.0
  0
LINE
  5
3DA
330
1E
100
AcDbEntity
  8
0
100
AcDbLine
 10
309.5
 20
184.999975
 30
0.0
 11
260.0
 21
184.999975
 31
0.0
  0
LINE
  5
3DB
330
1E
100
AcDbEntity
  8
0
100
AcDbLine
 10
270.5
 20
222.999975
 30
0.0
 11
270.5
 21
199.999975
 31
0.0
  0
LINE
  5
3DC
330
1E
100
AcDbEntity
  8
0
100
AcDbLine
 10
270.5
 20
199.999975
 30
0.0
 11
270.5
 21
222.999975
 31
0.0
  0
LINE
  5
3DD
330
1E
100
AcDbEntity
  8
0
100
AcDbLine
 10
273.3
 20
192.999975
 30
0.0
 11
271.7999999999999
 21
195.099975
 31
0.0
  0
LINE
  5
3DE
330
1E
100
AcDbEntity
  8
0
100
AcDbLine
 10
275.4
 20
191.2999749999999
 30
0.0
 11
273.3
 21
192.999975
 31
0.0
  0
LINE
  5
3DF
330
1E
100
AcDbEntity
  8
0
100
AcDbLine
 10
280.1999999999999
 20
189.999975
 30
0.0
 11
277.8
 21
190.399975
 31
0.0
  0
LINE
  5
3E0
330
1E
100
AcDbEntity
  8
0
100
AcDbLine
 10
277.8
 20
190.399975
 30
0.0
 11
275.4
 21
191.2999749999999
 31
0.0
  0
LINE
  5
3E1
330
1E
100
AcDbEntity
  8
0
100
AcDbLine
 10
271.0
 20
197.099975
 30
0.0
 11
270.6
 21
198.999975
 31
0.0
  0
LINE
  5
3E2
330
1E
100
AcDbEntity
  8
0
100
AcDbLine
 10
271.7999999999999
 20
195.099975
 30
0.0
 11
271.0
 21
197.099975
 31
0.0
  0
LINE
  5
3E3
330
1E
100
AcDbEntity
  8
0
100
AcDbLine
 10
270.6
 20
198.999975
 30
0.0
 11
270.5
 21
199.999975
 31
0.0
  0
LINE
  5
3E4
330
1E
100
AcDbEntity
  8
0
100
AcDbLine
 10
267.1
 20
223.5999749999999
 30
0.0
 11
265.0
 21
223.5999749999999
 31
0.0
  0
LINE
  5
3E5
330
1E
100
AcDbEntity
  8
0
100
AcDbLine
 10
267.3
 20
223.5999749999999
 30
0.0
 11
265.1
 21
223.5999749999999
 31
0.0
  0
LINE
  5
3E6
330
1E
100
AcDbEntity
  8
0
100
AcDbLine
 10
269.6
 20
223.5999749999999
 30
0.0
 11
268.6999999999999
 21
223.5999749999999
 31
0.0
  0
LINE
  5
3E7
330
1E
100
AcDbEntity
  8
0
100
AcDbLine
 10
269.8999999999999
 20
223.5999749999999
 30
0.0
 11
268.8999999999999
 21
223.5999749999999
 31
0.0
  0
LINE
  5
3E8
330
1E
100
AcDbEntity
  8
0
100
AcDbLine
 10
270.0
 20
223.5999749999999
 30
0.0
 11
269.6
 21
223.5999749999999
 31
0.0
  0
LINE
  5
3E9
330
1E
100
AcDbEntity
  8
0
100
AcDbLine
 10
270.3
 20
223.399975
 30
0.0
 11
270.0
 21
223.5999749999999
 31
0.0
  0
LINE
  5
3EA
330
1E
100
AcDbEntity
  8
0
100
AcDbLine
 10
270.3
 20
223.5999749999999
 30
0.0
 11
270.0
 21
223.5999749999999
 31
0.0
  0
LINE
  5
3EB
330
1E
100
AcDbEntity
  8
0
100
AcDbLine
 10
270.3
 20
223.5999749999999
 30
0.0
 11
269.8999999999999
 21
223.5999749999999
 31
0.0
  0
LINE
  5
3EC
330
1E
100
AcDbEntity
  8
0
100
AcDbLine
 10
270.5
 20
222.999975
 30
0.0
 11
270.3
 21
223.399975
 31
0.0
  0
LINE
  5
3ED
330
1E
100
AcDbEntity
  8
0
100
AcDbLine
 10
268.6999999999999
 20
223.5999749999999
 30
0.0
 11
267.1
 21
223.5999749999999
 31
0.0
  0
LINE
  5
3EE
330
1E
100
AcDbEntity
  8
0
100
AcDbLine
 10
268.8999999999999
 20
223.5999749999999
 30
0.0
 11
267.3
 21
223.5999749999999
 31
0.0
  0
LINE
  5
3EF
330
1E
100
AcDbEntity
  8
0
100
AcDbLine
 10
265.0
 20
223.5999749999999
 30
0.0
 11
262.6
 21
223.5999749999999
 31
0.0
  0
LINE
  5
3F0
330
1E
100
AcDbEntity
  8
0
100
AcDbLine
 10
265.1
 20
223.5999749999999
 30
0.0
 11
262.6
 21
223.5999749999999
 31
0.0
  0
LINE
  5
3F1
330
1E
100
AcDbEntity
  8
0
100
AcDbLine
 10
262.6
 20
223.5999749999999
 30
0.0
 11
260.0
 21
223.5999749999999
 31
0.0
  0
LINE
  5
3F2
330
1E
100
AcDbEntity
  8
0
100
AcDbLine
 10
272.5319999999999
 20
266.327975
 30
0.0
 11
271.2839999999999
 21
269.4479749999999
 31
0.0
  0
LINE
  5
3F3
330
1E
100
AcDbEntity
  8
0
100
AcDbLine
 10
270.7416999999999
 20
265.8525749999999
 30
0.0
 11
269.672
 21
268.526875
 31
0.0
  0
LINE
  5
3F4
330
1E
100
AcDbEntity
  8
0
100
AcDbLine
 10
285.0
 20
264.999975
 30
0.0
 11
284.8
 21
264.999975
 31
0.0
  0
LINE
  5
3F5
330
1E
100
AcDbEntity
  8
0
100
AcDbLine
 10
285.0
 20
260.999975
 30
0.0
 11
284.8
 21
260.999975
 31
0.0
  0
LINE
  5
3F6
330
1E
100
AcDbEntity
  8
0
100
AcDbLine
 10
285.5
 20
235.999975
 30
0.0
 11
284.0
 21
235.999975
 31
0.0
  0
LINE
  5
3F7
330
1E
100
AcDbEntity
  8
0
100
AcDbLine
 10
285.3
 20
228.999975
 30
0.0
 11
284.0
 21
228.999975
 31
0.0
  0
LINE
  5
3F8
330
1E
100
AcDbEntity
  8
0
100
AcDbLine
 10
285.5
 20
229.2999749999999
 30
0.0
 11
284.0
 21
229.2999749999999
 31
0.0
  0
LINE
  5
3F9
330
1E
100
AcDbEntity
  8
0
100
AcDbLine
 10
285.6
 20
228.999975
 30
0.0
 11
283.0
 21
228.999975
 31
0.0
  0
LINE
  5
3FA
330
1E
100
AcDbEntity
  8
0
100
AcDbLine
 10
287.0
 20
228.999975
 30
0.0
 11
284.2999999999999
 21
228.999975
 31
0.0
  0
LINE
  5
3FB
330
1E
100
AcDbEntity
  8
0
100
AcDbLine
 10
290.0
 20
235.999975
 30
0.0
 11
290.0
 21
229.999975
 31
0.0
  0
LINE
  5
3FC
330
1E
100
AcDbEntity
  8
0
100
AcDbLine
 10
290.0
 20
229.999975
 30
0.0
 11
290.0
 21
235.999975
 31
0.0
  0
LINE
  5
3FD
330
1E
100
AcDbEntity
  8
0
100
AcDbLine
 10
290.0
 20
229.999975
 30
0.0
 11
289.6999999999999
 21
229.2999749999999
 31
0.0
  0
LINE
  5
3FE
330
1E
100
AcDbEntity
  8
0
100
AcDbLine
 10
288.8999999999999
 20
229.2999749999999
 30
0.0
 11
288.0
 21
229.2999749999999
 31
0.0
  0
LINE
  5
3FF
330
1E
100
AcDbEntity
  8
0
100
AcDbLine
 10
288.3
 20
228.999975
 30
0.0
 11
287.5
 21
228.999975
 31
0.0
  0
LINE
  5
400
330
1E
100
AcDbEntity
  8
0
100
AcDbLine
 10
289.6999999999999
 20
229.2999749999999
 30
0.0
 11
289.0
 21
228.999975
 31
0.0
  0
LINE
  5
401
330
1E
100
AcDbEntity
  8
0
100
AcDbLine
 10
289.6999999999999
 20
229.2999749999999
 30
0.0
 11
289.4999999999999
 21
229.2999749999999
 31
0.0
  0
LINE
  5
402
330
1E
100
AcDbEntity
  8
0
100
AcDbLine
 10
289.4999999999999
 20
229.2999749999999
 30
0.0
 11
288.8999999999999
 21
229.2999749999999
 31
0.0
  0
LINE
  5
403
330
1E
100
AcDbEntity
  8
0
100
AcDbLine
 10
288.8
 20
228.999975
 30
0.0
 11
288.3
 21
228.999975
 31
0.0
  0
LINE
  5
404
330
1E
100
AcDbEntity
  8
0
100
AcDbLine
 10
289.0
 20
228.999975
 30
0.0
 11
288.8
 21
228.999975
 31
0.0
  0
LINE
  5
405
330
1E
100
AcDbEntity
  8
0
100
AcDbLine
 10
286.8
 20
229.2999749999999
 30
0.0
 11
285.5
 21
229.2999749999999
 31
0.0
  0
LINE
  5
406
330
1E
100
AcDbEntity
  8
0
100
AcDbLine
 10
286.6
 20
228.999975
 30
0.0
 11
285.6
 21
228.999975
 31
0.0
  0
LINE
  5
407
330
1E
100
AcDbEntity
  8
0
100
AcDbLine
 10
286.5
 20
228.999975
 30
0.0
 11
285.3
 21
228.999975
 31
0.0
  0
LINE
  5
408
330
1E
100
AcDbEntity
  8
0
100
AcDbLine
 10
288.0
 20
229.2999749999999
 30
0.0
 11
286.8
 21
229.2999749999999
 31
0.0
  0
LINE
  5
409
330
1E
100
AcDbEntity
  8
0
100
AcDbLine
 10
288.0
 20
228.999975
 30
0.0
 11
287.0
 21
228.999975
 31
0.0
  0
LINE
  5
40A
330
1E
100
AcDbEntity
  8
0
100
AcDbLine
 10
287.5
 20
228.999975
 30
0.0
 11
286.5
 21
228.999975
 31
0.0
  0
LINE
  5
40B
330
1E
100
AcDbEntity
  8
0
100
AcDbLine
 10
288.2
 20
235.999975
 30
0.0
 11
287.0
 21
235.999975
 31
0.0
  0
LINE
  5
40C
330
1E
100
AcDbEntity
  8
0
100
AcDbLine
 10
290.0
 20
235.999975
 30
0.0
 11
289.8
 21
235.999975
 31
0.0
  0
LINE
  5
40D
330
1E
100
AcDbEntity
  8
0
100
AcDbLine
 10
289.8
 20
235.999975
 30
0.0
 11
289.1999999999999
 21
235.999975
 31
0.0
  0
LINE
  5
40E
330
1E
100
AcDbEntity
  8
0
100
AcDbLine
 10
289.1999999999999
 20
235.999975
 30
0.0
 11
288.2
 21
235.999975
 31
0.0
  0
LINE
  5
40F
330
1E
100
AcDbEntity
  8
0
100
AcDbLine
 10
287.0
 20
235.999975
 30
0.0
 11
285.5
 21
235.999975
 31
0.0
  0
LINE
  5
410
330
1E
100
AcDbEntity
  8
0
100
AcDbLine
 10
285.0
 20
264.999975
 30
0.0
 11
285.0
 21
260.999975
 31
0.0
  0
LINE
  5
411
330
1E
100
AcDbEntity
  8
0
100
AcDbLine
 10
285.0
 20
260.999975
 30
0.0
 11
285.0
 21
264.999975
 31
0.0
  0
LINE
  5
412
330
1E
100
AcDbEntity
  8
0
100
AcDbLine
 10
273.0
 20
260.999975
 30
0.0
 11
273.0
 21
235.999975
 31
0.0
  0
LINE
  5
413
330
1E
100
AcDbEntity
  8
0
100
AcDbLine
 10
273.0
 20
235.999975
 30
0.0
 11
273.0
 21
260.999975
 31
0.0
  0
LINE
  5
414
330
1E
100
AcDbEntity
  8
0
100
AcDbLine
 10
284.0
 20
235.999975
 30
0.0
 11
260.0
 21
235.999975
 31
0.0
  0
LINE
  5
415
330
1E
100
AcDbEntity
  8
0
100
AcDbLine
 10
284.0
 20
229.2999749999999
 30
0.0
 11
260.0
 21
229.2999749999999
 31
0.0
  0
LINE
  5
416
330
1E
100
AcDbEntity
  8
0
100
AcDbLine
 10
273.8999999999999
 20
228.999975
 30
0.0
 11
267.2
 21
228.999975
 31
0.0
  0
LINE
  5
417
330
1E
100
AcDbEntity
  8
0
100
AcDbLine
 10
273.8999999999999
 20
228.999975
 30
0.0
 11
271.3
 21
228.999975
 31
0.0
  0
LINE
  5
418
330
1E
100
AcDbEntity
  8
0
100
AcDbLine
 10
273.4999999999999
 20
228.999975
 30
0.0
 11
272.1999999999999
 21
228.599975
 31
0.0
  0
LINE
  5
419
330
1E
100
AcDbEntity
  8
0
100
AcDbLine
 10
279.8
 20
228.999975
 30
0.0
 11
273.8999999999999
 21
228.999975
 31
0.0
  0
LINE
  5
41A
330
1E
100
AcDbEntity
  8
0
100
AcDbLine
 10
278.8
 20
228.999975
 30
0.0
 11
273.4999999999998
 21
228.999975
 31
0.0
  0
LINE
  5
41B
330
1E
100
AcDbEntity
  8
0
100
AcDbLine
 10
284.0
 20
228.999975
 30
0.0
 11
273.4999999999998
 21
228.999975
 31
0.0
  0
LINE
  5
41C
330
1E
100
AcDbEntity
  8
0
100
AcDbLine
 10
284.2999999999999
 20
228.999975
 30
0.0
 11
279.8
 21
228.999975
 31
0.0
  0
LINE
  5
41D
330
1E
100
AcDbEntity
  8
0
100
AcDbLine
 10
283.0
 20
228.999975
 30
0.0
 11
278.8
 21
228.999975
 31
0.0
  0
LINE
  5
41E
330
1E
100
AcDbEntity
  8
0
100
AcDbLine
 10
276.0
 20
228.999975
 30
0.0
 11
275.4
 21
228.999975
 31
0.0
  0
LINE
  5
41F
330
1E
100
AcDbEntity
  8
0
100
AcDbLine
 10
275.4
 20
228.999975
 30
0.0
 11
273.8999999999999
 21
228.999975
 31
0.0
  0
LINE
  5
420
330
1E
100
AcDbEntity
  8
0
100
AcDbLine
 10
274.6
 20
228.999975
 30
0.0
 11
274.1
 21
228.999975
 31
0.0
  0
LINE
  5
421
330
1E
100
AcDbEntity
  8
0
100
AcDbLine
 10
274.1
 20
228.999975
 30
0.0
 11
273.4999999999998
 21
228.999975
 31
0.0
  0
LINE
  5
422
330
1E
100
AcDbEntity
  8
0
100
AcDbLine
 10
267.2
 20
228.999975
 30
0.0
 11
260.0
 21
228.999975
 31
0.0
  0
LINE
  5
423
330
1E
100
AcDbEntity
  8
0
100
AcDbLine
 10
268.0
 20
228.999975
 30
0.0
 11
264.1
 21
228.999975
 31
0.0
  0
LINE
  5
424
330
1E
100
AcDbEntity
  8
0
100
AcDbLine
 10
267.3
 20
224.899975
 30
0.0
 11
265.1
 21
224.899975
 31
0.0
  0
LINE
  5
425
330
1E
100
AcDbEntity
  8
0
100
AcDbLine
 10
271.3
 20
228.999975
 30
0.0
 11
268.0
 21
228.999975
 31
0.0
  0
LINE
  5
426
330
1E
100
AcDbEntity
  8
0
100
AcDbLine
 10
269.8999999999999
 20
224.899975
 30
0.0
 11
268.8999999999999
 21
224.899975
 31
0.0
  0
LINE
  5
427
330
1E
100
AcDbEntity
  8
0
100
AcDbLine
 10
270.5
 20
225.499975
 30
0.0
 11
270.5
 21
225.9999749999999
 31
0.0
  0
LINE
  5
428
330
1E
100
AcDbEntity
  8
0
100
AcDbLine
 10
270.5
 20
225.499975
 30
0.0
 11
270.3
 21
225.099975
 31
0.0
  0
LINE
  5
429
330
1E
100
AcDbEntity
  8
0
100
AcDbLine
 10
270.5
 20
225.9999749999999
 30
0.0
 11
270.5
 21
225.499975
 31
0.0
  0
LINE
  5
42A
330
1E
100
AcDbEntity
  8
0
100
AcDbLine
 10
270.3
 20
225.099975
 30
0.0
 11
270.0
 21
224.899975
 31
0.0
  0
LINE
  5
42B
330
1E
100
AcDbEntity
  8
0
100
AcDbLine
 10
270.3
 20
224.899975
 30
0.0
 11
269.8999999999999
 21
224.899975
 31
0.0
  0
LINE
  5
42C
330
1E
100
AcDbEntity
  8
0
100
AcDbLine
 10
271.1999999999999
 20
227.7999749999999
 30
0.0
 11
270.6999999999999
 21
226.7999749999999
 31
0.0
  0
LINE
  5
42D
330
1E
100
AcDbEntity
  8
0
100
AcDbLine
 10
270.6999999999999
 20
226.7999749999999
 30
0.0
 11
270.5
 21
225.9999749999999
 31
0.0
  0
LINE
  5
42E
330
1E
100
AcDbEntity
  8
0
100
AcDbLine
 10
272.1999999999999
 20
228.599975
 30
0.0
 11
271.1999999999999
 21
227.7999749999999
 31
0.0
  0
LINE
  5
42F
330
1E
100
AcDbEntity
  8
0
100
AcDbLine
 10
268.8999999999999
 20
224.899975
 30
0.0
 11
267.3
 21
224.899975
 31
0.0
  0
LINE
  5
430
330
1E
100
AcDbEntity
  8
0
100
AcDbLine
 10
264.1
 20
228.999975
 30
0.0
 11
260.0
 21
228.999975
 31
0.0
  0
LINE
  5
431
330
1E
100
AcDbEntity
  8
0
100
AcDbLine
 10
265.1
 20
224.899975
 30
0.0
 11
262.6
 21
224.899975
 31
0.0
  0
LINE
  5
432
330
1E
100
AcDbEntity
  8
0
100
AcDbLine
 10
262.6
 20
224.899975
 30
0.0
 11
260.0
 21
224.899975
 31
0.0
  0
LINE
  5
433
330
1E
100
AcDbEntity
  8
0
100
AcDbLine
 10
274.0
 20
263.999975
 30
0.0
 11
272.0
 21
263.999975
 31
0.0
  0
LINE
  5
434
330
1E
100
AcDbEntity
  8
0
100
AcDbLine
 10
274.0
 20
261.999975
 30
0.0
 11
272.0
 21
261.999975
 31
0.0
  0
LINE
  5
435
330
1E
100
AcDbEntity
  8
0
100
AcDbLine
 10
272.5319999999999
 20
259.6719749999999
 30
0.0
 11
271.2839999999999
 21
256.551975
 31
0.0
  0
LINE
  5
436
330
1E
100
AcDbEntity
  8
0
100
AcDbLine
 10
282.5
 20
264.999975
 30
0.0
 11
272.7187499999999
 21
264.999975
 31
0.0
  0
LINE
  5
437
330
1E
100
AcDbEntity
  8
0
100
AcDbLine
 10
282.5
 20
260.999975
 30
0.0
 11
273.0
 21
260.999975
 31
0.0
  0
LINE
  5
438
330
1E
100
AcDbEntity
  8
0
100
AcDbLine
 10
282.5
 20
260.999975
 30
0.0
 11
272.7187499999999
 21
260.999975
 31
0.0
  0
LINE
  5
439
330
1E
100
AcDbEntity
  8
0
100
AcDbLine
 10
283.4999999999999
 20
260.999975
 30
0.0
 11
282.5
 21
260.999975
 31
0.0
  0
LINE
  5
43A
330
1E
100
AcDbEntity
  8
0
100
AcDbLine
 10
284.2999999999999
 20
260.999975
 30
0.0
 11
283.4999999999999
 21
260.999975
 31
0.0
  0
LINE
  5
43B
330
1E
100
AcDbEntity
  8
0
100
AcDbLine
 10
284.8
 20
260.999975
 30
0.0
 11
284.2999999999999
 21
260.999975
 31
0.0
  0
LINE
  5
43C
330
1E
100
AcDbEntity
  8
0
100
AcDbLine
 10
283.4999999999999
 20
264.999975
 30
0.0
 11
282.5
 21
264.999975
 31
0.0
  0
LINE
  5
43D
330
1E
100
AcDbEntity
  8
0
100
AcDbLine
 10
284.2999999999999
 20
264.999975
 30
0.0
 11
283.4999999999999
 21
264.999975
 31
0.0
  0
LINE
  5
43E
330
1E
100
AcDbEntity
  8
0
100
AcDbLine
 10
284.8
 20
264.999975
 30
0.0
 11
284.2999999999999
 21
264.999975
 31
0.0
  0
LINE
  5
43F
330
1E
100
AcDbEntity
  8
0
100
AcDbLine
 10
273.0
 20
262.999975
 30
0.0
 11
272.5319999999999
 21
259.6719749999999
 31
0.0
  0
LINE
  5
440
330
1E
100
AcDbEntity
  8
0
100
AcDbLine
 10
273.0
 20
262.999975
 30
0.0
 11
272.5319999999999
 21
266.327975
 31
0.0
  0
LINE
  5
441
330
1E
100
AcDbEntity
  8
0
100
AcDbLine
 10
274.0
 20
263.999975
 30
0.0
 11
274.0
 21
261.999975
 31
0.0
  0
LINE
  5
442
330
1E
100
AcDbEntity
  8
0
100
AcDbLine
 10
274.0
 20
261.999975
 30
0.0
 11
274.0
 21
263.999975
 31
0.0
  0
LINE
  5
443
330
1E
100
AcDbEntity
  8
0
100
AcDbLine
 10
274.0
 20
261.999975
 30
0.0
 11
272.8593749999999
 21
261.999975
 31
0.0
  0
LINE
  5
444
330
1E
100
AcDbEntity
  8
0
100
AcDbLine
 10
269.672
 20
257.473075
 30
0.0
 11
267.8890999999999
 21
255.110875
 31
0.0
  0
LINE
  5
445
330
1E
100
AcDbEntity
  8
0
100
AcDbLine
 10
267.8890999999999
 20
255.110875
 30
0.0
 11
265.5269
 21
253.327975
 31
0.0
  0
LINE
  5
446
330
1E
100
AcDbEntity
  8
0
100
AcDbLine
 10
266.866
 20
253.1076749999999
 30
0.0
 11
265.134
 21
252.107675
 31
0.0
  0
LINE
  5
447
330
1E
100
AcDbEntity
  8
0
100
AcDbLine
 10
266.4479999999999
 20
251.7159749999999
 30
0.0
 11
263.3279999999999
 21
250.467975
 31
0.0
  0
LINE
  5
448
330
1E
100
AcDbEntity
  8
0
100
AcDbLine
 10
267.8659999999999
 20
251.375575
 30
0.0
 11
266.134
 21
250.3755749999999
 31
0.0
  0
LINE
  5
449
330
1E
100
AcDbEntity
  8
0
100
AcDbLine
 10
271.2839999999999
 20
256.551975
 30
0.0
 11
269.2039999999999
 21
253.795975
 31
0.0
  0
LINE
  5
44A
330
1E
100
AcDbEntity
  8
0
100
AcDbLine
 10
269.2039999999999
 20
253.795975
 30
0.0
 11
266.4479999999999
 21
251.7159749999999
 31
0.0
  0
LINE
  5
44B
330
1E
100
AcDbEntity
  8
0
100
AcDbLine
 10
267.8659999999999
 20
251.375575
 30
0.0
 11
266.866
 21
253.1076749999999
 31
0.0
  0
LINE
  5
44C
330
1E
100
AcDbEntity
  8
0
100
AcDbLine
 10
265.564233103513
 20
251.362468241405
 30
0.0
 11
263.3279999999999
 21
250.467975
 31
0.0
  0
LINE
  5
44D
330
1E
100
AcDbEntity
  8
0
100
AcDbLine
 10
266.134
 20
250.3755749999999
 30
0.0
 11
265.134
 21
252.107675
 31
0.0
  0
LINE
  5
44E
330
1E
100
AcDbEntity
  8
0
100
AcDbLine
 10
266.134
 20
250.3755749999999
 30
0.0
 11
265.564233103513
 21
251.362468241405
 31
0.0
  0
LINE
  5
44F
330
1E
100
AcDbEntity
  8
0
100
AcDbLine
 10
263.3279999999999
 20
250.467975
 30
0.0
 11
260.0
 21
249.999975
 31
0.0
  0
LINE
  5
450
330
1E
100
AcDbEntity
  8
0
100
AcDbLine
 10
265.5269
 20
253.327975
 30
0.0
 11
262.8525999999999
 21
252.258275
 31
0.0
  0
LINE
  5
451
330
1E
100
AcDbEntity
  8
0
100
AcDbLine
 10
262.8525999999999
 20
252.258275
 30
0.0
 11
260.0
 21
251.857075
 31
0.0
  0
LINE
  5
452
330
1E
100
AcDbEntity
  8
0
100
AcDbLine
 10
271.1428999999999
 20
262.999975
 30
0.0
 11
270.7416999999999
 21
260.147375
 31
0.0
  0
LINE
  5
453
330
1E
100
AcDbEntity
  8
0
100
AcDbLine
 10
270.7416999999999
 20
260.147375
 30
0.0
 11
269.672
 21
257.473075
 31
0.0
  0
LINE
  5
454
330
1E
100
AcDbEntity
  8
0
100
AcDbLine
 10
272.0
 20
263.999975
 30
0.0
 11
272.0
 21
261.999975
 31
0.0
  0
LINE
  5
455
330
1E
100
AcDbEntity
  8
0
100
AcDbLine
 10
271.1428999999999
 20
262.999975
 30
0.0
 11
270.7416999999999
 21
265.8525749999999
 31
0.0
  0
LINE
  5
456
330
1E
100
AcDbEntity
  8
0
100
AcDbLine
 10
272.0
 20
261.999975
 30
0.0
 11
272.0
 21
263.999975
 31
0.0
  0
LINE
  5
457
330
1E
100
AcDbEntity
  8
0
100
AcDbLine
 10
266.4479999999999
 20
274.2839749999999
 30
0.0
 11
263.3279999999999
 21
275.5319749999999
 31
0.0
  0
LINE
  5
458
330
1E
100
AcDbEntity
  8
0
100
AcDbLine
 10
267.8659999999999
 20
274.624375
 30
0.0
 11
266.134
 21
275.6243749999999
 31
0.0
  0
LINE
  5
459
330
1E
100
AcDbEntity
  8
0
100
AcDbLine
 10
266.866
 20
272.8922749999999
 30
0.0
 11
265.134
 21
273.8922749999999
 31
0.0
  0
LINE
  5
45A
330
1E
100
AcDbEntity
  8
0
100
AcDbLine
 10
267.8890999999999
 20
270.889075
 30
0.0
 11
265.5269
 21
272.6719749999999
 31
0.0
  0
LINE
  5
45B
330
1E
100
AcDbEntity
  8
0
100
AcDbLine
 10
269.2039999999999
 20
272.2039749999999
 30
0.0
 11
266.4479999999999
 21
274.2839749999999
 31
0.0
  0
LINE
  5
45C
330
1E
100
AcDbEntity
  8
0
100
AcDbLine
 10
271.2839999999999
 20
269.4479749999999
 30
0.0
 11
269.2039999999999
 21
272.2039749999999
 31
0.0
  0
LINE
  5
45D
330
1E
100
AcDbEntity
  8
0
100
AcDbLine
 10
269.672
 20
268.526875
 30
0.0
 11
267.8890999999999
 21
270.889075
 31
0.0
  0
LINE
  5
45E
330
1E
100
AcDbEntity
  8
0
100
AcDbLine
 10
267.8659999999999
 20
274.624375
 30
0.0
 11
267.2987734248447
 21
273.641881849174
 31
0.0
  0
LINE
  5
45F
330
1E
100
AcDbEntity
  8
0
100
AcDbLine
 10
267.8659999999999
 20
274.624375
 30
0.0
 11
266.866
 21
272.8922749999999
 31
0.0
  0
LINE
  5
460
330
1E
100
AcDbEntity
  8
0
100
AcDbLine
 10
267.8659999999999
 20
274.624375
 30
0.0
 11
267.2987734248447
 21
273.641881849174
 31
0.0
  0
LINE
  5
461
330
1E
100
AcDbEntity
  8
0
100
AcDbLine
 10
265.5269
 20
272.6719749999999
 30
0.0
 11
262.8525999999999
 21
273.7416749999999
 31
0.0
  0
LINE
  5
462
330
1E
100
AcDbEntity
  8
0
100
AcDbLine
 10
263.3279999999999
 20
275.5319749999999
 30
0.0
 11
260.0
 21
275.9999749999999
 31
0.0
  0
LINE
  5
463
330
1E
100
AcDbEntity
  8
0
100
AcDbLine
 10
266.134
 20
275.6243749999999
 30
0.0
 11
265.134
 21
273.8922749999999
 31
0.0
  0
LINE
  5
464
330
1E
100
AcDbEntity
  8
0
100
AcDbLine
 10
262.8525999999999
 20
273.7416749999999
 30
0.0
 11
260.0
 21
274.142875
 31
0.0
  0
LINE
  5
465
330
1E
100
AcDbEntity
  8
0
100
AcDbLine
 10
249.6999999999999
 20
224.899975
 30
0.0
 11
249.6999999999999
 21
223.5999749999999
 31
0.0
  0
LINE
  5
466
330
1E
100
AcDbEntity
  8
0
100
AcDbLine
 10
249.6999999999999
 20
223.5999749999999
 30
0.0
 11
249.6999999999999
 21
224.899975
 31
0.0
  0
LINE
  5
467
330
1E
100
AcDbEntity
  8
0
100
AcDbLine
 10
249.5
 20
186.999975
 30
0.0
 11
249.5
 21
222.999975
 31
0.0
  0
LINE
  5
468
330
1E
100
AcDbEntity
  8
0
100
AcDbLine
 10
249.5
 20
222.999975
 30
0.0
 11
249.5
 21
186.999975
 31
0.0
  0
LINE
  5
469
330
1E
100
AcDbEntity
  8
0
100
AcDbLine
 10
255.0
 20
184.999975
 30
0.0
 11
252.8999999999999
 21
184.999975
 31
0.0
  0
LINE
  5
46A
330
1E
100
AcDbEntity
  8
0
100
AcDbLine
 10
257.3999999999999
 20
184.999975
 30
0.0
 11
255.0
 21
184.999975
 31
0.0
  0
LINE
  5
46B
330
1E
100
AcDbEntity
  8
0
100
AcDbLine
 10
249.5
 20
186.999975
 30
0.0
 11
249.5
 21
185.499975
 31
0.0
  0
LINE
  5
46C
330
1E
100
AcDbEntity
  8
0
100
AcDbLine
 10
249.5
 20
185.499975
 30
0.0
 11
249.5
 21
186.999975
 31
0.0
  0
LINE
  5
46D
330
1E
100
AcDbEntity
  8
0
100
AcDbLine
 10
251.3
 20
184.999975
 30
0.0
 11
250.4
 21
184.999975
 31
0.0
  0
LINE
  5
46E
330
1E
100
AcDbEntity
  8
0
100
AcDbLine
 10
252.8999999999999
 20
184.999975
 30
0.0
 11
251.3
 21
184.999975
 31
0.0
  0
LINE
  5
46F
330
1E
100
AcDbEntity
  8
0
100
AcDbLine
 10
249.6999999999999
 20
185.199975
 30
0.0
 11
249.5
 21
185.499975
 31
0.0
  0
LINE
  5
470
330
1E
100
AcDbEntity
  8
0
100
AcDbLine
 10
250.0
 20
184.999975
 30
0.0
 11
249.6999999999999
 21
185.199975
 31
0.0
  0
LINE
  5
471
330
1E
100
AcDbEntity
  8
0
100
AcDbLine
 10
250.4
 20
184.999975
 30
0.0
 11
250.0
 21
184.999975
 31
0.0
  0
LINE
  5
472
330
1E
100
AcDbEntity
  8
0
100
AcDbLine
 10
255.0
 20
223.5999749999999
 30
0.0
 11
252.8999999999999
 21
223.5999749999999
 31
0.0
  0
LINE
  5
473
330
1E
100
AcDbEntity
  8
0
100
AcDbLine
 10
254.8999999999999
 20
223.5999749999999
 30
0.0
 11
252.7
 21
223.5999749999999
 31
0.0
  0
LINE
  5
474
330
1E
100
AcDbEntity
  8
0
100
AcDbLine
 10
257.3999999999999
 20
223.5999749999999
 30
0.0
 11
254.8999999999999
 21
223.5999749999999
 31
0.0
  0
LINE
  5
475
330
1E
100
AcDbEntity
  8
0
100
AcDbLine
 10
257.3999999999999
 20
223.5999749999999
 30
0.0
 11
255.0
 21
223.5999749999999
 31
0.0
  0
LINE
  5
476
330
1E
100
AcDbEntity
  8
0
100
AcDbLine
 10
251.3
 20
223.5999749999999
 30
0.0
 11
250.4
 21
223.5999749999999
 31
0.0
  0
LINE
  5
477
330
1E
100
AcDbEntity
  8
0
100
AcDbLine
 10
251.1
 20
223.5999749999999
 30
0.0
 11
250.0999999999999
 21
223.5999749999999
 31
0.0
  0
LINE
  5
478
330
1E
100
AcDbEntity
  8
0
100
AcDbLine
 10
252.8999999999999
 20
223.5999749999999
 30
0.0
 11
251.3
 21
223.5999749999999
 31
0.0
  0
LINE
  5
479
330
1E
100
AcDbEntity
  8
0
100
AcDbLine
 10
252.7
 20
223.5999749999999
 30
0.0
 11
251.1
 21
223.5999749999999
 31
0.0
  0
LINE
  5
47A
330
1E
100
AcDbEntity
  8
0
100
AcDbLine
 10
250.4
 20
223.5999749999999
 30
0.0
 11
250.0
 21
223.5999749999999
 31
0.0
  0
LINE
  5
47B
330
1E
100
AcDbEntity
  8
0
100
AcDbLine
 10
250.0
 20
223.5999749999999
 30
0.0
 11
249.6999999999999
 21
223.5999749999999
 31
0.0
  0
LINE
  5
47C
330
1E
100
AcDbEntity
  8
0
100
AcDbLine
 10
250.0
 20
223.5999749999999
 30
0.0
 11
249.6999999999999
 21
223.399975
 31
0.0
  0
LINE
  5
47D
330
1E
100
AcDbEntity
  8
0
100
AcDbLine
 10
249.6999999999999
 20
223.399975
 30
0.0
 11
249.5
 21
222.999975
 31
0.0
  0
LINE
  5
47E
330
1E
100
AcDbEntity
  8
0
100
AcDbLine
 10
250.0999999999999
 20
223.5999749999999
 30
0.0
 11
249.6999999999999
 21
223.5999749999999
 31
0.0
  0
LINE
  5
47F
330
1E
100
AcDbEntity
  8
0
100
AcDbLine
 10
228.0
 20
273.9999749999999
 30
0.0
 11
188.0
 21
273.9999749999999
 31
0.0
  0
LINE
  5
480
330
1E
100
AcDbEntity
  8
0
100
AcDbLine
 10
228.0
 20
251.999975
 30
0.0
 11
188.0
 21
251.999975
 31
0.0
  0
LINE
  5
481
330
1E
100
AcDbEntity
  8
0
100
AcDbLine
 10
228.0
 20
269.4479749999999
 30
0.0
 11
228.0
 21
266.327975
 31
0.0
  0
LINE
  5
482
330
1E
100
AcDbEntity
  8
0
100
AcDbLine
 10
228.0
 20
266.327975
 30
0.0
 11
228.0
 21
269.4479749999999
 31
0.0
  0
LINE
  5
483
330
1E
100
AcDbEntity
  8
0
100
AcDbLine
 10
248.716
 20
269.4479749999999
 30
0.0
 11
247.468
 21
266.327975
 31
0.0
  0
LINE
  5
484
330
1E
100
AcDbEntity
  8
0
100
AcDbLine
 10
250.328
 20
268.526875
 30
0.0
 11
249.2583
 21
265.8525749999999
 31
0.0
  0
LINE
  5
485
330
1E
100
AcDbEntity
  8
0
100
AcDbLine
 10
247.0
 20
249.999975
 30
0.0
 11
228.0
 21
249.999975
 31
0.0
  0
LINE
  5
486
330
1E
100
AcDbEntity
  8
0
100
AcDbLine
 10
236.0
 20
235.999975
 30
0.0
 11
234.5
 21
235.999975
 31
0.0
  0
LINE
  5
487
330
1E
100
AcDbEntity
  8
0
100
AcDbLine
 10
236.0
 20
229.2999749999999
 30
0.0
 11
234.5
 21
229.2999749999999
 31
0.0
  0
LINE
  5
488
330
1E
100
AcDbEntity
  8
0
100
AcDbLine
 10
235.6999999999999
 20
228.999975
 30
0.0
 11
233.0
 21
228.999975
 31
0.0
  0
LINE
  5
489
330
1E
100
AcDbEntity
  8
0
100
AcDbLine
 10
236.0
 20
228.999975
 30
0.0
 11
234.6999999999999
 21
228.999975
 31
0.0
  0
LINE
  5
48A
330
1E
100
AcDbEntity
  8
0
100
AcDbLine
 10
237.0
 20
228.999975
 30
0.0
 11
234.4
 21
228.999975
 31
0.0
  0
LINE
  5
48B
330
1E
100
AcDbEntity
  8
0
100
AcDbLine
 10
247.0
 20
249.999975
 30
0.0
 11
247.0
 21
235.999975
 31
0.0
  0
LINE
  5
48C
330
1E
100
AcDbEntity
  8
0
100
AcDbLine
 10
247.0
 20
235.999975
 30
0.0
 11
247.0
 21
249.999975
 31
0.0
  0
LINE
  5
48D
330
1E
100
AcDbEntity
  8
0
100
AcDbLine
 10
247.8
 20
228.599975
 30
0.0
 11
246.4999999999999
 21
228.999975
 31
0.0
  0
LINE
  5
48E
330
1E
100
AcDbEntity
  8
0
100
AcDbLine
 10
248.7
 20
228.999975
 30
0.0
 11
246.0999999999999
 21
228.999975
 31
0.0
  0
LINE
  5
48F
330
1E
100
AcDbEntity
  8
0
100
AcDbLine
 10
252.8
 20
228.999975
 30
0.0
 11
246.0999999999999
 21
228.999975
 31
0.0
  0
LINE
  5
490
330
1E
100
AcDbEntity
  8
0
100
AcDbLine
 10
255.9
 20
228.999975
 30
0.0
 11
252.0
 21
228.999975
 31
0.0
  0
LINE
  5
491
330
1E
100
AcDbEntity
  8
0
100
AcDbLine
 10
254.8999999999999
 20
224.899975
 30
0.0
 11
252.7
 21
224.899975
 31
0.0
  0
LINE
  5
492
330
1E
100
AcDbEntity
  8
0
100
AcDbLine
 10
257.3999999999999
 20
224.899975
 30
0.0
 11
254.8999999999999
 21
224.899975
 31
0.0
  0
LINE
  5
493
330
1E
100
AcDbEntity
  8
0
100
AcDbLine
 10
252.0
 20
228.999975
 30
0.0
 11
248.7
 21
228.999975
 31
0.0
  0
LINE
  5
494
330
1E
100
AcDbEntity
  8
0
100
AcDbLine
 10
251.1
 20
224.899975
 30
0.0
 11
250.0999999999999
 21
224.899975
 31
0.0
  0
LINE
  5
495
330
1E
100
AcDbEntity
  8
0
100
AcDbLine
 10
252.7
 20
224.899975
 30
0.0
 11
251.1
 21
224.899975
 31
0.0
  0
LINE
  5
496
330
1E
100
AcDbEntity
  8
0
100
AcDbLine
 10
248.7999999999999
 20
227.7999749999999
 30
0.0
 11
247.8
 21
228.599975
 31
0.0
  0
LINE
  5
497
330
1E
100
AcDbEntity
  8
0
100
AcDbLine
 10
249.3
 20
226.7999749999999
 30
0.0
 11
248.7999999999999
 21
227.7999749999999
 31
0.0
  0
LINE
  5
498
330
1E
100
AcDbEntity
  8
0
100
AcDbLine
 10
249.6999999999999
 20
225.099975
 30
0.0
 11
249.5
 21
225.499975
 31
0.0
  0
LINE
  5
499
330
1E
100
AcDbEntity
  8
0
100
AcDbLine
 10
249.5
 20
225.9999749999999
 30
0.0
 11
249.5
 21
225.499975
 31
0.0
  0
LINE
  5
49A
330
1E
100
AcDbEntity
  8
0
100
AcDbLine
 10
249.5
 20
225.9999749999999
 30
0.0
 11
249.3
 21
226.7999749999999
 31
0.0
  0
LINE
  5
49B
330
1E
100
AcDbEntity
  8
0
100
AcDbLine
 10
249.5
 20
225.499975
 30
0.0
 11
249.5
 21
225.9999749999999
 31
0.0
  0
LINE
  5
49C
330
1E
100
AcDbEntity
  8
0
100
AcDbLine
 10
250.0
 20
224.899975
 30
0.0
 11
249.6999999999999
 21
225.099975
 31
0.0
  0
LINE
  5
49D
330
1E
100
AcDbEntity
  8
0
100
AcDbLine
 10
250.0999999999999
 20
224.899975
 30
0.0
 11
249.6999999999999
 21
224.899975
 31
0.0
  0
LINE
  5
49E
330
1E
100
AcDbEntity
  8
0
100
AcDbLine
 10
246.0999999999999
 20
228.999975
 30
0.0
 11
240.2
 21
228.999975
 31
0.0
  0
LINE
  5
49F
330
1E
100
AcDbEntity
  8
0
100
AcDbLine
 10
246.5000000000001
 20
228.999975
 30
0.0
 11
241.1999999999999
 21
228.999975
 31
0.0
  0
LINE
  5
4A0
330
1E
100
AcDbEntity
  8
0
100
AcDbLine
 10
246.5000000000001
 20
228.999975
 30
0.0
 11
236.0
 21
228.999975
 31
0.0
  0
LINE
  5
4A1
330
1E
100
AcDbEntity
  8
0
100
AcDbLine
 10
244.6
 20
228.999975
 30
0.0
 11
244.0
 21
228.999975
 31
0.0
  0
LINE
  5
4A2
330
1E
100
AcDbEntity
  8
0
100
AcDbLine
 10
246.0999999999999
 20
228.999975
 30
0.0
 11
244.6
 21
228.999975
 31
0.0
  0
LINE
  5
4A3
330
1E
100
AcDbEntity
  8
0
100
AcDbLine
 10
245.9
 20
228.999975
 30
0.0
 11
245.4
 21
228.999975
 31
0.0
  0
LINE
  5
4A4
330
1E
100
AcDbEntity
  8
0
100
AcDbLine
 10
246.4999999999999
 20
228.999975
 30
0.0
 11
245.9
 21
228.999975
 31
0.0
  0
LINE
  5
4A5
330
1E
100
AcDbEntity
  8
0
100
AcDbLine
 10
240.2
 20
228.999975
 30
0.0
 11
235.6999999999999
 21
228.999975
 31
0.0
  0
LINE
  5
4A6
330
1E
100
AcDbEntity
  8
0
100
AcDbLine
 10
241.1999999999999
 20
228.999975
 30
0.0
 11
237.0
 21
228.999975
 31
0.0
  0
LINE
  5
4A7
330
1E
100
AcDbEntity
  8
0
100
AcDbLine
 10
248.0
 20
263.999975
 30
0.0
 11
246.0
 21
263.999975
 31
0.0
  0
LINE
  5
4A8
330
1E
100
AcDbEntity
  8
0
100
AcDbLine
 10
248.0
 20
261.999975
 30
0.0
 11
246.0
 21
261.999975
 31
0.0
  0
LINE
  5
4A9
330
1E
100
AcDbEntity
  8
0
100
AcDbLine
 10
248.716
 20
256.551975
 30
0.0
 11
247.468
 21
259.6719749999999
 31
0.0
  0
LINE
  5
4AA
330
1E
100
AcDbEntity
  8
0
100
AcDbLine
 10
252.1109
 20
255.110875
 30
0.0
 11
250.328
 21
257.473075
 31
0.0
  0
LINE
  5
4AB
330
1E
100
AcDbEntity
  8
0
100
AcDbLine
 10
254.4731
 20
253.327975
 30
0.0
 11
252.1109
 21
255.110875
 31
0.0
  0
LINE
  5
4AC
330
1E
100
AcDbEntity
  8
0
100
AcDbLine
 10
254.8659999999999
 20
252.107675
 30
0.0
 11
253.134
 21
253.1076749999999
 31
0.0
  0
LINE
  5
4AD
330
1E
100
AcDbEntity
  8
0
100
AcDbLine
 10
256.672
 20
250.467975
 30
0.0
 11
253.5519999999999
 21
251.7159749999999
 31
0.0
  0
LINE
  5
4AE
330
1E
100
AcDbEntity
  8
0
100
AcDbLine
 10
253.8659999999999
 20
250.3755749999999
 30
0.0
 11
252.134
 21
251.375575
 31
0.0
  0
LINE
  5
4AF
330
1E
100
AcDbEntity
  8
0
100
AcDbLine
 10
254.8659999999999
 20
252.107675
 30
0.0
 11
253.8659999999999
 21
250.3755749999999
 31
0.0
  0
LINE
  5
4B0
330
1E
100
AcDbEntity
  8
0
100
AcDbLine
 10
254.4357668964869
 20
251.362468241405
 30
0.0
 11
253.8659999999999
 21
250.3755749999999
 31
0.0
  0
LINE
  5
4B1
330
1E
100
AcDbEntity
  8
0
100
AcDbLine
 10
256.672
 20
250.467975
 30
0.0
 11
254.4357668964869
 21
251.362468241405
 31
0.0
  0
LINE
  5
4B2
330
1E
100
AcDbEntity
  8
0
100
AcDbLine
 10
257.1474
 20
252.258275
 30
0.0
 11
254.4731
 21
253.327975
 31
0.0
  0
LINE
  5
4B3
330
1E
100
AcDbEntity
  8
0
100
AcDbLine
 10
250.796
 20
253.795975
 30
0.0
 11
248.716
 21
256.551975
 31
0.0
  0
LINE
  5
4B4
330
1E
100
AcDbEntity
  8
0
100
AcDbLine
 10
253.134
 20
253.1076749999999
 30
0.0
 11
252.134
 21
251.375575
 31
0.0
  0
LINE
  5
4B5
330
1E
100
AcDbEntity
  8
0
100
AcDbLine
 10
253.5519999999999
 20
251.7159749999999
 30
0.0
 11
250.796
 21
253.795975
 31
0.0
  0
LINE
  5
4B6
330
1E
100
AcDbEntity
  8
0
100
AcDbLine
 10
249.2583
 20
260.147375
 30
0.0
 11
248.8570999999999
 21
262.999975
 31
0.0
  0
LINE
  5
4B7
330
1E
100
AcDbEntity
  8
0
100
AcDbLine
 10
250.328
 20
257.473075
 30
0.0
 11
249.2583
 21
260.147375
 31
0.0
  0
LINE
  5
4B8
330
1E
100
AcDbEntity
  8
0
100
AcDbLine
 10
249.2583
 20
265.8525749999999
 30
0.0
 11
248.8570999999999
 21
262.999975
 31
0.0
  0
LINE
  5
4B9
330
1E
100
AcDbEntity
  8
0
100
AcDbLine
 10
248.0
 20
263.999975
 30
0.0
 11
248.0
 21
261.999975
 31
0.0
  0
LINE
  5
4BA
330
1E
100
AcDbEntity
  8
0
100
AcDbLine
 10
248.0
 20
261.999975
 30
0.0
 11
248.0
 21
263.999975
 31
0.0
  0
LINE
  5
4BB
330
1E
100
AcDbEntity
  8
0
100
AcDbLine
 10
247.468
 20
259.6719749999999
 30
0.0
 11
247.0
 21
262.999975
 31
0.0
  0
LINE
  5
4BC
330
1E
100
AcDbEntity
  8
0
100
AcDbLine
 10
247.468
 20
259.6719749999999
 30
0.0
 11
247.140625
 21
261.999975
 31
0.0
  0
LINE
  5
4BD
330
1E
100
AcDbEntity
  8
0
100
AcDbLine
 10
247.468
 20
266.327975
 30
0.0
 11
247.0
 21
262.999975
 31
0.0
  0
LINE
  5
4BE
330
1E
100
AcDbEntity
  8
0
100
AcDbLine
 10
246.0
 20
261.999975
 30
0.0
 11
246.0
 21
263.999975
 31
0.0
  0
LINE
  5
4BF
330
1E
100
AcDbEntity
  8
0
100
AcDbLine
 10
246.0
 20
263.999975
 30
0.0
 11
246.0
 21
261.999975
 31
0.0
  0
LINE
  5
4C0
330
1E
100
AcDbEntity
  8
0
100
AcDbLine
 10
247.140625
 20
261.999975
 30
0.0
 11
246.0
 21
261.999975
 31
0.0
  0
LINE
  5
4C1
330
1E
100
AcDbEntity
  8
0
100
AcDbLine
 10
230.0
 20
235.999975
 30
0.0
 11
229.9930927203395
 21
229.6431983615606
 31
0.0
  0
LINE
  5
4C2
330
1E
100
AcDbEntity
  8
0
100
AcDbLine
 10
229.9930927203395
 20
229.6431983615606
 30
0.0
 11
230.3
 21
229.2999749999999
 31
0.0
  0
LINE
  5
4C3
330
1E
100
AcDbEntity
  8
0
100
AcDbLine
 10
232.0
 20
229.2999749999999
 30
0.0
 11
231.0999999999999
 21
229.2999749999999
 31
0.0
  0
LINE
  5
4C4
330
1E
100
AcDbEntity
  8
0
100
AcDbLine
 10
232.5
 20
228.999975
 30
0.0
 11
231.6999999999999
 21
228.999975
 31
0.0
  0
LINE
  5
4C5
330
1E
100
AcDbEntity
  8
0
100
AcDbLine
 10
234.5
 20
229.2999749999999
 30
0.0
 11
233.1999999999999
 21
229.2999749999999
 31
0.0
  0
LINE
  5
4C6
330
1E
100
AcDbEntity
  8
0
100
AcDbLine
 10
233.1999999999999
 20
229.2999749999999
 30
0.0
 11
232.0
 21
229.2999749999999
 31
0.0
  0
LINE
  5
4C7
330
1E
100
AcDbEntity
  8
0
100
AcDbLine
 10
233.0
 20
228.999975
 30
0.0
 11
232.0
 21
228.999975
 31
0.0
  0
LINE
  5
4C8
330
1E
100
AcDbEntity
  8
0
100
AcDbLine
 10
233.4999999999999
 20
228.999975
 30
0.0
 11
232.5
 21
228.999975
 31
0.0
  0
LINE
  5
4C9
330
1E
100
AcDbEntity
  8
0
100
AcDbLine
 10
234.6999999999999
 20
228.999975
 30
0.0
 11
233.4999999999999
 21
228.999975
 31
0.0
  0
LINE
  5
4CA
330
1E
100
AcDbEntity
  8
0
100
AcDbLine
 10
234.4
 20
228.999975
 30
0.0
 11
233.4
 21
228.999975
 31
0.0
  0
LINE
  5
4CB
330
1E
100
AcDbEntity
  8
0
100
AcDbLine
 10
230.3
 20
229.2999749999999
 30
0.0
 11
231.0
 21
228.999975
 31
0.0
  0
LINE
  5
4CC
330
1E
100
AcDbEntity
  8
0
100
AcDbLine
 10
230.5
 20
229.2999749999999
 30
0.0
 11
230.3
 21
229.2999749999999
 31
0.0
  0
LINE
  5
4CD
330
1E
100
AcDbEntity
  8
0
100
AcDbLine
 10
231.0999999999999
 20
229.2999749999999
 30
0.0
 11
230.5
 21
229.2999749999999
 31
0.0
  0
LINE
  5
4CE
330
1E
100
AcDbEntity
  8
0
100
AcDbLine
 10
231.1999999999999
 20
228.999975
 30
0.0
 11
231.0
 21
228.999975
 31
0.0
  0
LINE
  5
4CF
330
1E
100
AcDbEntity
  8
0
100
AcDbLine
 10
231.6999999999999
 20
228.999975
 30
0.0
 11
231.1999999999999
 21
228.999975
 31
0.0
  0
LINE
  5
4D0
330
1E
100
AcDbEntity
  8
0
100
AcDbLine
 10
233.0
 20
235.999975
 30
0.0
 11
231.8
 21
235.999975
 31
0.0
  0
LINE
  5
4D1
330
1E
100
AcDbEntity
  8
0
100
AcDbLine
 10
234.5
 20
235.999975
 30
0.0
 11
233.0
 21
235.999975
 31
0.0
  0
LINE
  5
4D2
330
1E
100
AcDbEntity
  8
0
100
AcDbLine
 10
230.2
 20
235.999975
 30
0.0
 11
230.0
 21
235.999975
 31
0.0
  0
LINE
  5
4D3
330
1E
100
AcDbEntity
  8
0
100
AcDbLine
 10
230.8
 20
235.999975
 30
0.0
 11
230.2
 21
235.999975
 31
0.0
  0
LINE
  5
4D4
330
1E
100
AcDbEntity
  8
0
100
AcDbLine
 10
231.8
 20
235.999975
 30
0.0
 11
230.8
 21
235.999975
 31
0.0
  0
LINE
  5
4D5
330
1E
100
AcDbEntity
  8
0
100
AcDbLine
 10
228.0
 20
256.551975
 30
0.0
 11
228.0
 21
259.6719749999999
 31
0.0
  0
LINE
  5
4D6
330
1E
100
AcDbEntity
  8
0
100
AcDbLine
 10
228.0
 20
259.6719749999999
 30
0.0
 11
228.0
 21
256.551975
 31
0.0
  0
LINE
  5
4D7
330
1E
100
AcDbEntity
  8
0
100
AcDbLine
 10
228.0
 20
250.467975
 30
0.0
 11
228.0
 21
251.7159749999999
 31
0.0
  0
LINE
  5
4D8
330
1E
100
AcDbEntity
  8
0
100
AcDbLine
 10
228.0
 20
251.7159749999999
 30
0.0
 11
228.0
 21
250.467975
 31
0.0
  0
LINE
  5
4D9
330
1E
100
AcDbEntity
  8
0
100
AcDbLine
 10
228.0
 20
250.467975
 30
0.0
 11
228.0
 21
249.999975
 31
0.0
  0
LINE
  5
4DA
330
1E
100
AcDbEntity
  8
0
100
AcDbLine
 10
228.0
 20
249.999975
 30
0.0
 11
228.0
 21
250.467975
 31
0.0
  0
LINE
  5
4DB
330
1E
100
AcDbEntity
  8
0
100
AcDbLine
 10
228.0
 20
253.795975
 30
0.0
 11
228.0
 21
256.551975
 31
0.0
  0
LINE
  5
4DC
330
1E
100
AcDbEntity
  8
0
100
AcDbLine
 10
228.0
 20
253.795975
 30
0.0
 11
228.0
 21
251.7159749999999
 31
0.0
  0
LINE
  5
4DD
330
1E
100
AcDbEntity
  8
0
100
AcDbLine
 10
228.0
 20
256.551975
 30
0.0
 11
228.0
 21
253.795975
 31
0.0
  0
LINE
  5
4DE
330
1E
100
AcDbEntity
  8
0
100
AcDbLine
 10
228.0
 20
251.7159749999999
 30
0.0
 11
228.0
 21
253.795975
 31
0.0
  0
LINE
  5
4DF
330
1E
100
AcDbEntity
  8
0
100
AcDbLine
 10
228.0
 20
259.6719749999999
 30
0.0
 11
228.0
 21
262.999975
 31
0.0
  0
LINE
  5
4E0
330
1E
100
AcDbEntity
  8
0
100
AcDbLine
 10
228.0
 20
262.999975
 30
0.0
 11
228.0
 21
259.6719749999999
 31
0.0
  0
LINE
  5
4E1
330
1E
100
AcDbEntity
  8
0
100
AcDbLine
 10
228.0
 20
262.999975
 30
0.0
 11
228.0
 21
266.327975
 31
0.0
  0
LINE
  5
4E2
330
1E
100
AcDbEntity
  8
0
100
AcDbLine
 10
228.0
 20
266.327975
 30
0.0
 11
228.0
 21
262.999975
 31
0.0
  0
LINE
  5
4E3
330
1E
100
AcDbEntity
  8
0
100
AcDbLine
 10
256.672
 20
275.5319749999999
 30
0.0
 11
253.5519999999999
 21
274.2839749999999
 31
0.0
  0
LINE
  5
4E4
330
1E
100
AcDbEntity
  8
0
100
AcDbLine
 10
253.8659999999999
 20
275.6243749999999
 30
0.0
 11
252.134
 21
274.624375
 31
0.0
  0
LINE
  5
4E5
330
1E
100
AcDbEntity
  8
0
100
AcDbLine
 10
254.4731
 20
272.6719749999999
 30
0.0
 11
252.1109
 21
270.889075
 31
0.0
  0
LINE
  5
4E6
330
1E
100
AcDbEntity
  8
0
100
AcDbLine
 10
254.8659999999999
 20
273.8922749999999
 30
0.0
 11
253.134
 21
272.8922749999999
 31
0.0
  0
LINE
  5
4E7
330
1E
100
AcDbEntity
  8
0
100
AcDbLine
 10
257.1474
 20
273.7416749999999
 30
0.0
 11
254.4731
 21
272.6719749999999
 31
0.0
  0
LINE
  5
4E8
330
1E
100
AcDbEntity
  8
0
100
AcDbLine
 10
254.4357668964869
 20
274.637481758595
 30
0.0
 11
253.8659999999999
 21
275.6243749999999
 31
0.0
  0
LINE
  5
4E9
330
1E
100
AcDbEntity
  8
0
100
AcDbLine
 10
254.8659999999999
 20
273.8922749999999
 30
0.0
 11
253.8659999999999
 21
275.6243749999999
 31
0.0
  0
LINE
  5
4EA
330
1E
100
AcDbEntity
  8
0
100
AcDbLine
 10
253.5519999999999
 20
274.2839749999999
 30
0.0
 11
250.796
 21
272.2039749999999
 31
0.0
  0
LINE
  5
4EB
330
1E
100
AcDbEntity
  8
0
100
AcDbLine
 10
250.796
 20
272.2039749999999
 30
0.0
 11
248.716
 21
269.4479749999999
 31
0.0
  0
LINE
  5
4EC
330
1E
100
AcDbEntity
  8
0
100
AcDbLine
 10
252.1109
 20
270.889075
 30
0.0
 11
250.328
 21
268.526875
 31
0.0
  0
LINE
  5
4ED
330
1E
100
AcDbEntity
  8
0
100
AcDbLine
 10
253.134
 20
272.8922749999999
 30
0.0
 11
252.134
 21
274.624375
 31
0.0
  0
LINE
  5
4EE
330
1E
100
AcDbEntity
  8
0
100
AcDbLine
 10
252.7012265751551
 20
273.641881849174
 30
0.0
 11
252.134
 21
274.624375
 31
0.0
  0
LINE
  5
4EF
330
1E
100
AcDbEntity
  8
0
100
AcDbLine
 10
228.0
 20
274.2839749999999
 30
0.0
 11
228.0
 21
272.2039749999999
 31
0.0
  0
LINE
  5
4F0
330
1E
100
AcDbEntity
  8
0
100
AcDbLine
 10
228.0
 20
272.2039749999999
 30
0.0
 11
228.0
 21
274.2839749999999
 31
0.0
  0
LINE
  5
4F1
330
1E
100
AcDbEntity
  8
0
100
AcDbLine
 10
228.0
 20
272.2039749999999
 30
0.0
 11
228.0
 21
269.4479749999999
 31
0.0
  0
LINE
  5
4F2
330
1E
100
AcDbEntity
  8
0
100
AcDbLine
 10
228.0
 20
269.4479749999999
 30
0.0
 11
228.0
 21
272.2039749999999
 31
0.0
  0
LINE
  5
4F3
330
1E
100
AcDbEntity
  8
0
100
AcDbLine
 10
228.0
 20
275.9999749999999
 30
0.0
 11
228.0
 21
275.5319749999999
 31
0.0
  0
LINE
  5
4F4
330
1E
100
AcDbEntity
  8
0
100
AcDbLine
 10
228.0
 20
275.5319749999999
 30
0.0
 11
228.0
 21
275.9999749999999
 31
0.0
  0
LINE
  5
4F5
330
1E
100
AcDbEntity
  8
0
100
AcDbLine
 10
228.0
 20
275.5319749999999
 30
0.0
 11
228.0
 21
274.2839749999999
 31
0.0
  0
LINE
  5
4F6
330
1E
100
AcDbEntity
  8
0
100
AcDbLine
 10
228.0
 20
274.2839749999999
 30
0.0
 11
228.0
 21
275.5319749999999
 31
0.0
  0
ENDSEC
  0
SECTION
  2
OBJECTS
  0
DICTIONARY
  5
C
330
0
100
AcDbDictionary
281
     1
  3
ACAD_GROUP
350
D
  3
ACAD_LAYOUT
350
19
  3
ACAD_MLINESTYLE
350
16
  3
ACAD_PLOTSETTINGS
350
18
  3
ACAD_PLOTSTYLENAME
350
E
  3
AcDbVariableDictionary
350
4F7
  0
DICTIONARY
  5
D
102
{ACAD_REACTORS
330
C
102
}
330
C
100
AcDbDictionary
281
     1
  0
DICTIONARY
  5
19
102
{ACAD_REACTORS
330
C
102
}
330
C
100
AcDbDictionary
281
     1
  3
Layout1
350
1D
  3
Model
350
21
  0
DICTIONARY
  5
16
102
{ACAD_REACTORS
330
C
102
}
330
C
100
AcDbDictionary
281
     1
  3
Standard
350
17
  0
DICTIONARY
  5
18
102
{ACAD_REACTORS
330
C
102
}
330
C
100
AcDbDictionary
281
     1
  0
ACDBDICTIONARYWDFLT
  5
E
102
{ACAD_REACTORS
330
C
102
}
330
C
100
AcDbDictionary
281
     1
  3
Normal
350
F
100
AcDbDictionaryWithDefault
340
F
  0
DICTIONARY
  5
4F7
102
{ACAD_REACTORS
330
C
102
}
330
C
100
AcDbDictionary
281
     1
  3
DIMASSOC
350
4F8
  0
LAYOUT
  5
1D
102
{ACAD_REACTORS
330
19
102
}
330
19
100
AcDbPlotSettings
  1

  2
hp deskjet 980c series
  4

  6

 40
0.0
 41
0.0
 42
0.0
 43
0.0
 44
0.0
 45
0.0
 46
0.0
 47
0.0
 48
0.0
 49
0.0
140
0.0
141
0.0
142
1.0
143
1.0
 70
   688
 72
     0
 73
     0
 74
     5
  7

 75
    16
147
1.0
148
0.0
149
0.0
100
AcDbLayout
  1
Layout1
 70
     1
 71
     1
 10
0.0
 20
0.0
 11
12.0
 21
9.0
 12
0.0
 22
0.0
 32
0.0
 14
1.000000000000000E+20
 24
1.000000000000000E+20
 34
1.000000000000000E+20
 15
-1.000000000000000E+20
 25
-1.000000000000000E+20
 35
-1.000000000000000E+20
146
0.0
 13
0.0
 23
0.0
 33
0.0
 16
1.0
 26
0.0
 36
0.0
 17
0.0
 27
1.0
 37
0.0
 76
     0
330
1A
  0
LAYOUT
  5
21
102
{ACAD_REACTORS
330
19
102
}
330
19
100
AcDbPlotSettings
  1

  2
hp deskjet 980c series
  4

  6

 40
0.0
 41
0.0
 42
0.0
 43
0.0
 44
0.0
 45
0.0
 46
0.0
 47
0.0
 48
0.0
 49
0.0
140
0.0
141
0.0
142
1.0
143
1.0
 70
  1712
 72
     0
 73
     0
 74
     0
  7

 75
     0
147
1.0
148
0.0
149
0.0
100
AcDbLayout
  1
Model
 70
     1
 71
     0
 10
0.0
 20
0.0
 11
12.0
 21
9.0
 12
0.0
 22
0.0
 32
0.0
 14
0.0
 24
0.0
 34
0.0
 15
0.0
 25
0.0
 35
0.0
146
0.0
 13
0.0
 23
0.0
 33
0.0
 16
1.0
 26
0.0
 36
0.0
 17
0.0
 27
1.0
 37
0.0
 76
     0
330
1E
  0
MLINESTYLE
  5
17
102
{ACAD_REACTORS
330
16
102
}
330
16
100
AcDbMlineStyle
  2
STANDARD
 70
     0
  3

 62
   256
 51
90.0
 52
90.0
 71
     2
 49
0.5
 62
   256
  6
BYLAYER
 49
-0.5
 62
   256
  6
BYLAYER
  0
ACDBPLACEHOLDER
  5
F
102
{ACAD_REACTORS
330
E
102
}
330
E
  0
DICTIONARYVAR
  5
4F8
102
{ACAD_REACTORS
330
4F7
102
}
330
4F7
100
DictionaryVariables
280
     0
  1
1
  0
ENDSEC
  0
EOF
