  0
SECTION
  2
HEADER
  9
$ACADVER
  1
AC1015
  9
$ACADMAINTVER
 70
    13
  9
$DWGCODEPAGE
  3
ANSI_1252
  9
$INSBASE
 10
0.0
 20
0.0
 30
0.0
  9
$EXTMIN
 10
-0.0000000000000089
 20
0.0000249999999999
 30
0.0
  9
$EXTMAX
 10
320.0
 20
215.999975
 30
0.0
  9
$LIMMIN
 10
0.0
 20
0.0
  9
$LIMMAX
 10
12.0
 20
9.0
  9
$ORTHOMODE
 70
     0
  9
$REGENMODE
 70
     1
  9
$FILLMODE
 70
     1
  9
$QTEXTMODE
 70
     0
  9
$MIRRTEXT
 70
     1
  9
$LTSCALE
 40
1.0
  9
$ATTMODE
 70
     1
  9
$TEXTSIZE
 40
0.2
  9
$TRACEWID
 40
0.05
  9
$TEXTSTYLE
  7
Standard
  9
$CLAYER
  8
0
  9
$CELTYPE
  6
Continuous
  9
$CECOLOR
 62
   256
  9
$CELTSCALE
 40
1.0
  9
$DISPSILH
 70
     0
  9
$DIMSCALE
 40
1.0
  9
$DIMASZ
 40
0.18
  9
$DIMEXO
 40
0.0625
  9
$DIMDLI
 40
0.38
  9
$DIMRND
 40
0.0
  9
$DIMDLE
 40
0.0
  9
$DIMEXE
 40
0.18
  9
$DIMTP
 40
0.0
  9
$DIMTM
 40
0.0
  9
$DIMTXT
 40
0.18
  9
$DIMCEN
 40
0.09
  9
$DIMTSZ
 40
0.0
  9
$DIMTOL
 70
     0
  9
$DIMLIM
 70
     0
  9
$DIMTIH
 70
     1
  9
$DIMTOH
 70
     1
  9
$DIMSE1
 70
     0
  9
$DIMSE2
 70
     0
  9
$DIMTAD
 70
     0
  9
$DIMZIN
 70
     0
  9
$DIMBLK
  1

  9
$DIMASO
 70
     1
  9
$DIMSHO
 70
     1
  9
$DIMPOST
  1

  9
$DIMAPOST
  1

  9
$DIMALT
 70
     0
  9
$DIMALTD
 70
     2
  9
$DIMALTF
 40
25.4
  9
$DIMLFAC
 40
1.0
  9
$DIMTOFL
 70
     0
  9
$DIMTVP
 40
0.0
  9
$DIMTIX
 70
     0
  9
$DIMSOXD
 70
     0
  9
$DIMSAH
 70
     0
  9
$DIMBLK1
  1

  9
$DIMBLK2
  1

  9
$DIMSTYLE
  2
Standard
  9
$DIMCLRD
 70
     0
  9
$DIMCLRE
 70
     0
  9
$DIMCLRT
 70
     0
  9
$DIMTFAC
 40
1.0
  9
$DIMGAP
 40
0.09
  9
$DIMJUST
 70
     0
  9
$DIMSD1
 70
     0
  9
$DIMSD2
 70
     0
  9
$DIMTOLJ
 70
     1
  9
$DIMTZIN
 70
     0
  9
$DIMALTZ
 70
     0
  9
$DIMALTTZ
 70
     0
  9
$DIMUPT
 70
     0
  9
$DIMDEC
 70
     4
  9
$DIMTDEC
 70
     4
  9
$DIMALTU
 70
     2
  9
$DIMALTTD
 70
     2
  9
$DIMTXSTY
  7
Standard
  9
$DIMAUNIT
 70
     0
  9
$DIMADEC
 70
     0
  9
$DIMALTRND
 40
0.0
  9
$DIMAZIN
 70
     0
  9
$DIMDSEP
 70
    46
  9
$DIMATFIT
 70
     3
  9
$DIMFRAC
 70
     0
  9
$DIMLDRBLK
  1

  9
$DIMLUNIT
 70
     2
  9
$DIMLWD
 70
    -2
  9
$DIMLWE
 70
    -2
  9
$DIMTMOVE
 70
     0
  9
$LUNITS
 70
     2
  9
$LUPREC
 70
     4
  9
$SKETCHINC
 40
0.1
  9
$FILLETRAD
 40
0.0
  9
$AUNITS
 70
     0
  9
$AUPREC
 70
     0
  9
$MENU
  1
.
  9
$ELEVATION
 40
0.0
  9
$PELEVATION
 40
0.0
  9
$THICKNESS
 40
0.0
  9
$LIMCHECK
 70
     0
  9
$CHAMFERA
 40
0.0
  9
$CHAMFERB
 40
0.0
  9
$CHAMFERC
 40
0.0
  9
$CHAMFERD
 40
0.0
  9
$SKPOLY
 70
     0
  9
$TDCREATE
 40
2454637.843623738
  9
$TDUCREATE
 40
2454637.760290405
  9
$TDUPDATE
 40
2454637.844462314
  9
$TDUUPDATE
 40
2454637.761128981
  9
$TDINDWG
 40
0.0008387616
  9
$TDUSRTIMER
 40
0.0008387616
  9
$USRTIMER
 70
     1
  9
$ANGBASE
 50
0.0
  9
$ANGDIR
 70
     0
  9
$PDMODE
 70
     0
  9
$PDSIZE
 40
0.0
  9
$PLINEWID
 40
0.0
  9
$SPLFRAME
 70
     0
  9
$SPLINETYPE
 70
     6
  9
$SPLINESEGS
 70
     8
  9
$HANDSEED
  5
369
  9
$SURFTAB1
 70
     6
  9
$SURFTAB2
 70
     6
  9
$SURFTYPE
 70
     6
  9
$SURFU
 70
     6
  9
$SURFV
 70
     6
  9
$UCSBASE
  2

  9
$UCSNAME
  2

  9
$UCSORG
 10
0.0
 20
0.0
 30
0.0
  9
$UCSXDIR
 10
1.0
 20
0.0
 30
0.0
  9
$UCSYDIR
 10
0.0
 20
1.0
 30
0.0
  9
$UCSORTHOREF
  2

  9
$UCSORTHOVIEW
 70
     1
  9
$UCSORGTOP
 10
0.0
 20
0.0
 30
0.0
  9
$UCSORGBOTTOM
 10
0.0
 20
0.0
 30
0.0
  9
$UCSORGLEFT
 10
0.0
 20
0.0
 30
0.0
  9
$UCSORGRIGHT
 10
0.0
 20
0.0
 30
0.0
  9
$UCSORGFRONT
 10
0.0
 20
0.0
 30
0.0
  9
$UCSORGBACK
 10
0.0
 20
0.0
 30
0.0
  9
$PUCSBASE
  2

  9
$PUCSNAME
  2

  9
$PUCSORG
 10
0.0
 20
0.0
 30
0.0
  9
$PUCSXDIR
 10
1.0
 20
0.0
 30
0.0
  9
$PUCSYDIR
 10
0.0
 20
1.0
 30
0.0
  9
$PUCSORTHOREF
  2

  9
$PUCSORTHOVIEW
 70
     0
  9
$PUCSORGTOP
 10
0.0
 20
0.0
 30
0.0
  9
$PUCSORGBOTTOM
 10
0.0
 20
0.0
 30
0.0
  9
$PUCSORGLEFT
 10
0.0
 20
0.0
 30
0.0
  9
$PUCSORGRIGHT
 10
0.0
 20
0.0
 30
0.0
  9
$PUCSORGFRONT
 10
0.0
 20
0.0
 30
0.0
  9
$PUCSORGBACK
 10
0.0
 20
0.0
 30
0.0
  9
$USERI1
 70
     0
  9
$USERI2
 70
     0
  9
$USERI3
 70
     0
  9
$USERI4
 70
     0
  9
$USERI5
 70
     0
  9
$USERR1
 40
0.0
  9
$USERR2
 40
0.0
  9
$USERR3
 40
0.0
  9
$USERR4
 40
0.0
  9
$USERR5
 40
0.0
  9
$WORLDVIEW
 70
     1
  9
$SHADEDGE
 70
     3
  9
$SHADEDIF
 70
    70
  9
$TILEMODE
 70
     1
  9
$MAXACTVP
 70
    64
  9
$PINSBASE
 10
0.0
 20
0.0
 30
0.0
  9
$PLIMCHECK
 70
     0
  9
$PEXTMIN
 10
1.000000000000000E+20
 20
1.000000000000000E+20
 30
1.000000000000000E+20
  9
$PEXTMAX
 10
-1.000000000000000E+20
 20
-1.000000000000000E+20
 30
-1.000000000000000E+20
  9
$PLIMMIN
 10
0.0
 20
0.0
  9
$PLIMMAX
 10
12.0
 20
9.0
  9
$UNITMODE
 70
     0
  9
$VISRETAIN
 70
     1
  9
$PLINEGEN
 70
     0
  9
$PSLTSCALE
 70
     1
  9
$TREEDEPTH
 70
  3020
  9
$CMLSTYLE
  2
Standard
  9
$CMLJUST
 70
     0
  9
$CMLSCALE
 40
1.0
  9
$PROXYGRAPHICS
 70
     1
  9
$MEASUREMENT
 70
     0
  9
$CELWEIGHT
370
    -1
  9
$ENDCAPS
280
     0
  9
$JOINSTYLE
280
     0
  9
$LWDISPLAY
290
     0
  9
$INSUNITS
 70
     0
  9
$HYPERLINKBASE
  1

  9
$STYLESHEET
  1

  9
$XEDIT
290
     1
  9
$CEPSNTYPE
380
     0
  9
$PSTYLEMODE
290
     1
  9
$FINGERPRINTGUID
  2
{2780D948-EC02-4E72-A7AA-408F65AD599B}
  9
$VERSIONGUID
  2
{1AB23108-CC10-4C8E-9A57-EF113A8390BD}
  9
$EXTNAMES
290
     1
  9
$PSVPSCALE
 40
0.0
  9
$OLESTARTUP
290
     0
  0
ENDSEC
  0
SECTION
  2
CLASSES
  0
CLASS
  1
ACDBDICTIONARYWDFLT
  2
AcDbDictionaryWithDefault
  3
AutoCAD 2000
 90
        0
280
     0
281
     0
  0
CLASS
  1
ACDBPLACEHOLDER
  2
AcDbPlaceHolder
  3
AutoCAD 2000
 90
        0
280
     0
281
     0
  0
CLASS
  1
LAYOUT
  2
AcDbLayout
  3
AutoCAD 2000
 90
        0
280
     0
281
     0
  0
CLASS
  1
DICTIONARYVAR
  2
AcDbDictionaryVar
  3
AutoCAD 2000
 90
        0
280
     0
281
     0
  0
ENDSEC
  0
SECTION
  2
TABLES
  0
TABLE
  2
VPORT
  5
8
330
0
100
AcDbSymbolTable
 70
     2
  0
VPORT
  5
368
330
8
100
AcDbSymbolTableRecord
100
AcDbViewportTableRecord
  2
*Active
 70
     0
 10
0.0
 20
0.0
 11
1.0
 21
1.0
 12
160.0
 22
108.0
 13
0.0
 23
0.0
 14
1.0
 24
1.0
 15
0.0
 25
0.0
 16
0.0
 26
0.0
 36
1.0
 17
0.0
 27
0.0
 37
0.0
 40
217.6572386189258
 41
2.043533930857874
 42
50.0
 43
0.0
 44
0.0
 50
0.0
 51
0.0
 71
     0
 72
   100
 73
     1
 74
     3
 75
     0
 76
     0
 77
     0
 78
     0
281
     0
 65
     1
110
0.0
120
0.0
130
0.0
111
1.0
121
0.0
131
0.0
112
0.0
122
1.0
132
0.0
 79
     1
146
0.0
  0
ENDTAB
  0
TABLE
  2
LTYPE
  5
5
330
0
100
AcDbSymbolTable
 70
     1
  0
LTYPE
  5
13
330
5
100
AcDbSymbolTableRecord
100
AcDbLinetypeTableRecord
  2
ByBlock
 70
     0
  3

 72
    65
 73
     0
 40
0.0
  0
LTYPE
  5
14
330
5
100
AcDbSymbolTableRecord
100
AcDbLinetypeTableRecord
  2
ByLayer
 70
     0
  3

 72
    65
 73
     0
 40
0.0
  0
LTYPE
  5
15
330
5
100
AcDbSymbolTableRecord
100
AcDbLinetypeTableRecord
  2
Continuous
 70
     0
  3
Solid line
 72
    65
 73
     0
 40
0.0
  0
ENDTAB
  0
TABLE
  2
LAYER
  5
2
330
0
100
AcDbSymbolTable
 70
     1
  0
LAYER
  5
10
330
2
100
AcDbSymbolTableRecord
100
AcDbLayerTableRecord
  2
0
 70
     0
 62
     7
  6
Continuous
370
    -3
390
F
  0
ENDTAB
  0
TABLE
  2
STYLE
  5
3
330
0
100
AcDbSymbolTable
 70
     1
  0
STYLE
  5
11
330
3
100
AcDbSymbolTableRecord
100
AcDbTextStyleTableRecord
  2
Standard
 70
     0
 40
0.0
 41
1.0
 50
0.0
 71
     0
 42
0.2
  3
txt
  4

  0
ENDTAB
  0
TABLE
  2
VIEW
  5
6
330
0
100
AcDbSymbolTable
 70
     0
  0
ENDTAB
  0
TABLE
  2
UCS
  5
7
330
0
100
AcDbSymbolTable
 70
     0
  0
ENDTAB
  0
TABLE
  2
APPID
  5
9
330
0
100
AcDbSymbolTable
 70
     1
  0
APPID
  5
12
330
9
100
AcDbSymbolTableRecord
100
AcDbRegAppTableRecord
  2
ACAD
 70
     0
  0
ENDTAB
  0
TABLE
  2
DIMSTYLE
  5
A
330
0
100
AcDbSymbolTable
 70
     1
100
AcDbDimStyleTable
 71
     0
  0
DIMSTYLE
105
360
330
A
100
AcDbSymbolTableRecord
100
AcDbDimStyleTableRecord
  2
Standard
 70
     0
340
11
  0
ENDTAB
  0
TABLE
  2
BLOCK_RECORD
  5
1
330
0
100
AcDbSymbolTable
 70
     0
  0
BLOCK_RECORD
  5
1E
330
1
100
AcDbSymbolTableRecord
100
AcDbBlockTableRecord
  2
*Model_Space
340
21
  0
BLOCK_RECORD
  5
1A
330
1
100
AcDbSymbolTableRecord
100
AcDbBlockTableRecord
  2
*Paper_Space
340
1D
  0
ENDTAB
  0
ENDSEC
  0
SECTION
  2
BLOCKS
  0
BLOCK
  5
1F
330
1E
100
AcDbEntity
  8
0
100
AcDbBlockBegin
  2
*Model_Space
 70
     0
 10
0.0
 20
0.0
 30
0.0
  3
*Model_Space
  1

  0
ENDBLK
  5
20
330
1E
100
AcDbEntity
  8
0
100
AcDbBlockEnd
  0
BLOCK
  5
1B
330
1A
100
AcDbEntity
 67
     1
  8
0
100
AcDbBlockBegin
  2
*Paper_Space
 70
     0
 10
0.0
 20
0.0
 30
0.0
  3
*Paper_Space
  1

  0
ENDBLK
  5
1C
330
1A
100
AcDbEntity
 67
     1
  8
0
100
AcDbBlockEnd
  0
ENDSEC
  0
SECTION
  2
ENTITIES
  0
LINE
  5
22
330
1E
100
AcDbEntity
  8
0
100
AcDbLine
 10
0.8999999999999909
 20
124.999975
 30
0.0
 11
1.799999999999989
 21
124.999975
 31
0.0
  0
LINE
  5
24
330
1E
100
AcDbEntity
  8
0
100
AcDbLine
 10
0.4999999999999911
 20
124.999975
 30
0.0
 11
0.8999999999999909
 21
124.999975
 31
0.0
  0
LINE
  5
25
330
1E
100
AcDbEntity
  8
0
100
AcDbLine
 10
0.199999999999991
 20
125.1999749999999
 30
0.0
 11
0.4999999999999911
 21
124.999975
 31
0.0
  0
LINE
  5
26
330
1E
100
AcDbEntity
  8
0
100
AcDbLine
 10
-0.0000000000000089
 20
126.9999749999999
 30
0.0
 11
0.299999999999991
 21
127.299975
 31
0.0
  0
LINE
  5
27
330
1E
100
AcDbEntity
  8
0
100
AcDbLine
 10
-0.0000000000000089
 20
126.9999749999999
 30
0.0
 11
-0.0000000000000089
 21
125.499975
 31
0.0
  0
LINE
  5
28
330
1E
100
AcDbEntity
  8
0
100
AcDbLine
 10
0.299999999999991
 20
127.299975
 30
0.0
 11
1.399999999999989
 21
127.5999749999999
 31
0.0
  0
LINE
  5
2A
330
1E
100
AcDbEntity
  8
0
100
AcDbLine
 10
0.299999999999991
 20
127.299975
 30
0.0
 11
1.399999999999989
 21
127.5999749999999
 31
0.0
  0
LINE
  5
2C
330
1E
100
AcDbEntity
  8
0
100
AcDbLine
 10
-0.0000000000000089
 20
125.499975
 30
0.0
 11
-0.0000000000000089
 21
126.9999749999999
 31
0.0
  0
LINE
  5
2D
330
1E
100
AcDbEntity
  8
0
100
AcDbLine
 10
-0.0000000000000089
 20
125.499975
 30
0.0
 11
0.199999999999991
 21
125.1999749999999
 31
0.0
  0
LINE
  5
2E
330
1E
100
AcDbEntity
  8
0
100
AcDbLine
 10
10.5
 20
124.999975
 30
0.0
 11
60.0
 21
124.999975
 31
0.0
  0
LINE
  5
2F
330
1E
100
AcDbEntity
  8
0
100
AcDbLine
 10
10.5
 20
124.999975
 30
0.0
 11
60.0
 21
124.999975
 31
0.0
  0
LINE
  5
30
330
1E
100
AcDbEntity
  8
0
100
AcDbLine
 10
7.89999999999999
 20
124.999975
 30
0.0
 11
10.5
 21
124.999975
 31
0.0
  0
LINE
  5
31
330
1E
100
AcDbEntity
  8
0
100
AcDbLine
 10
5.49999999999999
 20
124.999975
 30
0.0
 11
7.89999999999999
 21
124.999975
 31
0.0
  0
LINE
  5
38
330
1E
100
AcDbEntity
  8
0
100
AcDbLine
 10
3.39999999999999
 20
124.999975
 30
0.0
 11
5.49999999999999
 21
124.999975
 31
0.0
  0
LINE
  5
39
330
1E
100
AcDbEntity
  8
0
100
AcDbLine
 10
1.799999999999989
 20
124.999975
 30
0.0
 11
3.39999999999999
 21
124.999975
 31
0.0
  0
LINE
  5
3A
330
1E
100
AcDbEntity
  8
0
100
AcDbLine
 10
10.5
 20
128.2999749999999
 30
0.0
 11
39.8
 21
129.999975
 31
0.0
  0
LINE
  5
3B
330
1E
100
AcDbEntity
  8
0
100
AcDbLine
 10
10.5
 20
128.2999749999999
 30
0.0
 11
39.8
 21
129.999975
 31
0.0
  0
LINE
  5
3C
330
1E
100
AcDbEntity
  8
0
100
AcDbLine
 10
7.83504999999999
 20
128.149975
 30
0.0
 11
10.5
 21
128.2999749999999
 31
0.0
  0
LINE
  5
3D
330
1E
100
AcDbEntity
  8
0
100
AcDbLine
 10
5.32223999999999
 20
127.984975
 30
0.0
 11
7.83504999999999
 21
128.149975
 31
0.0
  0
LINE
  5
3E
330
1E
100
AcDbEntity
  8
0
100
AcDbLine
 10
2.99999999999999
 20
127.7999749999999
 30
0.0
 11
5.32223999999999
 21
127.984975
 31
0.0
  0
LINE
  5
3F
330
1E
100
AcDbEntity
  8
0
100
AcDbLine
 10
1.399999999999989
 20
127.5999749999999
 30
0.0
 11
2.99999999999999
 21
127.7999749999999
 31
0.0
  0
LINE
  5
40
330
1E
100
AcDbEntity
  8
0
100
AcDbLine
 10
25.0
 20
169.999975
 30
0.0
 11
25.0
 21
175.999975
 31
0.0
  0
LINE
  5
41
330
1E
100
AcDbEntity
  8
0
100
AcDbLine
 10
25.0
 20
169.999975
 30
0.0
 11
25.3
 21
169.299975
 31
0.0
  0
LINE
  5
42
330
1E
100
AcDbEntity
  8
0
100
AcDbLine
 10
25.2
 20
175.999975
 30
0.0
 11
25.8
 21
175.999975
 31
0.0
  0
LINE
  5
43
330
1E
100
AcDbEntity
  8
0
100
AcDbLine
 10
25.3
 20
169.299975
 30
0.0
 11
25.5
 21
169.299975
 31
0.0
  0
LINE
  5
44
330
1E
100
AcDbEntity
  8
0
100
AcDbLine
 10
27.5
 20
168.999975
 30
0.0
 11
28.5
 21
168.999975
 31
0.0
  0
LINE
  5
45
330
1E
100
AcDbEntity
  8
0
100
AcDbLine
 10
28.5
 20
168.999975
 30
0.0
 11
29.7
 21
168.999975
 31
0.0
  0
LINE
  5
46
330
1E
100
AcDbEntity
  8
0
100
AcDbLine
 10
33.0
 20
168.999975
 30
0.0
 11
35.7
 21
168.999975
 31
0.0
  0
LINE
  5
47
330
1E
100
AcDbEntity
  8
0
100
AcDbLine
 10
32.0
 20
168.999975
 30
0.0
 11
33.0
 21
168.999975
 31
0.0
  0
LINE
  5
48
330
1E
100
AcDbEntity
  8
0
100
AcDbLine
 10
31.0
 20
168.999975
 30
0.0
 11
46.5
 21
168.999975
 31
0.0
  0
LINE
  5
49
330
1E
100
AcDbEntity
  8
0
100
AcDbLine
 10
35.7
 20
168.999975
 30
0.0
 11
40.2
 21
168.999975
 31
0.0
  0
LINE
  5
4D
330
1E
100
AcDbEntity
  8
0
100
AcDbLine
 10
44.59999999999999
 20
168.999975
 30
0.0
 11
46.1
 21
168.999975
 31
0.0
  0
LINE
  5
4E
330
1E
100
AcDbEntity
  8
0
100
AcDbLine
 10
44.0
 20
168.999975
 30
0.0
 11
44.59999999999999
 21
168.999975
 31
0.0
  0
LINE
  5
4F
330
1E
100
AcDbEntity
  8
0
100
AcDbLine
 10
40.2
 20
168.999975
 30
0.0
 11
46.1
 21
168.999975
 31
0.0
  0
LINE
  5
50
330
1E
100
AcDbEntity
  8
0
100
AcDbLine
 10
44.59999999999999
 20
131.2999749999999
 30
0.0
 11
46.7
 21
132.999975
 31
0.0
  0
LINE
  5
51
330
1E
100
AcDbEntity
  8
0
100
AcDbLine
 10
42.2
 20
130.399975
 30
0.0
 11
44.59999999999999
 21
131.2999749999999
 31
0.0
  0
LINE
  5
52
330
1E
100
AcDbEntity
  8
0
100
AcDbLine
 10
39.8
 20
129.999975
 30
0.0
 11
42.2
 21
130.399975
 31
0.0
  0
LINE
  5
53
330
1E
100
AcDbEntity
  8
0
100
AcDbLine
 10
41.2
 20
168.999975
 30
0.0
 11
46.5
 21
168.999975
 31
0.0
  0
LINE
  5
54
330
1E
100
AcDbEntity
  8
0
100
AcDbLine
 10
49.5
 20
139.999975
 30
0.0
 11
49.5
 21
162.999975
 31
0.0
  0
LINE
  5
55
330
1E
100
AcDbEntity
  8
0
100
AcDbLine
 10
49.4
 20
138.999975
 30
0.0
 11
49.5
 21
139.999975
 31
0.0
  0
LINE
  5
56
330
1E
100
AcDbEntity
  8
0
100
AcDbLine
 10
49.0
 20
137.0999749999999
 30
0.0
 11
49.4
 21
138.999975
 31
0.0
  0
LINE
  5
57
330
1E
100
AcDbEntity
  8
0
100
AcDbLine
 10
48.2
 20
135.0999749999999
 30
0.0
 11
49.0
 21
137.0999749999999
 31
0.0
  0
LINE
  5
58
330
1E
100
AcDbEntity
  8
0
100
AcDbLine
 10
46.7
 20
132.999975
 30
0.0
 11
48.2
 21
135.0999749999999
 31
0.0
  0
LINE
  5
59
330
1E
100
AcDbEntity
  8
0
100
AcDbLine
 10
49.5
 20
162.999975
 30
0.0
 11
49.7
 21
163.399975
 31
0.0
  0
LINE
  5
5A
330
1E
100
AcDbEntity
  8
0
100
AcDbLine
 10
49.5
 20
162.999975
 30
0.0
 11
49.5
 21
139.999975
 31
0.0
  0
LINE
  5
5B
330
1E
100
AcDbEntity
  8
0
100
AcDbLine
 10
49.7
 20
164.899975
 30
0.0
 11
50.1
 21
164.899975
 31
0.0
  0
LINE
  5
5C
330
1E
100
AcDbEntity
  8
0
100
AcDbLine
 10
49.7
 20
164.899975
 30
0.0
 11
49.7
 21
163.599975
 31
0.0
  0
LINE
  5
5D
330
1E
100
AcDbEntity
  8
0
100
AcDbLine
 10
49.7
 20
163.599975
 30
0.0
 11
49.7
 21
164.899975
 31
0.0
  0
LINE
  5
5E
330
1E
100
AcDbEntity
  8
0
100
AcDbLine
 10
49.7
 20
163.599975
 30
0.0
 11
50.0
 21
163.599975
 31
0.0
  0
LINE
  5
5F
330
1E
100
AcDbEntity
  8
0
100
AcDbLine
 10
49.7
 20
163.599975
 30
0.0
 11
50.1
 21
163.599975
 31
0.0
  0
LINE
  5
60
330
1E
100
AcDbEntity
  8
0
100
AcDbLine
 10
49.7
 20
163.399975
 30
0.0
 11
50.0
 21
163.599975
 31
0.0
  0
LINE
  5
61
330
1E
100
AcDbEntity
  8
0
100
AcDbLine
 10
60.0
 20
124.999975
 30
0.0
 11
62.6
 21
124.999975
 31
0.0
  0
LINE
  5
62
330
1E
100
AcDbEntity
  8
0
100
AcDbLine
 10
62.6
 20
124.999975
 30
0.0
 11
65.0
 21
124.999975
 31
0.0
  0
LINE
  5
63
330
1E
100
AcDbEntity
  8
0
100
AcDbLine
 10
65.0
 20
124.999975
 30
0.0
 11
67.09999999999999
 21
124.999975
 31
0.0
  0
LINE
  5
64
330
1E
100
AcDbEntity
  8
0
100
AcDbLine
 10
67.09999999999999
 20
124.999975
 30
0.0
 11
68.7
 21
124.999975
 31
0.0
  0
LINE
  5
65
330
1E
100
AcDbEntity
  8
0
100
AcDbLine
 10
50.1
 20
163.599975
 30
0.0
 11
51.1
 21
163.599975
 31
0.0
  0
LINE
  5
66
330
1E
100
AcDbEntity
  8
0
100
AcDbLine
 10
52.7
 20
163.599975
 30
0.0
 11
54.9
 21
163.599975
 31
0.0
  0
LINE
  5
67
330
1E
100
AcDbEntity
  8
0
100
AcDbLine
 10
51.1
 20
163.599975
 30
0.0
 11
52.7
 21
163.599975
 31
0.0
  0
LINE
  5
68
330
1E
100
AcDbEntity
  8
0
100
AcDbLine
 10
54.9
 20
163.599975
 30
0.0
 11
57.4
 21
163.599975
 31
0.0
  0
LINE
  5
69
330
1E
100
AcDbEntity
  8
0
100
AcDbLine
 10
52.9
 20
163.599975
 30
0.0
 11
55.0
 21
163.599975
 31
0.0
  0
LINE
  5
6A
330
1E
100
AcDbEntity
  8
0
100
AcDbLine
 10
55.0
 20
163.599975
 30
0.0
 11
57.4
 21
163.599975
 31
0.0
  0
LINE
  5
6B
330
1E
100
AcDbEntity
  8
0
100
AcDbLine
 10
57.4
 20
163.599975
 30
0.0
 11
60.0
 21
163.599975
 31
0.0
  0
LINE
  5
6C
330
1E
100
AcDbEntity
  8
0
100
AcDbLine
 10
51.29999999999999
 20
163.599975
 30
0.0
 11
52.9
 21
163.599975
 31
0.0
  0
LINE
  5
6D
330
1E
100
AcDbEntity
  8
0
100
AcDbLine
 10
50.4
 20
163.599975
 30
0.0
 11
51.29999999999999
 21
163.599975
 31
0.0
  0
LINE
  5
6E
330
1E
100
AcDbEntity
  8
0
100
AcDbLine
 10
50.0
 20
163.599975
 30
0.0
 11
50.4
 21
163.599975
 31
0.0
  0
LINE
  5
6F
330
1E
100
AcDbEntity
  8
0
100
AcDbLine
 10
65.09999999999999
 20
163.599975
 30
0.0
 11
67.3
 21
163.599975
 31
0.0
  0
LINE
  5
70
330
1E
100
AcDbEntity
  8
0
100
AcDbLine
 10
65.0
 20
163.599975
 30
0.0
 11
67.09999999999999
 21
163.599975
 31
0.0
  0
LINE
  5
71
330
1E
100
AcDbEntity
  8
0
100
AcDbLine
 10
62.6
 20
163.599975
 30
0.0
 11
65.0
 21
163.599975
 31
0.0
  0
LINE
  5
72
330
1E
100
AcDbEntity
  8
0
100
AcDbLine
 10
62.6
 20
163.599975
 30
0.0
 11
65.09999999999999
 21
163.599975
 31
0.0
  0
LINE
  5
73
330
1E
100
AcDbEntity
  8
0
100
AcDbLine
 10
60.0
 20
163.599975
 30
0.0
 11
62.6
 21
163.599975
 31
0.0
  0
LINE
  5
75
330
1E
100
AcDbEntity
  8
0
100
AcDbLine
 10
67.3
 20
163.599975
 30
0.0
 11
68.9
 21
163.599975
 31
0.0
  0
LINE
  5
76
330
1E
100
AcDbEntity
  8
0
100
AcDbLine
 10
68.9
 20
163.599975
 30
0.0
 11
69.90000000000001
 21
163.599975
 31
0.0
  0
LINE
  5
78
330
1E
100
AcDbEntity
  8
0
100
AcDbLine
 10
67.09999999999999
 20
163.599975
 30
0.0
 11
68.7
 21
163.599975
 31
0.0
  0
LINE
  5
79
330
1E
100
AcDbEntity
  8
0
100
AcDbLine
 10
68.7
 20
163.599975
 30
0.0
 11
69.59999999999999
 21
163.599975
 31
0.0
  0
LINE
  5
7A
330
1E
100
AcDbEntity
  8
0
100
AcDbLine
 10
69.59999999999999
 20
163.599975
 30
0.0
 11
70.0
 21
163.599975
 31
0.0
  0
LINE
  5
7B
330
1E
100
AcDbEntity
  8
0
100
AcDbLine
 10
68.7
 20
124.999975
 30
0.0
 11
69.59999999999999
 21
124.999975
 31
0.0
  0
LINE
  5
7C
330
1E
100
AcDbEntity
  8
0
100
AcDbLine
 10
69.90000000000001
 20
163.599975
 30
0.0
 11
70.3
 21
163.599975
 31
0.0
  0
LINE
  5
7D
330
1E
100
AcDbEntity
  8
0
100
AcDbLine
 10
70.0
 20
124.999975
 30
0.0
 11
70.3
 21
125.1999749999999
 31
0.0
  0
LINE
  5
7E
330
1E
100
AcDbEntity
  8
0
100
AcDbLine
 10
69.59999999999999
 20
124.999975
 30
0.0
 11
70.0
 21
124.999975
 31
0.0
  0
LINE
  5
7F
330
1E
100
AcDbEntity
  8
0
100
AcDbLine
 10
60.0
 20
164.899975
 30
0.0
 11
62.6
 21
164.899975
 31
0.0
  0
LINE
  5
80
330
1E
100
AcDbEntity
  8
0
100
AcDbLine
 10
62.6
 20
164.899975
 30
0.0
 11
65.09999999999999
 21
164.899975
 31
0.0
  0
LINE
  5
81
330
1E
100
AcDbEntity
  8
0
100
AcDbLine
 10
65.09999999999999
 20
164.899975
 30
0.0
 11
67.3
 21
164.899975
 31
0.0
  0
LINE
  5
82
330
1E
100
AcDbEntity
  8
0
100
AcDbLine
 10
67.3
 20
164.899975
 30
0.0
 11
68.9
 21
164.899975
 31
0.0
  0
LINE
  5
83
330
1E
100
AcDbEntity
  8
0
100
AcDbLine
 10
68.9
 20
164.899975
 30
0.0
 11
69.90000000000001
 21
164.899975
 31
0.0
  0
LINE
  5
84
330
1E
100
AcDbEntity
  8
0
100
AcDbLine
 10
69.90000000000001
 20
164.899975
 30
0.0
 11
70.3
 21
164.899975
 31
0.0
  0
LINE
  5
85
330
1E
100
AcDbEntity
  8
0
100
AcDbLine
 10
57.4
 20
164.899975
 30
0.0
 11
60.0
 21
164.899975
 31
0.0
  0
LINE
  5
86
330
1E
100
AcDbEntity
  8
0
100
AcDbLine
 10
54.9
 20
164.899975
 30
0.0
 11
57.4
 21
164.899975
 31
0.0
  0
LINE
  5
87
330
1E
100
AcDbEntity
  8
0
100
AcDbLine
 10
52.7
 20
164.899975
 30
0.0
 11
54.9
 21
164.899975
 31
0.0
  0
LINE
  5
88
330
1E
100
AcDbEntity
  8
0
100
AcDbLine
 10
51.1
 20
164.899975
 30
0.0
 11
52.7
 21
164.899975
 31
0.0
  0
LINE
  5
89
330
1E
100
AcDbEntity
  8
0
100
AcDbLine
 10
50.1
 20
164.899975
 30
0.0
 11
51.1
 21
164.899975
 31
0.0
  0
LINE
  5
8A
330
1E
100
AcDbEntity
  8
0
100
AcDbLine
 10
70.0
 20
163.599975
 30
0.0
 11
70.3
 21
163.399975
 31
0.0
  0
LINE
  5
8B
330
1E
100
AcDbEntity
  8
0
100
AcDbLine
 10
70.0
 20
163.599975
 30
0.0
 11
70.3
 21
163.599975
 31
0.0
  0
LINE
  5
8C
330
1E
100
AcDbEntity
  8
0
100
AcDbLine
 10
70.5
 20
125.499975
 30
0.0
 11
70.5
 21
126.9999749999999
 31
0.0
  0
LINE
  5
8D
330
1E
100
AcDbEntity
  8
0
100
AcDbLine
 10
70.5
 20
162.999975
 30
0.0
 11
70.5
 21
126.9999749999999
 31
0.0
  0
LINE
  5
8E
330
1E
100
AcDbEntity
  8
0
100
AcDbLine
 10
70.3
 20
125.1999749999999
 30
0.0
 11
70.5
 21
125.499975
 31
0.0
  0
LINE
  5
8F
330
1E
100
AcDbEntity
  8
0
100
AcDbLine
 10
70.5
 20
126.9999749999999
 30
0.0
 11
70.5
 21
125.499975
 31
0.0
  0
LINE
  5
90
330
1E
100
AcDbEntity
  8
0
100
AcDbLine
 10
70.5
 20
126.9999749999999
 30
0.0
 11
70.5
 21
162.999975
 31
0.0
  0
LINE
  5
91
330
1E
100
AcDbEntity
  8
0
100
AcDbLine
 10
70.3
 20
163.599975
 30
0.0
 11
70.3
 21
164.899975
 31
0.0
  0
LINE
  5
92
330
1E
100
AcDbEntity
  8
0
100
AcDbLine
 10
70.3
 20
164.899975
 30
0.0
 11
70.3
 21
163.599975
 31
0.0
  0
LINE
  5
93
330
1E
100
AcDbEntity
  8
0
100
AcDbLine
 10
70.3
 20
163.399975
 30
0.0
 11
70.5
 21
162.999975
 31
0.0
  0
LINE
  5
94
330
1E
100
AcDbEntity
  8
0
100
AcDbLine
 10
70.0
 20
164.899975
 30
0.0
 11
70.3
 21
165.0999749999999
 31
0.0
  0
LINE
  5
95
330
1E
100
AcDbEntity
  8
0
100
AcDbLine
 10
70.5
 20
165.4999749999999
 30
0.0
 11
70.5
 21
165.999975
 31
0.0
  0
LINE
  5
96
330
1E
100
AcDbEntity
  8
0
100
AcDbLine
 10
70.3
 20
165.0999749999999
 30
0.0
 11
70.5
 21
165.4999749999999
 31
0.0
  0
LINE
  5
97
330
1E
100
AcDbEntity
  8
0
100
AcDbLine
 10
49.7
 20
165.0999749999999
 30
0.0
 11
50.0
 21
164.899975
 31
0.0
  0
LINE
  5
98
330
1E
100
AcDbEntity
  8
0
100
AcDbLine
 10
46.1
 20
168.999975
 30
0.0
 11
52.8
 21
168.999975
 31
0.0
  0
LINE
  5
99
330
1E
100
AcDbEntity
  8
0
100
AcDbLine
 10
46.1
 20
168.999975
 30
0.0
 11
48.7
 21
168.999975
 31
0.0
  0
LINE
  5
9A
330
1E
100
AcDbEntity
  8
0
100
AcDbLine
 10
49.5
 20
165.999975
 30
0.0
 11
49.5
 21
165.4999749999999
 31
0.0
  0
LINE
  5
9B
330
1E
100
AcDbEntity
  8
0
100
AcDbLine
 10
70.5
 20
165.999975
 30
0.0
 11
70.7
 21
166.7999749999999
 31
0.0
  0
LINE
  5
9C
330
1E
100
AcDbEntity
  8
0
100
AcDbLine
 10
70.5
 20
165.999975
 30
0.0
 11
70.5
 21
165.4999749999999
 31
0.0
  0
LINE
  5
9D
330
1E
100
AcDbEntity
  8
0
100
AcDbLine
 10
70.7
 20
166.7999749999999
 30
0.0
 11
71.2
 21
167.7999749999999
 31
0.0
  0
LINE
  5
9E
330
1E
100
AcDbEntity
  8
0
100
AcDbLine
 10
71.2
 20
167.7999749999999
 30
0.0
 11
72.2
 21
168.599975
 31
0.0
  0
LINE
  5
9F
330
1E
100
AcDbEntity
  8
0
100
AcDbLine
 10
72.2
 20
168.599975
 30
0.0
 11
73.5
 21
168.999975
 31
0.0
  0
LINE
  5
A0
330
1E
100
AcDbEntity
  8
0
100
AcDbLine
 10
49.29999999999999
 20
166.7999749999999
 30
0.0
 11
49.5
 21
165.999975
 31
0.0
  0
LINE
  5
A1
330
1E
100
AcDbEntity
  8
0
100
AcDbLine
 10
48.79999999999999
 20
167.7999749999999
 30
0.0
 11
49.29999999999999
 21
166.7999749999999
 31
0.0
  0
LINE
  5
A2
330
1E
100
AcDbEntity
  8
0
100
AcDbLine
 10
48.7
 20
168.999975
 30
0.0
 11
52.0
 21
168.999975
 31
0.0
  0
LINE
  5
A3
330
1E
100
AcDbEntity
  8
0
100
AcDbLine
 10
52.0
 20
168.999975
 30
0.0
 11
55.89999999999999
 21
168.999975
 31
0.0
  0
LINE
  5
A4
330
1E
100
AcDbEntity
  8
0
100
AcDbLine
 10
55.89999999999999
 20
168.999975
 30
0.0
 11
60.0
 21
168.999975
 31
0.0
  0
LINE
  5
A5
330
1E
100
AcDbEntity
  8
0
100
AcDbLine
 10
64.1
 20
168.999975
 30
0.0
 11
68.0
 21
168.999975
 31
0.0
  0
LINE
  5
A6
330
1E
100
AcDbEntity
  8
0
100
AcDbLine
 10
52.8
 20
168.999975
 30
0.0
 11
60.0
 21
168.999975
 31
0.0
  0
LINE
  5
A7
330
1E
100
AcDbEntity
  8
0
100
AcDbLine
 10
60.0
 20
168.999975
 30
0.0
 11
67.2
 21
168.999975
 31
0.0
  0
LINE
  5
A8
330
1E
100
AcDbEntity
  8
0
100
AcDbLine
 10
60.0
 20
168.999975
 30
0.0
 11
64.1
 21
168.999975
 31
0.0
  0
LINE
  5
A9
330
1E
100
AcDbEntity
  8
0
100
AcDbLine
 10
68.0
 20
168.999975
 30
0.0
 11
71.29999999999999
 21
168.999975
 31
0.0
  0
LINE
  5
AA
330
1E
100
AcDbEntity
  8
0
100
AcDbLine
 10
71.29999999999999
 20
168.999975
 30
0.0
 11
73.9
 21
168.999975
 31
0.0
  0
LINE
  5
AB
330
1E
100
AcDbEntity
  8
0
100
AcDbLine
 10
67.2
 20
168.999975
 30
0.0
 11
73.9
 21
168.999975
 31
0.0
  0
LINE
  5
AC
330
1E
100
AcDbEntity
  8
0
100
AcDbLine
 10
47.8
 20
168.599975
 30
0.0
 11
48.79999999999999
 21
167.7999749999999
 31
0.0
  0
LINE
  5
AD
330
1E
100
AcDbEntity
  8
0
100
AcDbLine
 10
46.5
 20
168.999975
 30
0.0
 11
47.8
 21
168.599975
 31
0.0
  0
LINE
  5
AE
330
1E
100
AcDbEntity
  8
0
100
AcDbLine
 10
49.5
 20
165.4999749999999
 30
0.0
 11
49.7
 21
165.0999749999999
 31
0.0
  0
LINE
  5
AF
330
1E
100
AcDbEntity
  8
0
100
AcDbLine
 10
49.5
 20
165.4999749999999
 30
0.0
 11
49.5
 21
165.999975
 31
0.0
  0
LINE
  5
B0
330
1E
100
AcDbEntity
  8
0
100
AcDbLine
 10
73.5
 20
168.999975
 30
0.0
 11
146.5
 21
168.999975
 31
0.0
  0
LINE
  5
B1
330
1E
100
AcDbEntity
  8
0
100
AcDbLine
 10
73.5
 20
168.999975
 30
0.0
 11
78.79999999999999
 21
168.999975
 31
0.0
  0
LINE
  5
B2
330
1E
100
AcDbEntity
  8
0
100
AcDbLine
 10
73.5
 20
168.999975
 30
0.0
 11
74.1
 21
168.999975
 31
0.0
  0
LINE
  5
B3
330
1E
100
AcDbEntity
  8
0
100
AcDbLine
 10
45.89999999999999
 20
168.999975
 30
0.0
 11
46.5
 21
168.999975
 31
0.0
  0
LINE
  5
B4
330
1E
100
AcDbEntity
  8
0
100
AcDbLine
 10
45.4
 20
168.999975
 30
0.0
 11
45.89999999999999
 21
168.999975
 31
0.0
  0
LINE
  5
B5
330
1E
100
AcDbEntity
  8
0
100
AcDbLine
 10
37.0
 20
168.999975
 30
0.0
 11
41.2
 21
168.999975
 31
0.0
  0
LINE
  5
B6
330
1E
100
AcDbEntity
  8
0
100
AcDbLine
 10
34.39999999999999
 20
168.999975
 30
0.0
 11
37.0
 21
168.999975
 31
0.0
  0
LINE
  5
B7
330
1E
100
AcDbEntity
  8
0
100
AcDbLine
 10
33.39999999999999
 20
168.999975
 30
0.0
 11
34.39999999999999
 21
168.999975
 31
0.0
  0
LINE
  5
B8
330
1E
100
AcDbEntity
  8
0
100
AcDbLine
 10
29.7
 20
168.999975
 30
0.0
 11
31.0
 21
168.999975
 31
0.0
  0
LINE
  5
B9
330
1E
100
AcDbEntity
  8
0
100
AcDbLine
 10
31.0
 20
168.999975
 30
0.0
 11
46.5
 21
168.999975
 31
0.0
  0
LINE
  5
BA
330
1E
100
AcDbEntity
  8
0
100
AcDbLine
 10
73.9
 20
168.999975
 30
0.0
 11
79.8
 21
168.999975
 31
0.0
  0
LINE
  5
BB
330
1E
100
AcDbEntity
  8
0
100
AcDbLine
 10
73.9
 20
168.999975
 30
0.0
 11
75.4
 21
168.999975
 31
0.0
  0
LINE
  5
BC
330
1E
100
AcDbEntity
  8
0
100
AcDbLine
 10
75.4
 20
168.999975
 30
0.0
 11
76.0
 21
168.999975
 31
0.0
  0
LINE
  5
BD
330
1E
100
AcDbEntity
  8
0
100
AcDbLine
 10
79.8
 20
168.999975
 30
0.0
 11
84.29999999999999
 21
168.999975
 31
0.0
  0
LINE
  5
BE
330
1E
100
AcDbEntity
  8
0
100
AcDbLine
 10
74.1
 20
168.999975
 30
0.0
 11
74.59999999999999
 21
168.999975
 31
0.0
  0
LINE
  5
BF
330
1E
100
AcDbEntity
  8
0
100
AcDbLine
 10
78.79999999999999
 20
168.999975
 30
0.0
 11
83.0
 21
168.999975
 31
0.0
  0
LINE
  5
C0
330
1E
100
AcDbEntity
  8
0
100
AcDbLine
 10
84.29999999999999
 20
168.999975
 30
0.0
 11
87.0
 21
168.999975
 31
0.0
  0
LINE
  5
C1
330
1E
100
AcDbEntity
  8
0
100
AcDbLine
 10
133.0
 20
168.999975
 30
0.0
 11
135.6999999999999
 21
168.999975
 31
0.0
  0
LINE
  5
C2
330
1E
100
AcDbEntity
  8
0
100
AcDbLine
 10
132.0
 20
168.999975
 30
0.0
 11
133.0
 21
168.999975
 31
0.0
  0
LINE
  5
C3
330
1E
100
AcDbEntity
  8
0
100
AcDbLine
 10
87.0
 20
168.999975
 30
0.0
 11
88.0
 21
168.999975
 31
0.0
  0
LINE
  5
C4
330
1E
100
AcDbEntity
  8
0
100
AcDbLine
 10
83.0
 20
168.999975
 30
0.0
 11
85.6
 21
168.999975
 31
0.0
  0
LINE
  5
C5
330
1E
100
AcDbEntity
  8
0
100
AcDbLine
 10
85.6
 20
168.999975
 30
0.0
 11
86.6
 21
168.999975
 31
0.0
  0
LINE
  5
C6
330
1E
100
AcDbEntity
  8
0
100
AcDbLine
 10
73.5
 20
168.999975
 30
0.0
 11
146.5
 21
168.999975
 31
0.0
  0
LINE
  5
C7
330
1E
100
AcDbEntity
  8
0
100
AcDbLine
 10
26.69999999999999
 20
168.999975
 30
0.0
 11
27.5
 21
168.999975
 31
0.0
  0
LINE
  5
C8
330
1E
100
AcDbEntity
  8
0
100
AcDbLine
 10
26.2
 20
168.999975
 30
0.0
 11
26.69999999999999
 21
168.999975
 31
0.0
  0
LINE
  5
C9
330
1E
100
AcDbEntity
  8
0
100
AcDbLine
 10
25.5
 20
169.299975
 30
0.0
 11
26.1
 21
169.299975
 31
0.0
  0
LINE
  5
CA
330
1E
100
AcDbEntity
  8
0
100
AcDbLine
 10
26.1
 20
169.299975
 30
0.0
 11
27.0
 21
169.299975
 31
0.0
  0
LINE
  5
CB
330
1E
100
AcDbEntity
  8
0
100
AcDbLine
 10
27.0
 20
169.299975
 30
0.0
 11
28.2
 21
169.299975
 31
0.0
  0
LINE
  5
CC
330
1E
100
AcDbEntity
  8
0
100
AcDbLine
 10
28.2
 20
169.299975
 30
0.0
 11
29.5
 21
169.299975
 31
0.0
  0
LINE
  5
CD
330
1E
100
AcDbEntity
  8
0
100
AcDbLine
 10
29.5
 20
169.299975
 30
0.0
 11
31.0
 21
169.299975
 31
0.0
  0
LINE
  5
CE
330
1E
100
AcDbEntity
  8
0
100
AcDbLine
 10
31.0
 20
169.299975
 30
0.0
 11
160.0
 21
169.299975
 31
0.0
  0
LINE
  5
CF
330
1E
100
AcDbEntity
  8
0
100
AcDbLine
 10
73.0
 20
175.999975
 30
0.0
 11
73.0
 21
189.999975
 31
0.0
  0
LINE
  5
D0
330
1E
100
AcDbEntity
  8
0
100
AcDbLine
 10
47.0
 20
175.999975
 30
0.0
 11
47.0
 21
200.9999749999999
 31
0.0
  0
LINE
  5
D1
330
1E
100
AcDbEntity
  8
0
100
AcDbLine
 10
31.0
 20
169.299975
 30
0.0
 11
160.0
 21
169.299975
 31
0.0
  0
LINE
  5
D2
330
1E
100
AcDbEntity
  8
0
100
AcDbLine
 10
31.0
 20
175.999975
 30
0.0
 11
160.0
 21
175.999975
 31
0.0
  0
LINE
  5
D3
330
1E
100
AcDbEntity
  8
0
100
AcDbLine
 10
31.0
 20
175.999975
 30
0.0
 11
160.0
 21
175.999975
 31
0.0
  0
LINE
  5
D4
330
1E
100
AcDbEntity
  8
0
100
AcDbLine
 10
29.5
 20
175.999975
 30
0.0
 11
31.0
 21
175.999975
 31
0.0
  0
LINE
  5
D5
330
1E
100
AcDbEntity
  8
0
100
AcDbLine
 10
28.0
 20
175.999975
 30
0.0
 11
29.5
 21
175.999975
 31
0.0
  0
LINE
  5
D6
330
1E
100
AcDbEntity
  8
0
100
AcDbLine
 10
26.8
 20
175.999975
 30
0.0
 11
28.0
 21
175.999975
 31
0.0
  0
LINE
  5
D7
330
1E
100
AcDbEntity
  8
0
100
AcDbLine
 10
25.8
 20
175.999975
 30
0.0
 11
26.8
 21
175.999975
 31
0.0
  0
LINE
  5
D8
330
1E
100
AcDbEntity
  8
0
100
AcDbLine
 10
26.0
 20
168.999975
 30
0.0
 11
26.2
 21
168.999975
 31
0.0
  0
LINE
  5
D9
330
1E
100
AcDbEntity
  8
0
100
AcDbLine
 10
25.3
 20
169.299975
 30
0.0
 11
26.0
 21
168.999975
 31
0.0
  0
LINE
  5
DA
330
1E
100
AcDbEntity
  8
0
100
AcDbLine
 10
52.134
 20
191.3755749999999
 30
0.0
 11
53.86600000000001
 21
190.375575
 31
0.0
  0
LINE
  5
DB
330
1E
100
AcDbEntity
  8
0
100
AcDbLine
 10
52.134
 20
191.3755749999999
 30
0.0
 11
53.13399999999999
 21
193.107675
 31
0.0
  0
LINE
  5
DC
330
1E
100
AcDbEntity
  8
0
100
AcDbLine
 10
52.134
 20
191.3755749999999
 30
0.0
 11
52.7012265751552
 21
192.358068150826
 31
0.0
  0
LINE
  5
DD
330
1E
100
AcDbEntity
  8
0
100
AcDbLine
 10
53.86600000000001
 20
190.375575
 30
0.0
 11
54.86600000000001
 21
192.107675
 31
0.0
  0
LINE
  5
DE
330
1E
100
AcDbEntity
  8
0
100
AcDbLine
 10
60.0
 20
189.999975
 30
0.0
 11
63.328
 21
190.4679749999999
 31
0.0
  0
LINE
  5
DF
330
1E
100
AcDbEntity
  8
0
100
AcDbLine
 10
66.134
 20
190.375575
 30
0.0
 11
67.86599999999999
 21
191.3755749999999
 31
0.0
  0
LINE
  5
E0
330
1E
100
AcDbEntity
  8
0
100
AcDbLine
 10
63.328
 20
190.4679749999999
 30
0.0
 11
65.564233103513
 21
191.3624682414049
 31
0.0
  0
LINE
  5
E1
330
1E
100
AcDbEntity
  8
0
100
AcDbLine
 10
63.328
 20
190.4679749999999
 30
0.0
 11
66.448
 21
191.7159749999999
 31
0.0
  0
LINE
  5
E2
330
1E
100
AcDbEntity
  8
0
100
AcDbLine
 10
65.564233103513
 20
191.3624682414049
 30
0.0
 11
66.134
 21
190.375575
 31
0.0
  0
LINE
  5
E3
330
1E
100
AcDbEntity
  8
0
100
AcDbLine
 10
66.448
 20
191.7159749999999
 30
0.0
 11
69.20399999999999
 21
193.795975
 31
0.0
  0
LINE
  5
E4
330
1E
100
AcDbEntity
  8
0
100
AcDbLine
 10
56.672
 20
190.4679749999999
 30
0.0
 11
60.0
 21
189.999975
 31
0.0
  0
LINE
  5
E5
330
1E
100
AcDbEntity
  8
0
100
AcDbLine
 10
54.435766896487
 20
191.3624682414049
 30
0.0
 11
56.672
 21
190.4679749999999
 31
0.0
  0
LINE
  5
E6
330
1E
100
AcDbEntity
  8
0
100
AcDbLine
 10
60.0
 20
191.857075
 30
0.0
 11
62.8526
 21
192.258275
 31
0.0
  0
LINE
  5
E7
330
1E
100
AcDbEntity
  8
0
100
AcDbLine
 10
53.55199999999999
 20
191.7159749999999
 30
0.0
 11
56.672
 21
190.4679749999999
 31
0.0
  0
LINE
  5
E8
330
1E
100
AcDbEntity
  8
0
100
AcDbLine
 10
92.0
 20
189.999975
 30
0.0
 11
92.0
 21
190.4679749999999
 31
0.0
  0
LINE
  5
E9
330
1E
100
AcDbEntity
  8
0
100
AcDbLine
 10
92.0
 20
191.7159749999999
 30
0.0
 11
92.0
 21
190.4679749999999
 31
0.0
  0
LINE
  5
EA
330
1E
100
AcDbEntity
  8
0
100
AcDbLine
 10
92.0
 20
191.7159749999999
 30
0.0
 11
92.0
 21
193.795975
 31
0.0
  0
LINE
  5
EB
330
1E
100
AcDbEntity
  8
0
100
AcDbLine
 10
92.0
 20
190.4679749999999
 30
0.0
 11
92.0
 21
189.999975
 31
0.0
  0
LINE
  5
EC
330
1E
100
AcDbEntity
  8
0
100
AcDbLine
 10
92.0
 20
190.4679749999999
 30
0.0
 11
92.0
 21
191.7159749999999
 31
0.0
  0
LINE
  5
ED
330
1E
100
AcDbEntity
  8
0
100
AcDbLine
 10
73.0
 20
189.999975
 30
0.0
 11
92.0
 21
189.999975
 31
0.0
  0
LINE
  5
EE
330
1E
100
AcDbEntity
  8
0
100
AcDbLine
 10
73.0
 20
189.999975
 30
0.0
 11
73.0
 21
175.999975
 31
0.0
  0
LINE
  5
EF
330
1E
100
AcDbEntity
  8
0
100
AcDbLine
 10
35.0
 20
200.9999749999999
 30
0.0
 11
35.2
 21
200.9999749999999
 31
0.0
  0
LINE
  5
F0
330
1E
100
AcDbEntity
  8
0
100
AcDbLine
 10
35.0
 20
200.9999749999999
 30
0.0
 11
35.0
 21
204.999975
 31
0.0
  0
LINE
  5
F1
330
1E
100
AcDbEntity
  8
0
100
AcDbLine
 10
35.2
 20
200.9999749999999
 30
0.0
 11
35.7
 21
200.9999749999999
 31
0.0
  0
LINE
  5
F2
330
1E
100
AcDbEntity
  8
0
100
AcDbLine
 10
35.7
 20
200.9999749999999
 30
0.0
 11
36.5
 21
200.9999749999999
 31
0.0
  0
LINE
  5
F3
330
1E
100
AcDbEntity
  8
0
100
AcDbLine
 10
36.5
 20
200.9999749999999
 30
0.0
 11
37.5
 21
200.9999749999999
 31
0.0
  0
LINE
  5
F4
330
1E
100
AcDbEntity
  8
0
100
AcDbLine
 10
53.13399999999999
 20
193.107675
 30
0.0
 11
54.86600000000001
 21
192.107675
 31
0.0
  0
LINE
  5
F5
330
1E
100
AcDbEntity
  8
0
100
AcDbLine
 10
57.14739999999999
 20
192.258275
 30
0.0
 11
60.0
 21
191.857075
 31
0.0
  0
LINE
  5
F6
330
1E
100
AcDbEntity
  8
0
100
AcDbLine
 10
54.4731
 20
193.327975
 30
0.0
 11
57.14739999999999
 21
192.258275
 31
0.0
  0
LINE
  5
F7
330
1E
100
AcDbEntity
  8
0
100
AcDbLine
 10
52.1109
 20
195.1108749999999
 30
0.0
 11
54.4731
 21
193.327975
 31
0.0
  0
LINE
  5
F8
330
1E
100
AcDbEntity
  8
0
100
AcDbLine
 10
50.328
 20
197.4730749999999
 30
0.0
 11
52.1109
 21
195.1108749999999
 31
0.0
  0
LINE
  5
F9
330
1E
100
AcDbEntity
  8
0
100
AcDbLine
 10
50.79600000000001
 20
193.795975
 30
0.0
 11
53.55199999999999
 21
191.7159749999999
 31
0.0
  0
LINE
  5
FA
330
1E
100
AcDbEntity
  8
0
100
AcDbLine
 10
50.79600000000001
 20
193.795975
 30
0.0
 11
52.7012265751552
 21
192.358068150826
 31
0.0
  0
LINE
  5
FB
330
1E
100
AcDbEntity
  8
0
100
AcDbLine
 10
48.716
 20
196.551975
 30
0.0
 11
50.79600000000001
 21
193.795975
 31
0.0
  0
LINE
  5
FC
330
1E
100
AcDbEntity
  8
0
100
AcDbLine
 10
49.2583
 20
200.147375
 30
0.0
 11
50.328
 21
197.4730749999999
 31
0.0
  0
LINE
  5
FD
330
1E
100
AcDbEntity
  8
0
100
AcDbLine
 10
47.468
 20
199.671975
 30
0.0
 11
48.716
 21
196.551975
 31
0.0
  0
LINE
  5
FE
330
1E
100
AcDbEntity
  8
0
100
AcDbLine
 10
37.5
 20
200.9999749999999
 30
0.0
 11
47.28125
 21
200.9999749999999
 31
0.0
  0
LINE
  5
FF
330
1E
100
AcDbEntity
  8
0
100
AcDbLine
 10
37.5
 20
200.9999749999999
 30
0.0
 11
47.0
 21
200.9999749999999
 31
0.0
  0
LINE
  5
100
330
1E
100
AcDbEntity
  8
0
100
AcDbLine
 10
35.0
 20
204.999975
 30
0.0
 11
35.2
 21
204.999975
 31
0.0
  0
LINE
  5
101
330
1E
100
AcDbEntity
  8
0
100
AcDbLine
 10
35.0
 20
204.999975
 30
0.0
 11
35.0
 21
200.9999749999999
 31
0.0
  0
LINE
  5
102
330
1E
100
AcDbEntity
  8
0
100
AcDbLine
 10
35.2
 20
204.999975
 30
0.0
 11
35.7
 21
204.999975
 31
0.0
  0
LINE
  5
103
330
1E
100
AcDbEntity
  8
0
100
AcDbLine
 10
35.7
 20
204.999975
 30
0.0
 11
36.5
 21
204.999975
 31
0.0
  0
LINE
  5
104
330
1E
100
AcDbEntity
  8
0
100
AcDbLine
 10
36.5
 20
204.999975
 30
0.0
 11
37.5
 21
204.999975
 31
0.0
  0
LINE
  5
105
330
1E
100
AcDbEntity
  8
0
100
AcDbLine
 10
48.0
 20
201.999975
 30
0.0
 11
48.0
 21
203.999975
 31
0.0
  0
LINE
  5
106
330
1E
100
AcDbEntity
  8
0
100
AcDbLine
 10
46.0
 20
201.999975
 30
0.0
 11
48.0
 21
201.999975
 31
0.0
  0
LINE
  5
107
330
1E
100
AcDbEntity
  8
0
100
AcDbLine
 10
46.0
 20
201.999975
 30
0.0
 11
47.14062499999999
 21
201.999975
 31
0.0
  0
LINE
  5
108
330
1E
100
AcDbEntity
  8
0
100
AcDbLine
 10
46.0
 20
201.999975
 30
0.0
 11
46.0
 21
203.999975
 31
0.0
  0
LINE
  5
109
330
1E
100
AcDbEntity
  8
0
100
AcDbLine
 10
48.8571
 20
202.9999749999999
 30
0.0
 11
49.2583
 21
200.147375
 31
0.0
  0
LINE
  5
10A
330
1E
100
AcDbEntity
  8
0
100
AcDbLine
 10
48.8571
 20
202.9999749999999
 30
0.0
 11
49.2583
 21
205.852575
 31
0.0
  0
LINE
  5
10B
330
1E
100
AcDbEntity
  8
0
100
AcDbLine
 10
48.0
 20
203.999975
 30
0.0
 11
48.0
 21
201.999975
 31
0.0
  0
LINE
  5
10C
330
1E
100
AcDbEntity
  8
0
100
AcDbLine
 10
46.0
 20
203.999975
 30
0.0
 11
46.0
 21
201.999975
 31
0.0
  0
LINE
  5
10D
330
1E
100
AcDbEntity
  8
0
100
AcDbLine
 10
46.0
 20
203.999975
 30
0.0
 11
48.0
 21
203.999975
 31
0.0
  0
LINE
  5
10E
330
1E
100
AcDbEntity
  8
0
100
AcDbLine
 10
49.2583
 20
205.852575
 30
0.0
 11
50.328
 21
208.526875
 31
0.0
  0
LINE
  5
10F
330
1E
100
AcDbEntity
  8
0
100
AcDbLine
 10
50.328
 20
208.526875
 30
0.0
 11
52.1109
 21
210.889075
 31
0.0
  0
LINE
  5
110
330
1E
100
AcDbEntity
  8
0
100
AcDbLine
 10
48.716
 20
209.447975
 30
0.0
 11
50.79600000000001
 21
212.203975
 31
0.0
  0
LINE
  5
111
330
1E
100
AcDbEntity
  8
0
100
AcDbLine
 10
53.13399999999999
 20
212.892275
 30
0.0
 11
54.86600000000001
 21
213.892275
 31
0.0
  0
LINE
  5
112
330
1E
100
AcDbEntity
  8
0
100
AcDbLine
 10
52.134
 20
214.624375
 30
0.0
 11
53.86600000000001
 21
215.6243749999999
 31
0.0
  0
LINE
  5
113
330
1E
100
AcDbEntity
  8
0
100
AcDbLine
 10
52.134
 20
214.624375
 30
0.0
 11
53.13399999999999
 21
212.892275
 31
0.0
  0
LINE
  5
114
330
1E
100
AcDbEntity
  8
0
100
AcDbLine
 10
54.4731
 20
212.6719749999999
 30
0.0
 11
57.14739999999999
 21
213.7416749999999
 31
0.0
  0
LINE
  5
115
330
1E
100
AcDbEntity
  8
0
100
AcDbLine
 10
53.55199999999999
 20
214.2839749999999
 30
0.0
 11
56.672
 21
215.5319749999999
 31
0.0
  0
LINE
  5
116
330
1E
100
AcDbEntity
  8
0
100
AcDbLine
 10
52.1109
 20
210.889075
 30
0.0
 11
54.4731
 21
212.6719749999999
 31
0.0
  0
LINE
  5
117
330
1E
100
AcDbEntity
  8
0
100
AcDbLine
 10
57.14739999999999
 20
213.7416749999999
 30
0.0
 11
60.0
 21
214.142875
 31
0.0
  0
LINE
  5
118
330
1E
100
AcDbEntity
  8
0
100
AcDbLine
 10
53.86600000000001
 20
215.6243749999999
 30
0.0
 11
54.86600000000001
 21
213.892275
 31
0.0
  0
LINE
  5
119
330
1E
100
AcDbEntity
  8
0
100
AcDbLine
 10
56.672
 20
215.5319749999999
 30
0.0
 11
60.0
 21
215.999975
 31
0.0
  0
LINE
  5
11A
330
1E
100
AcDbEntity
  8
0
100
AcDbLine
 10
54.435766896487
 20
214.637481758595
 30
0.0
 11
56.672
 21
215.5319749999999
 31
0.0
  0
LINE
  5
11B
330
1E
100
AcDbEntity
  8
0
100
AcDbLine
 10
50.79600000000001
 20
212.203975
 30
0.0
 11
52.7012265751552
 21
213.641881849174
 31
0.0
  0
LINE
  5
11C
330
1E
100
AcDbEntity
  8
0
100
AcDbLine
 10
50.79600000000001
 20
212.203975
 30
0.0
 11
53.55199999999999
 21
214.2839749999999
 31
0.0
  0
LINE
  5
11D
330
1E
100
AcDbEntity
  8
0
100
AcDbLine
 10
47.468
 20
206.3279749999999
 30
0.0
 11
48.716
 21
209.447975
 31
0.0
  0
LINE
  5
11E
330
1E
100
AcDbEntity
  8
0
100
AcDbLine
 10
60.0
 20
214.142875
 30
0.0
 11
62.8526
 21
213.7416749999999
 31
0.0
  0
LINE
  5
11F
330
1E
100
AcDbEntity
  8
0
100
AcDbLine
 10
47.0
 20
202.9999749999999
 30
0.0
 11
47.468
 21
199.671975
 31
0.0
  0
LINE
  5
120
330
1E
100
AcDbEntity
  8
0
100
AcDbLine
 10
47.0
 20
202.9999749999999
 30
0.0
 11
47.468
 21
206.3279749999999
 31
0.0
  0
LINE
  5
121
330
1E
100
AcDbEntity
  8
0
100
AcDbLine
 10
37.5
 20
204.999975
 30
0.0
 11
47.28125
 21
204.999975
 31
0.0
  0
LINE
  5
122
330
1E
100
AcDbEntity
  8
0
100
AcDbLine
 10
47.0
 20
200.9999749999999
 30
0.0
 11
47.0
 21
175.999975
 31
0.0
  0
LINE
  5
123
330
1E
100
AcDbEntity
  8
0
100
AcDbLine
 10
65.134
 20
192.107675
 30
0.0
 11
66.134
 21
190.375575
 31
0.0
  0
LINE
  5
124
330
1E
100
AcDbEntity
  8
0
100
AcDbLine
 10
65.134
 20
192.107675
 30
0.0
 11
66.866
 21
193.107675
 31
0.0
  0
LINE
  5
125
330
1E
100
AcDbEntity
  8
0
100
AcDbLine
 10
66.866
 20
193.107675
 30
0.0
 11
67.86599999999999
 21
191.3755749999999
 31
0.0
  0
LINE
  5
126
330
1E
100
AcDbEntity
  8
0
100
AcDbLine
 10
62.8526
 20
192.258275
 30
0.0
 11
65.5269
 21
193.327975
 31
0.0
  0
LINE
  5
127
330
1E
100
AcDbEntity
  8
0
100
AcDbLine
 10
65.5269
 20
193.327975
 30
0.0
 11
67.8891
 21
195.1108749999999
 31
0.0
  0
LINE
  5
128
330
1E
100
AcDbEntity
  8
0
100
AcDbLine
 10
69.20399999999999
 20
193.795975
 30
0.0
 11
71.28399999999999
 21
196.551975
 31
0.0
  0
LINE
  5
129
330
1E
100
AcDbEntity
  8
0
100
AcDbLine
 10
67.29877342484479
 20
192.358068150826
 30
0.0
 11
69.20399999999999
 21
193.795975
 31
0.0
  0
LINE
  5
12A
330
1E
100
AcDbEntity
  8
0
100
AcDbLine
 10
67.8891
 20
195.1108749999999
 30
0.0
 11
69.672
 21
197.4730749999999
 31
0.0
  0
LINE
  5
12B
330
1E
100
AcDbEntity
  8
0
100
AcDbLine
 10
71.28399999999999
 20
196.551975
 30
0.0
 11
72.53199999999999
 21
199.671975
 31
0.0
  0
LINE
  5
12C
330
1E
100
AcDbEntity
  8
0
100
AcDbLine
 10
69.672
 20
197.4730749999999
 30
0.0
 11
70.74169999999999
 21
200.147375
 31
0.0
  0
LINE
  5
12D
330
1E
100
AcDbEntity
  8
0
100
AcDbLine
 10
72.53199999999999
 20
199.671975
 30
0.0
 11
72.859375
 21
201.999975
 31
0.0
  0
LINE
  5
12E
330
1E
100
AcDbEntity
  8
0
100
AcDbLine
 10
72.53199999999999
 20
199.671975
 30
0.0
 11
73.0
 21
202.9999749999999
 31
0.0
  0
LINE
  5
12F
330
1E
100
AcDbEntity
  8
0
100
AcDbLine
 10
72.0
 20
201.999975
 30
0.0
 11
74.0
 21
201.999975
 31
0.0
  0
LINE
  5
130
330
1E
100
AcDbEntity
  8
0
100
AcDbLine
 10
72.0
 20
201.999975
 30
0.0
 11
72.0
 21
203.999975
 31
0.0
  0
LINE
  5
131
330
1E
100
AcDbEntity
  8
0
100
AcDbLine
 10
72.0
 20
203.999975
 30
0.0
 11
74.0
 21
203.999975
 31
0.0
  0
LINE
  5
132
330
1E
100
AcDbEntity
  8
0
100
AcDbLine
 10
72.0
 20
203.999975
 30
0.0
 11
72.0
 21
201.999975
 31
0.0
  0
LINE
  5
133
330
1E
100
AcDbEntity
  8
0
100
AcDbLine
 10
70.74169999999999
 20
205.852575
 30
0.0
 11
71.1429
 21
202.9999749999999
 31
0.0
  0
LINE
  5
134
330
1E
100
AcDbEntity
  8
0
100
AcDbLine
 10
69.672
 20
208.526875
 30
0.0
 11
70.74169999999999
 21
205.852575
 31
0.0
  0
LINE
  5
135
330
1E
100
AcDbEntity
  8
0
100
AcDbLine
 10
70.74169999999999
 20
205.852575
 30
0.0
 11
71.1429
 21
202.9999749999999
 31
0.0
  0
LINE
  5
136
330
1E
100
AcDbEntity
  8
0
100
AcDbLine
 10
72.859375
 20
201.999975
 30
0.0
 11
74.0
 21
201.999975
 31
0.0
  0
LINE
  5
137
330
1E
100
AcDbEntity
  8
0
100
AcDbLine
 10
74.0
 20
203.999975
 30
0.0
 11
74.0
 21
201.999975
 31
0.0
  0
LINE
  5
138
330
1E
100
AcDbEntity
  8
0
100
AcDbLine
 10
74.0
 20
201.999975
 30
0.0
 11
74.0
 21
203.999975
 31
0.0
  0
LINE
  5
139
330
1E
100
AcDbEntity
  8
0
100
AcDbLine
 10
72.53199999999999
 20
206.3279749999999
 30
0.0
 11
72.859375
 21
203.999975
 31
0.0
  0
LINE
  5
13A
330
1E
100
AcDbEntity
  8
0
100
AcDbLine
 10
72.53199999999999
 20
206.3279749999999
 30
0.0
 11
73.0
 21
202.9999749999999
 31
0.0
  0
LINE
  5
13B
330
1E
100
AcDbEntity
  8
0
100
AcDbLine
 10
70.74169999999999
 20
200.147375
 30
0.0
 11
71.1429
 21
202.9999749999999
 31
0.0
  0
LINE
  5
13C
330
1E
100
AcDbEntity
  8
0
100
AcDbLine
 10
92.0
 20
206.3279749999999
 30
0.0
 11
92.0
 21
202.9999749999999
 31
0.0
  0
LINE
  5
13D
330
1E
100
AcDbEntity
  8
0
100
AcDbLine
 10
92.0
 20
206.3279749999999
 30
0.0
 11
92.0
 21
209.447975
 31
0.0
  0
LINE
  5
13E
330
1E
100
AcDbEntity
  8
0
100
AcDbLine
 10
67.8891
 20
210.889075
 30
0.0
 11
69.672
 21
208.526875
 31
0.0
  0
LINE
  5
13F
330
1E
100
AcDbEntity
  8
0
100
AcDbLine
 10
65.134
 20
213.892275
 30
0.0
 11
66.134
 21
215.6243749999999
 31
0.0
  0
LINE
  5
140
330
1E
100
AcDbEntity
  8
0
100
AcDbLine
 10
65.134
 20
213.892275
 30
0.0
 11
66.866
 21
212.892275
 31
0.0
  0
LINE
  5
141
330
1E
100
AcDbEntity
  8
0
100
AcDbLine
 10
62.8526
 20
213.7416749999999
 30
0.0
 11
65.5269
 21
212.6719749999999
 31
0.0
  0
LINE
  5
142
330
1E
100
AcDbEntity
  8
0
100
AcDbLine
 10
66.866
 20
212.892275
 30
0.0
 11
67.86599999999999
 21
214.624375
 31
0.0
  0
LINE
  5
143
330
1E
100
AcDbEntity
  8
0
100
AcDbLine
 10
65.5269
 20
212.6719749999999
 30
0.0
 11
67.8891
 21
210.889075
 31
0.0
  0
LINE
  5
144
330
1E
100
AcDbEntity
  8
0
100
AcDbLine
 10
66.448
 20
214.2839749999999
 30
0.0
 11
69.20399999999999
 21
212.203975
 31
0.0
  0
LINE
  5
145
330
1E
100
AcDbEntity
  8
0
100
AcDbLine
 10
67.29877342484479
 20
213.641881849174
 30
0.0
 11
69.20399999999999
 21
212.203975
 31
0.0
  0
LINE
  5
146
330
1E
100
AcDbEntity
  8
0
100
AcDbLine
 10
69.20399999999999
 20
212.203975
 30
0.0
 11
71.28399999999999
 21
209.447975
 31
0.0
  0
LINE
  5
147
330
1E
100
AcDbEntity
  8
0
100
AcDbLine
 10
71.28399999999999
 20
209.447975
 30
0.0
 11
72.53199999999999
 21
206.3279749999999
 31
0.0
  0
LINE
  5
148
330
1E
100
AcDbEntity
  8
0
100
AcDbLine
 10
92.0
 20
209.447975
 30
0.0
 11
92.0
 21
206.3279749999999
 31
0.0
  0
LINE
  5
149
330
1E
100
AcDbEntity
  8
0
100
AcDbLine
 10
92.0
 20
209.447975
 30
0.0
 11
92.0
 21
212.203975
 31
0.0
  0
LINE
  5
14A
330
1E
100
AcDbEntity
  8
0
100
AcDbLine
 10
92.0
 20
212.203975
 30
0.0
 11
92.0
 21
209.447975
 31
0.0
  0
LINE
  5
14B
330
1E
100
AcDbEntity
  8
0
100
AcDbLine
 10
92.0
 20
212.203975
 30
0.0
 11
92.0
 21
214.2839749999999
 31
0.0
  0
LINE
  5
14C
330
1E
100
AcDbEntity
  8
0
100
AcDbLine
 10
66.134
 20
215.6243749999999
 30
0.0
 11
67.86599999999999
 21
214.624375
 31
0.0
  0
LINE
  5
14D
330
1E
100
AcDbEntity
  8
0
100
AcDbLine
 10
63.328
 20
215.5319749999999
 30
0.0
 11
66.448
 21
214.2839749999999
 31
0.0
  0
LINE
  5
14E
330
1E
100
AcDbEntity
  8
0
100
AcDbLine
 10
63.328
 20
215.5319749999999
 30
0.0
 11
65.564233103513
 21
214.637481758595
 31
0.0
  0
LINE
  5
14F
330
1E
100
AcDbEntity
  8
0
100
AcDbLine
 10
92.0
 20
214.2839749999999
 30
0.0
 11
92.0
 21
212.203975
 31
0.0
  0
LINE
  5
150
330
1E
100
AcDbEntity
  8
0
100
AcDbLine
 10
92.0
 20
214.2839749999999
 30
0.0
 11
92.0
 21
215.5319749999999
 31
0.0
  0
LINE
  5
151
330
1E
100
AcDbEntity
  8
0
100
AcDbLine
 10
92.0
 20
215.5319749999999
 30
0.0
 11
92.0
 21
214.2839749999999
 31
0.0
  0
LINE
  5
152
330
1E
100
AcDbEntity
  8
0
100
AcDbLine
 10
92.0
 20
215.5319749999999
 30
0.0
 11
92.0
 21
215.999975
 31
0.0
  0
LINE
  5
153
330
1E
100
AcDbEntity
  8
0
100
AcDbLine
 10
92.0
 20
215.999975
 30
0.0
 11
92.0
 21
215.5319749999999
 31
0.0
  0
LINE
  5
154
330
1E
100
AcDbEntity
  8
0
100
AcDbLine
 10
92.0
 20
202.9999749999999
 30
0.0
 11
92.0
 21
199.671975
 31
0.0
  0
LINE
  5
155
330
1E
100
AcDbEntity
  8
0
100
AcDbLine
 10
92.0
 20
202.9999749999999
 30
0.0
 11
92.0
 21
206.3279749999999
 31
0.0
  0
LINE
  5
156
330
1E
100
AcDbEntity
  8
0
100
AcDbLine
 10
92.0
 20
199.671975
 30
0.0
 11
92.0
 21
196.551975
 31
0.0
  0
LINE
  5
157
330
1E
100
AcDbEntity
  8
0
100
AcDbLine
 10
92.0
 20
199.671975
 30
0.0
 11
92.0
 21
202.9999749999999
 31
0.0
  0
LINE
  5
158
330
1E
100
AcDbEntity
  8
0
100
AcDbLine
 10
92.0
 20
196.551975
 30
0.0
 11
92.0
 21
193.795975
 31
0.0
  0
LINE
  5
159
330
1E
100
AcDbEntity
  8
0
100
AcDbLine
 10
92.0
 20
196.551975
 30
0.0
 11
92.0
 21
199.671975
 31
0.0
  0
LINE
  5
15A
330
1E
100
AcDbEntity
  8
0
100
AcDbLine
 10
92.0
 20
193.795975
 30
0.0
 11
92.0
 21
191.7159749999999
 31
0.0
  0
LINE
  5
15B
330
1E
100
AcDbEntity
  8
0
100
AcDbLine
 10
92.0
 20
193.795975
 30
0.0
 11
92.0
 21
196.551975
 31
0.0
  0
LINE
  5
15C
330
1E
100
AcDbEntity
  8
0
100
AcDbLine
 10
60.0
 20
215.999975
 30
0.0
 11
92.0
 21
215.999975
 31
0.0
  0
LINE
  5
15D
330
1E
100
AcDbEntity
  8
0
100
AcDbLine
 10
60.0
 20
215.999975
 30
0.0
 11
63.328
 21
215.5319749999999
 31
0.0
  0
LINE
  5
15E
330
1E
100
AcDbEntity
  8
0
100
AcDbLine
 10
92.0
 20
191.999975
 30
0.0
 11
132.0
 21
191.999975
 31
0.0
  0
LINE
  5
15F
330
1E
100
AcDbEntity
  8
0
100
AcDbLine
 10
132.0
 20
191.7159749999999
 30
0.0
 11
132.0
 21
190.4679749999999
 31
0.0
  0
LINE
  5
160
330
1E
100
AcDbEntity
  8
0
100
AcDbLine
 10
132.0
 20
191.7159749999999
 30
0.0
 11
132.0
 21
193.795975
 31
0.0
  0
LINE
  5
161
330
1E
100
AcDbEntity
  8
0
100
AcDbLine
 10
132.0
 20
191.7159749999999
 30
0.0
 11
132.0
 21
191.999975
 31
0.0
  0
LINE
  5
162
330
1E
100
AcDbEntity
  8
0
100
AcDbLine
 10
132.0
 20
191.7159749999999
 30
0.0
 11
132.0
 21
190.4679749999999
 31
0.0
  0
LINE
  5
163
330
1E
100
AcDbEntity
  8
0
100
AcDbLine
 10
132.0
 20
190.4679749999999
 30
0.0
 11
132.0
 21
191.7159749999999
 31
0.0
  0
LINE
  5
164
330
1E
100
AcDbEntity
  8
0
100
AcDbLine
 10
132.0
 20
190.4679749999999
 30
0.0
 11
132.0
 21
189.999975
 31
0.0
  0
LINE
  5
165
330
1E
100
AcDbEntity
  8
0
100
AcDbLine
 10
132.0
 20
190.4679749999999
 30
0.0
 11
132.0
 21
191.7159749999999
 31
0.0
  0
LINE
  5
166
330
1E
100
AcDbEntity
  8
0
100
AcDbLine
 10
132.0
 20
189.999975
 30
0.0
 11
132.0
 21
190.4679749999999
 31
0.0
  0
LINE
  5
167
330
1E
100
AcDbEntity
  8
0
100
AcDbLine
 10
132.0
 20
189.999975
 30
0.0
 11
147.0
 21
189.999975
 31
0.0
  0
LINE
  5
168
330
1E
100
AcDbEntity
  8
0
100
AcDbLine
 10
132.0
 20
196.551975
 30
0.0
 11
132.0
 21
193.795975
 31
0.0
  0
LINE
  5
169
330
1E
100
AcDbEntity
  8
0
100
AcDbLine
 10
132.0
 20
196.551975
 30
0.0
 11
132.0
 21
199.671975
 31
0.0
  0
LINE
  5
16A
330
1E
100
AcDbEntity
  8
0
100
AcDbLine
 10
132.0
 20
193.795975
 30
0.0
 11
132.0
 21
191.7159749999999
 31
0.0
  0
LINE
  5
16B
330
1E
100
AcDbEntity
  8
0
100
AcDbLine
 10
132.0
 20
193.795975
 30
0.0
 11
132.0
 21
196.551975
 31
0.0
  0
LINE
  5
16C
330
1E
100
AcDbEntity
  8
0
100
AcDbLine
 10
132.0
 20
199.671975
 30
0.0
 11
132.0
 21
196.551975
 31
0.0
  0
LINE
  5
16D
330
1E
100
AcDbEntity
  8
0
100
AcDbLine
 10
132.0
 20
199.671975
 30
0.0
 11
132.0
 21
202.9999749999999
 31
0.0
  0
LINE
  5
16E
330
1E
100
AcDbEntity
  8
0
100
AcDbLine
 10
132.0
 20
202.9999749999999
 30
0.0
 11
132.0
 21
205.815975
 31
0.0
  0
LINE
  5
16F
330
1E
100
AcDbEntity
  8
0
100
AcDbLine
 10
132.0
 20
202.9999749999999
 30
0.0
 11
132.0
 21
199.671975
 31
0.0
  0
LINE
  5
170
330
1E
100
AcDbEntity
  8
0
100
AcDbLine
 10
132.0
 20
202.9999749999999
 30
0.0
 11
132.0
 21
206.3279749999999
 31
0.0
  0
LINE
  5
171
330
1E
100
AcDbEntity
  8
0
100
AcDbLine
 10
132.0
 20
206.3279749999999
 30
0.0
 11
132.0
 21
202.9999749999999
 31
0.0
  0
LINE
  5
172
330
1E
100
AcDbEntity
  8
0
100
AcDbLine
 10
132.0
 20
206.3279749999999
 30
0.0
 11
132.0
 21
209.447975
 31
0.0
  0
LINE
  5
173
330
1E
100
AcDbEntity
  8
0
100
AcDbLine
 10
132.0
 20
209.447975
 30
0.0
 11
132.0
 21
206.3279749999999
 31
0.0
  0
LINE
  5
174
330
1E
100
AcDbEntity
  8
0
100
AcDbLine
 10
132.0
 20
209.447975
 30
0.0
 11
132.0
 21
212.203975
 31
0.0
  0
LINE
  5
175
330
1E
100
AcDbEntity
  8
0
100
AcDbLine
 10
132.0
 20
205.815975
 30
0.0
 11
132.0
 21
208.4559749999999
 31
0.0
  0
LINE
  5
176
330
1E
100
AcDbEntity
  8
0
100
AcDbLine
 10
132.0
 20
208.4559749999999
 30
0.0
 11
132.0
 21
210.7879749999999
 31
0.0
  0
LINE
  5
177
330
1E
100
AcDbEntity
  8
0
100
AcDbLine
 10
132.0
 20
212.203975
 30
0.0
 11
132.0
 21
209.447975
 31
0.0
  0
LINE
  5
178
330
1E
100
AcDbEntity
  8
0
100
AcDbLine
 10
132.0
 20
212.203975
 30
0.0
 11
132.0
 21
214.2839749999999
 31
0.0
  0
LINE
  5
179
330
1E
100
AcDbEntity
  8
0
100
AcDbLine
 10
132.0
 20
210.7879749999999
 30
0.0
 11
132.0
 21
212.547975
 31
0.0
  0
LINE
  5
17A
330
1E
100
AcDbEntity
  8
0
100
AcDbLine
 10
132.0
 20
212.547975
 30
0.0
 11
132.0
 21
213.603975
 31
0.0
  0
LINE
  5
17B
330
1E
100
AcDbEntity
  8
0
100
AcDbLine
 10
132.0
 20
213.999975
 30
0.0
 11
132.0
 21
214.2839749999999
 31
0.0
  0
LINE
  5
17C
330
1E
100
AcDbEntity
  8
0
100
AcDbLine
 10
132.0
 20
214.2839749999999
 30
0.0
 11
132.0
 21
215.5319749999999
 31
0.0
  0
LINE
  5
17D
330
1E
100
AcDbEntity
  8
0
100
AcDbLine
 10
132.0
 20
214.2839749999999
 30
0.0
 11
132.0
 21
213.999975
 31
0.0
  0
LINE
  5
17E
330
1E
100
AcDbEntity
  8
0
100
AcDbLine
 10
132.0
 20
214.2839749999999
 30
0.0
 11
132.0
 21
212.203975
 31
0.0
  0
LINE
  5
17F
330
1E
100
AcDbEntity
  8
0
100
AcDbLine
 10
132.0
 20
215.5319749999999
 30
0.0
 11
132.0
 21
215.999975
 31
0.0
  0
LINE
  5
180
330
1E
100
AcDbEntity
  8
0
100
AcDbLine
 10
132.0
 20
215.5319749999999
 30
0.0
 11
132.0
 21
214.2839749999999
 31
0.0
  0
LINE
  5
181
330
1E
100
AcDbEntity
  8
0
100
AcDbLine
 10
132.0
 20
215.999975
 30
0.0
 11
188.0
 21
215.999975
 31
0.0
  0
LINE
  5
182
330
1E
100
AcDbEntity
  8
0
100
AcDbLine
 10
132.0
 20
215.999975
 30
0.0
 11
132.0
 21
215.5319749999999
 31
0.0
  0
LINE
  5
183
330
1E
100
AcDbEntity
  8
0
100
AcDbLine
 10
132.0
 20
213.603975
 30
0.0
 11
132.0
 21
213.999975
 31
0.0
  0
LINE
  5
184
330
1E
100
AcDbEntity
  8
0
100
AcDbLine
 10
132.0
 20
200.183975
 30
0.0
 11
132.0
 21
202.9999749999999
 31
0.0
  0
LINE
  5
185
330
1E
100
AcDbEntity
  8
0
100
AcDbLine
 10
132.0
 20
197.5439749999999
 30
0.0
 11
132.0
 21
200.183975
 31
0.0
  0
LINE
  5
186
330
1E
100
AcDbEntity
  8
0
100
AcDbLine
 10
132.0
 20
195.2119749999999
 30
0.0
 11
132.0
 21
197.5439749999999
 31
0.0
  0
LINE
  5
187
330
1E
100
AcDbEntity
  8
0
100
AcDbLine
 10
132.0
 20
193.4519749999999
 30
0.0
 11
132.0
 21
195.2119749999999
 31
0.0
  0
LINE
  5
188
330
1E
100
AcDbEntity
  8
0
100
AcDbLine
 10
132.0
 20
192.395975
 30
0.0
 11
132.0
 21
193.4519749999999
 31
0.0
  0
LINE
  5
189
330
1E
100
AcDbEntity
  8
0
100
AcDbLine
 10
132.0
 20
191.999975
 30
0.0
 11
132.0
 21
192.395975
 31
0.0
  0
LINE
  5
18A
330
1E
100
AcDbEntity
  8
0
100
AcDbLine
 10
132.0
 20
191.999975
 30
0.0
 11
132.0
 21
191.7159749999999
 31
0.0
  0
LINE
  5
18B
330
1E
100
AcDbEntity
  8
0
100
AcDbLine
 10
92.0
 20
213.999975
 30
0.0
 11
132.0
 21
213.999975
 31
0.0
  0
LINE
  5
18C
330
1E
100
AcDbEntity
  8
0
100
AcDbLine
 10
25.0
 20
175.999975
 30
0.0
 11
25.2
 21
175.999975
 31
0.0
  0
LINE
  5
18D
330
1E
100
AcDbEntity
  8
0
100
AcDbLine
 10
25.0
 20
175.999975
 30
0.0
 11
25.0
 21
169.999975
 31
0.0
  0
LINE
  5
18E
330
1E
100
AcDbEntity
  8
0
100
AcDbLine
 10
135.6999999999999
 20
168.999975
 30
0.0
 11
140.1999999999999
 21
168.999975
 31
0.0
  0
LINE
  5
18F
330
1E
100
AcDbEntity
  8
0
100
AcDbLine
 10
144.5999999999999
 20
168.999975
 30
0.0
 11
146.1
 21
168.999975
 31
0.0
  0
LINE
  5
190
330
1E
100
AcDbEntity
  8
0
100
AcDbLine
 10
144.0
 20
168.999975
 30
0.0
 11
144.5999999999999
 21
168.999975
 31
0.0
  0
LINE
  5
191
330
1E
100
AcDbEntity
  8
0
100
AcDbLine
 10
140.1999999999999
 20
168.999975
 30
0.0
 11
146.1
 21
168.999975
 31
0.0
  0
LINE
  5
192
330
1E
100
AcDbEntity
  8
0
100
AcDbLine
 10
141.1999999999999
 20
168.999975
 30
0.0
 11
146.5
 21
168.999975
 31
0.0
  0
LINE
  5
193
330
1E
100
AcDbEntity
  8
0
100
AcDbLine
 10
146.1
 20
168.999975
 30
0.0
 11
152.8
 21
168.999975
 31
0.0
  0
LINE
  5
194
330
1E
100
AcDbEntity
  8
0
100
AcDbLine
 10
146.1
 20
168.999975
 30
0.0
 11
148.6999999999999
 21
168.999975
 31
0.0
  0
LINE
  5
195
330
1E
100
AcDbEntity
  8
0
100
AcDbLine
 10
149.5
 20
28.319275
 30
0.0
 11
149.5
 21
31.165475
 31
0.0
  0
LINE
  5
196
330
1E
100
AcDbEntity
  8
0
100
AcDbLine
 10
149.5
 20
28.319275
 30
0.0
 11
149.5
 21
25.921175
 31
0.0
  0
LINE
  5
197
330
1E
100
AcDbEntity
  8
0
100
AcDbLine
 10
149.5
 20
25.921175
 30
0.0
 11
149.5
 21
28.319275
 31
0.0
  0
LINE
  5
198
330
1E
100
AcDbEntity
  8
0
100
AcDbLine
 10
149.5
 20
25.921175
 30
0.0
 11
149.5
 21
24.011975
 31
0.0
  0
LINE
  5
199
330
1E
100
AcDbEntity
  8
0
100
AcDbLine
 10
149.5
 20
31.165475
 30
0.0
 11
149.5
 21
34.410875
 31
0.0
  0
LINE
  5
19A
330
1E
100
AcDbEntity
  8
0
100
AcDbLine
 10
149.5
 20
31.165475
 30
0.0
 11
149.5
 21
28.319275
 31
0.0
  0
LINE
  5
19B
330
1E
100
AcDbEntity
  8
0
100
AcDbLine
 10
149.5
 20
41.871375
 30
0.0
 11
149.5
 21
45.958975
 31
0.0
  0
LINE
  5
19C
330
1E
100
AcDbEntity
  8
0
100
AcDbLine
 10
149.5
 20
41.871375
 30
0.0
 11
149.5
 21
37.99997499999999
 31
0.0
  0
LINE
  5
19D
330
1E
100
AcDbEntity
  8
0
100
AcDbLine
 10
149.5
 20
45.958975
 30
0.0
 11
149.5
 21
50.192575
 31
0.0
  0
LINE
  5
19E
330
1E
100
AcDbEntity
  8
0
100
AcDbLine
 10
149.5
 20
45.958975
 30
0.0
 11
149.5
 21
41.871375
 31
0.0
  0
LINE
  5
19F
330
1E
100
AcDbEntity
  8
0
100
AcDbLine
 10
149.5
 20
50.192575
 30
0.0
 11
149.5
 21
45.958975
 31
0.0
  0
LINE
  5
1A0
330
1E
100
AcDbEntity
  8
0
100
AcDbLine
 10
149.5
 20
50.192575
 30
0.0
 11
149.5
 21
54.499975
 31
0.0
  0
LINE
  5
1A1
330
1E
100
AcDbEntity
  8
0
100
AcDbLine
 10
149.5
 20
37.99997499999999
 30
0.0
 11
149.5
 21
34.410875
 31
0.0
  0
LINE
  5
1A2
330
1E
100
AcDbEntity
  8
0
100
AcDbLine
 10
149.5
 20
37.99997499999999
 30
0.0
 11
149.5
 21
41.871375
 31
0.0
  0
LINE
  5
1A3
330
1E
100
AcDbEntity
  8
0
100
AcDbLine
 10
149.5
 20
34.410875
 30
0.0
 11
149.5
 21
31.165475
 31
0.0
  0
LINE
  5
1A4
330
1E
100
AcDbEntity
  8
0
100
AcDbLine
 10
149.5
 20
34.410875
 30
0.0
 11
149.5
 21
37.99997499999999
 31
0.0
  0
LINE
  5
1A5
330
1E
100
AcDbEntity
  8
0
100
AcDbLine
 10
149.5
 20
24.011975
 30
0.0
 11
149.5
 21
9.866794999999999
 31
0.0
  0
LINE
  5
1A6
330
1E
100
AcDbEntity
  8
0
100
AcDbLine
 10
149.5
 20
24.011975
 30
0.0
 11
149.5
 21
25.921175
 31
0.0
  0
LINE
  5
1A7
330
1E
100
AcDbEntity
  8
0
100
AcDbLine
 10
149.5
 20
9.866794999999999
 30
0.0
 11
149.5
 21
24.011975
 31
0.0
  0
LINE
  5
1A8
330
1E
100
AcDbEntity
  8
0
100
AcDbLine
 10
149.5
 20
9.866794999999999
 30
0.0
 11
149.9
 21
7.329625
 31
0.0
  0
LINE
  5
1A9
330
1E
100
AcDbEntity
  8
0
100
AcDbLine
 10
160.0
 20
0.0000249999999999
 30
0.0
 11
162.6999999999999
 21
0.375902
 31
0.0
  0
LINE
  5
1AA
330
1E
100
AcDbEntity
  8
0
100
AcDbLine
 10
162.6999999999999
 20
0.375902
 30
0.0
 11
165.1999999999999
 21
1.315595
 31
0.0
  0
LINE
  5
1AB
330
1E
100
AcDbEntity
  8
0
100
AcDbLine
 10
162.6999999999999
 20
0.375902
 30
0.0
 11
165.1999999999999
 21
1.315595
 31
0.0
  0
LINE
  5
1AC
330
1E
100
AcDbEntity
  8
0
100
AcDbLine
 10
160.0
 20
0.0000249999999999
 30
0.0
 11
162.6999999999999
 21
0.375902
 31
0.0
  0
LINE
  5
1AD
330
1E
100
AcDbEntity
  8
0
100
AcDbLine
 10
149.9
 20
7.329625
 30
0.0
 11
150.9
 21
4.980394999999999
 31
0.0
  0
LINE
  5
1AE
330
1E
100
AcDbEntity
  8
0
100
AcDbLine
 10
150.9
 20
4.980394999999999
 30
0.0
 11
152.5999999999999
 21
2.913075
 31
0.0
  0
LINE
  5
1AF
330
1E
100
AcDbEntity
  8
0
100
AcDbLine
 10
152.5999999999999
 20
2.913075
 30
0.0
 11
154.8
 21
1.315595
 31
0.0
  0
LINE
  5
1B0
330
1E
100
AcDbEntity
  8
0
100
AcDbLine
 10
170.5
 20
9.866794999999999
 30
0.0
 11
170.5
 21
24.011975
 31
0.0
  0
LINE
  5
1B1
330
1E
100
AcDbEntity
  8
0
100
AcDbLine
 10
170.1
 20
7.329625
 30
0.0
 11
170.5
 21
9.866794999999999
 31
0.0
  0
LINE
  5
1B2
330
1E
100
AcDbEntity
  8
0
100
AcDbLine
 10
169.1
 20
4.980394999999999
 30
0.0
 11
170.1
 21
7.329625
 31
0.0
  0
LINE
  5
1B3
330
1E
100
AcDbEntity
  8
0
100
AcDbLine
 10
167.4
 20
2.913075
 30
0.0
 11
169.1
 21
4.980394999999999
 31
0.0
  0
LINE
  5
1B4
330
1E
100
AcDbEntity
  8
0
100
AcDbLine
 10
165.1999999999999
 20
1.315595
 30
0.0
 11
167.4
 21
2.913075
 31
0.0
  0
LINE
  5
1B5
330
1E
100
AcDbEntity
  8
0
100
AcDbLine
 10
170.5
 20
28.319275
 30
0.0
 11
170.5
 21
25.921175
 31
0.0
  0
LINE
  5
1B6
330
1E
100
AcDbEntity
  8
0
100
AcDbLine
 10
170.5
 20
28.319275
 30
0.0
 11
170.5
 21
31.165475
 31
0.0
  0
LINE
  5
1B7
330
1E
100
AcDbEntity
  8
0
100
AcDbLine
 10
170.5
 20
25.921175
 30
0.0
 11
170.5
 21
24.011975
 31
0.0
  0
LINE
  5
1B8
330
1E
100
AcDbEntity
  8
0
100
AcDbLine
 10
170.5
 20
25.921175
 30
0.0
 11
170.5
 21
28.319275
 31
0.0
  0
LINE
  5
1B9
330
1E
100
AcDbEntity
  8
0
100
AcDbLine
 10
170.5
 20
50.192575
 30
0.0
 11
170.5
 21
45.958975
 31
0.0
  0
LINE
  5
1BA
330
1E
100
AcDbEntity
  8
0
100
AcDbLine
 10
170.5
 20
50.192575
 30
0.0
 11
170.5
 21
54.499975
 31
0.0
  0
LINE
  5
1BB
330
1E
100
AcDbEntity
  8
0
100
AcDbLine
 10
170.5
 20
45.958975
 30
0.0
 11
170.5
 21
41.871375
 31
0.0
  0
LINE
  5
1BC
330
1E
100
AcDbEntity
  8
0
100
AcDbLine
 10
170.5
 20
45.958975
 30
0.0
 11
170.5
 21
50.192575
 31
0.0
  0
LINE
  5
1BD
330
1E
100
AcDbEntity
  8
0
100
AcDbLine
 10
170.5
 20
41.871375
 30
0.0
 11
170.5
 21
37.99997499999999
 31
0.0
  0
LINE
  5
1BE
330
1E
100
AcDbEntity
  8
0
100
AcDbLine
 10
170.5
 20
41.871375
 30
0.0
 11
170.5
 21
45.958975
 31
0.0
  0
LINE
  5
1BF
330
1E
100
AcDbEntity
  8
0
100
AcDbLine
 10
170.5
 20
37.99997499999999
 30
0.0
 11
170.5
 21
41.871375
 31
0.0
  0
LINE
  5
1C0
330
1E
100
AcDbEntity
  8
0
100
AcDbLine
 10
170.5
 20
37.99997499999999
 30
0.0
 11
170.5
 21
34.410875
 31
0.0
  0
LINE
  5
1C1
330
1E
100
AcDbEntity
  8
0
100
AcDbLine
 10
170.5
 20
34.410875
 30
0.0
 11
170.5
 21
37.99997499999999
 31
0.0
  0
LINE
  5
1C2
330
1E
100
AcDbEntity
  8
0
100
AcDbLine
 10
170.5
 20
34.410875
 30
0.0
 11
170.5
 21
31.165475
 31
0.0
  0
LINE
  5
1C3
330
1E
100
AcDbEntity
  8
0
100
AcDbLine
 10
170.5
 20
31.165475
 30
0.0
 11
170.5
 21
34.410875
 31
0.0
  0
LINE
  5
1C4
330
1E
100
AcDbEntity
  8
0
100
AcDbLine
 10
170.5
 20
31.165475
 30
0.0
 11
170.5
 21
28.319275
 31
0.0
  0
LINE
  5
1C5
330
1E
100
AcDbEntity
  8
0
100
AcDbLine
 10
170.5
 20
24.011975
 30
0.0
 11
170.5
 21
9.866794999999999
 31
0.0
  0
LINE
  5
1C6
330
1E
100
AcDbEntity
  8
0
100
AcDbLine
 10
170.5
 20
24.011975
 30
0.0
 11
170.5
 21
25.921175
 31
0.0
  0
LINE
  5
1C7
330
1E
100
AcDbEntity
  8
0
100
AcDbLine
 10
257.3999999999999
 20
124.999975
 30
0.0
 11
260.0
 21
124.999975
 31
0.0
  0
LINE
  5
1C8
330
1E
100
AcDbEntity
  8
0
100
AcDbLine
 10
255.0
 20
124.999975
 30
0.0
 11
257.3999999999999
 21
124.999975
 31
0.0
  0
LINE
  5
1C9
330
1E
100
AcDbEntity
  8
0
100
AcDbLine
 10
252.8999999999999
 20
124.999975
 30
0.0
 11
255.0
 21
124.999975
 31
0.0
  0
LINE
  5
1CA
330
1E
100
AcDbEntity
  8
0
100
AcDbLine
 10
251.3
 20
124.999975
 30
0.0
 11
252.8999999999999
 21
124.999975
 31
0.0
  0
LINE
  5
1CB
330
1E
100
AcDbEntity
  8
0
100
AcDbLine
 10
250.4
 20
124.999975
 30
0.0
 11
251.3
 21
124.999975
 31
0.0
  0
LINE
  5
1CC
330
1E
100
AcDbEntity
  8
0
100
AcDbLine
 10
250.0
 20
124.999975
 30
0.0
 11
250.4
 21
124.999975
 31
0.0
  0
LINE
  5
1CD
330
1E
100
AcDbEntity
  8
0
100
AcDbLine
 10
249.5
 20
125.499975
 30
0.0
 11
249.5
 21
126.9999749999999
 31
0.0
  0
LINE
  5
1CE
330
1E
100
AcDbEntity
  8
0
100
AcDbLine
 10
249.5
 20
125.499975
 30
0.0
 11
249.6999999999999
 21
125.1999749999999
 31
0.0
  0
LINE
  5
1D1
330
1E
100
AcDbEntity
  8
0
100
AcDbLine
 10
249.6999999999999
 20
125.1999749999999
 30
0.0
 11
250.0
 21
124.999975
 31
0.0
  0
LINE
  5
1D2
330
1E
100
AcDbEntity
  8
0
100
AcDbLine
 10
249.5
 20
126.9999749999999
 30
0.0
 11
249.5
 21
162.999975
 31
0.0
  0
LINE
  5
1D3
330
1E
100
AcDbEntity
  8
0
100
AcDbLine
 10
249.5
 20
126.9999749999999
 30
0.0
 11
249.5
 21
125.499975
 31
0.0
  0
LINE
  5
1D4
330
1E
100
AcDbEntity
  8
0
100
AcDbLine
 10
260.0
 20
124.999975
 30
0.0
 11
309.5
 21
124.999975
 31
0.0
  0
LINE
  5
1D5
330
1E
100
AcDbEntity
  8
0
100
AcDbLine
 10
309.5
 20
124.999975
 30
0.0
 11
312.1
 21
124.999975
 31
0.0
  0
LINE
  5
1D6
330
1E
100
AcDbEntity
  8
0
100
AcDbLine
 10
312.1
 20
124.999975
 30
0.0
 11
314.5
 21
124.999975
 31
0.0
  0
LINE
  5
1D7
330
1E
100
AcDbEntity
  8
0
100
AcDbLine
 10
314.5
 20
124.999975
 30
0.0
 11
316.6
 21
124.999975
 31
0.0
  0
LINE
  5
1D8
330
1E
100
AcDbEntity
  8
0
100
AcDbLine
 10
316.6
 20
124.999975
 30
0.0
 11
318.1999999999999
 21
124.999975
 31
0.0
  0
LINE
  5
1DA
330
1E
100
AcDbEntity
  8
0
100
AcDbLine
 10
318.1999999999999
 20
124.999975
 30
0.0
 11
319.1
 21
124.999975
 31
0.0
  0
LINE
  5
1DB
330
1E
100
AcDbEntity
  8
0
100
AcDbLine
 10
319.1
 20
124.999975
 30
0.0
 11
319.5
 21
124.999975
 31
0.0
  0
LINE
  5
1DC
330
1E
100
AcDbEntity
  8
0
100
AcDbLine
 10
319.5
 20
124.999975
 30
0.0
 11
319.8
 21
125.1999749999999
 31
0.0
  0
LINE
  5
1DD
330
1E
100
AcDbEntity
  8
0
100
AcDbLine
 10
319.8
 20
125.1999749999999
 30
0.0
 11
320.0
 21
125.499975
 31
0.0
  0
LINE
  5
1E1
330
1E
100
AcDbEntity
  8
0
100
AcDbLine
 10
314.678
 20
127.984975
 30
0.0
 11
317.0
 21
127.7999749999999
 31
0.0
  0
LINE
  5
1E3
330
1E
100
AcDbEntity
  8
0
100
AcDbLine
 10
317.0
 20
127.7999749999999
 30
0.0
 11
318.6
 21
127.5999749999999
 31
0.0
  0
LINE
  5
1E4
330
1E
100
AcDbEntity
  8
0
100
AcDbLine
 10
318.6
 20
127.5999749999999
 30
0.0
 11
319.7
 21
127.299975
 31
0.0
  0
LINE
  5
1E7
330
1E
100
AcDbEntity
  8
0
100
AcDbLine
 10
320.0
 20
126.9999749999999
 30
0.0
 11
320.0
 21
125.499975
 31
0.0
  0
LINE
  5
1E9
330
1E
100
AcDbEntity
  8
0
100
AcDbLine
 10
320.0
 20
125.499975
 30
0.0
 11
320.0
 21
126.9999749999999
 31
0.0
  0
LINE
  5
1EC
330
1E
100
AcDbEntity
  8
0
100
AcDbLine
 10
249.5
 20
165.4999749999999
 30
0.0
 11
249.6999999999999
 21
165.0999749999999
 31
0.0
  0
LINE
  5
1ED
330
1E
100
AcDbEntity
  8
0
100
AcDbLine
 10
249.5
 20
165.4999749999999
 30
0.0
 11
249.5
 21
165.999975
 31
0.0
  0
LINE
  5
1EE
330
1E
100
AcDbEntity
  8
0
100
AcDbLine
 10
250.0999999999999
 20
163.599975
 30
0.0
 11
251.1
 21
163.599975
 31
0.0
  0
LINE
  5
1EF
330
1E
100
AcDbEntity
  8
0
100
AcDbLine
 10
249.6999999999999
 20
163.599975
 30
0.0
 11
249.6999999999999
 21
164.899975
 31
0.0
  0
LINE
  5
1F0
330
1E
100
AcDbEntity
  8
0
100
AcDbLine
 10
249.6999999999999
 20
163.599975
 30
0.0
 11
250.0
 21
163.599975
 31
0.0
  0
LINE
  5
1F1
330
1E
100
AcDbEntity
  8
0
100
AcDbLine
 10
249.6999999999999
 20
163.599975
 30
0.0
 11
250.0999999999999
 21
163.599975
 31
0.0
  0
LINE
  5
1F2
330
1E
100
AcDbEntity
  8
0
100
AcDbLine
 10
249.6999999999999
 20
163.399975
 30
0.0
 11
250.0
 21
163.599975
 31
0.0
  0
LINE
  5
1F3
330
1E
100
AcDbEntity
  8
0
100
AcDbLine
 10
252.7
 20
163.599975
 30
0.0
 11
254.8999999999999
 21
163.599975
 31
0.0
  0
LINE
  5
1F4
330
1E
100
AcDbEntity
  8
0
100
AcDbLine
 10
251.1
 20
163.599975
 30
0.0
 11
252.7
 21
163.599975
 31
0.0
  0
LINE
  5
1F5
330
1E
100
AcDbEntity
  8
0
100
AcDbLine
 10
251.3
 20
163.599975
 30
0.0
 11
252.8999999999999
 21
163.599975
 31
0.0
  0
LINE
  5
1F6
330
1E
100
AcDbEntity
  8
0
100
AcDbLine
 10
250.4
 20
163.599975
 30
0.0
 11
251.3
 21
163.599975
 31
0.0
  0
LINE
  5
1F7
330
1E
100
AcDbEntity
  8
0
100
AcDbLine
 10
250.0
 20
163.599975
 30
0.0
 11
250.4
 21
163.599975
 31
0.0
  0
LINE
  5
1F8
330
1E
100
AcDbEntity
  8
0
100
AcDbLine
 10
254.8999999999999
 20
163.599975
 30
0.0
 11
257.3999999999999
 21
163.599975
 31
0.0
  0
LINE
  5
1F9
330
1E
100
AcDbEntity
  8
0
100
AcDbLine
 10
252.8999999999999
 20
163.599975
 30
0.0
 11
255.0
 21
163.599975
 31
0.0
  0
LINE
  5
1FA
330
1E
100
AcDbEntity
  8
0
100
AcDbLine
 10
249.6999999999999
 20
164.899975
 30
0.0
 11
250.0999999999999
 21
164.899975
 31
0.0
  0
LINE
  5
1FB
330
1E
100
AcDbEntity
  8
0
100
AcDbLine
 10
249.6999999999999
 20
164.899975
 30
0.0
 11
249.6999999999999
 21
163.599975
 31
0.0
  0
LINE
  5
1FC
330
1E
100
AcDbEntity
  8
0
100
AcDbLine
 10
257.3999999999999
 20
164.899975
 30
0.0
 11
260.0
 21
164.899975
 31
0.0
  0
LINE
  5
1FD
330
1E
100
AcDbEntity
  8
0
100
AcDbLine
 10
254.8999999999999
 20
164.899975
 30
0.0
 11
257.3999999999999
 21
164.899975
 31
0.0
  0
LINE
  5
1FE
330
1E
100
AcDbEntity
  8
0
100
AcDbLine
 10
252.7
 20
164.899975
 30
0.0
 11
254.8999999999999
 21
164.899975
 31
0.0
  0
LINE
  5
1FF
330
1E
100
AcDbEntity
  8
0
100
AcDbLine
 10
251.1
 20
164.899975
 30
0.0
 11
252.7
 21
164.899975
 31
0.0
  0
LINE
  5
200
330
1E
100
AcDbEntity
  8
0
100
AcDbLine
 10
250.0999999999999
 20
164.899975
 30
0.0
 11
251.1
 21
164.899975
 31
0.0
  0
LINE
  5
201
330
1E
100
AcDbEntity
  8
0
100
AcDbLine
 10
249.6999999999999
 20
165.0999749999999
 30
0.0
 11
250.0
 21
164.899975
 31
0.0
  0
LINE
  5
202
330
1E
100
AcDbEntity
  8
0
100
AcDbLine
 10
255.0
 20
163.599975
 30
0.0
 11
257.3999999999999
 21
163.599975
 31
0.0
  0
LINE
  5
203
330
1E
100
AcDbEntity
  8
0
100
AcDbLine
 10
265.1
 20
163.599975
 30
0.0
 11
267.3
 21
163.599975
 31
0.0
  0
LINE
  5
204
330
1E
100
AcDbEntity
  8
0
100
AcDbLine
 10
265.0
 20
163.599975
 30
0.0
 11
267.1
 21
163.599975
 31
0.0
  0
LINE
  5
205
330
1E
100
AcDbEntity
  8
0
100
AcDbLine
 10
262.6
 20
163.599975
 30
0.0
 11
265.0
 21
163.599975
 31
0.0
  0
LINE
  5
206
330
1E
100
AcDbEntity
  8
0
100
AcDbLine
 10
262.6
 20
163.599975
 30
0.0
 11
265.1
 21
163.599975
 31
0.0
  0
LINE
  5
207
330
1E
100
AcDbEntity
  8
0
100
AcDbLine
 10
260.0
 20
163.599975
 30
0.0
 11
262.6
 21
163.599975
 31
0.0
  0
LINE
  5
208
330
1E
100
AcDbEntity
  8
0
100
AcDbLine
 10
267.3
 20
163.599975
 30
0.0
 11
268.8999999999999
 21
163.599975
 31
0.0
  0
LINE
  5
209
330
1E
100
AcDbEntity
  8
0
100
AcDbLine
 10
268.8999999999999
 20
163.599975
 30
0.0
 11
269.8999999999999
 21
163.599975
 31
0.0
  0
LINE
  5
20A
330
1E
100
AcDbEntity
  8
0
100
AcDbLine
 10
267.1
 20
163.599975
 30
0.0
 11
268.6999999999999
 21
163.599975
 31
0.0
  0
LINE
  5
20B
330
1E
100
AcDbEntity
  8
0
100
AcDbLine
 10
260.0
 20
164.899975
 30
0.0
 11
262.6
 21
164.899975
 31
0.0
  0
LINE
  5
20C
330
1E
100
AcDbEntity
  8
0
100
AcDbLine
 10
262.6
 20
164.899975
 30
0.0
 11
265.1
 21
164.899975
 31
0.0
  0
LINE
  5
20D
330
1E
100
AcDbEntity
  8
0
100
AcDbLine
 10
265.1
 20
164.899975
 30
0.0
 11
267.3
 21
164.899975
 31
0.0
  0
LINE
  5
20E
330
1E
100
AcDbEntity
  8
0
100
AcDbLine
 10
267.3
 20
164.899975
 30
0.0
 11
268.8999999999999
 21
164.899975
 31
0.0
  0
LINE
  5
20F
330
1E
100
AcDbEntity
  8
0
100
AcDbLine
 10
268.8999999999999
 20
164.899975
 30
0.0
 11
269.8999999999999
 21
164.899975
 31
0.0
  0
LINE
  5
210
330
1E
100
AcDbEntity
  8
0
100
AcDbLine
 10
268.6999999999999
 20
163.599975
 30
0.0
 11
269.6
 21
163.599975
 31
0.0
  0
LINE
  5
211
330
1E
100
AcDbEntity
  8
0
100
AcDbLine
 10
269.8999999999999
 20
163.599975
 30
0.0
 11
270.3
 21
163.599975
 31
0.0
  0
LINE
  5
212
330
1E
100
AcDbEntity
  8
0
100
AcDbLine
 10
270.3
 20
163.599975
 30
0.0
 11
270.3
 21
164.899975
 31
0.0
  0
LINE
  5
213
330
1E
100
AcDbEntity
  8
0
100
AcDbLine
 10
270.3
 20
163.399975
 30
0.0
 11
270.5
 21
162.999975
 31
0.0
  0
LINE
  5
214
330
1E
100
AcDbEntity
  8
0
100
AcDbLine
 10
269.8999999999999
 20
164.899975
 30
0.0
 11
270.3
 21
164.899975
 31
0.0
  0
LINE
  5
215
330
1E
100
AcDbEntity
  8
0
100
AcDbLine
 10
270.3
 20
164.899975
 30
0.0
 11
270.3
 21
163.599975
 31
0.0
  0
LINE
  5
216
330
1E
100
AcDbEntity
  8
0
100
AcDbLine
 10
270.0
 20
163.599975
 30
0.0
 11
270.3
 21
163.399975
 31
0.0
  0
LINE
  5
217
330
1E
100
AcDbEntity
  8
0
100
AcDbLine
 10
270.0
 20
163.599975
 30
0.0
 11
270.3
 21
163.599975
 31
0.0
  0
LINE
  5
218
330
1E
100
AcDbEntity
  8
0
100
AcDbLine
 10
269.6
 20
163.599975
 30
0.0
 11
270.0
 21
163.599975
 31
0.0
  0
LINE
  5
219
330
1E
100
AcDbEntity
  8
0
100
AcDbLine
 10
270.0
 20
164.899975
 30
0.0
 11
270.3
 21
165.0999749999999
 31
0.0
  0
LINE
  5
21A
330
1E
100
AcDbEntity
  8
0
100
AcDbLine
 10
270.3
 20
165.0999749999999
 30
0.0
 11
270.5
 21
165.4999749999999
 31
0.0
  0
LINE
  5
21B
330
1E
100
AcDbEntity
  8
0
100
AcDbLine
 10
270.5
 20
165.4999749999999
 30
0.0
 11
270.5
 21
165.999975
 31
0.0
  0
LINE
  5
21C
330
1E
100
AcDbEntity
  8
0
100
AcDbLine
 10
257.3999999999999
 20
163.599975
 30
0.0
 11
260.0
 21
163.599975
 31
0.0
  0
LINE
  5
21D
330
1E
100
AcDbEntity
  8
0
100
AcDbLine
 10
270.5
 20
162.999975
 30
0.0
 11
270.5
 21
139.999975
 31
0.0
  0
LINE
  5
21E
330
1E
100
AcDbEntity
  8
0
100
AcDbLine
 10
249.5
 20
162.999975
 30
0.0
 11
249.5
 21
126.9999749999999
 31
0.0
  0
LINE
  5
21F
330
1E
100
AcDbEntity
  8
0
100
AcDbLine
 10
249.5
 20
162.999975
 30
0.0
 11
249.6999999999999
 21
163.399975
 31
0.0
  0
LINE
  5
220
330
1E
100
AcDbEntity
  8
0
100
AcDbLine
 10
270.5
 20
139.999975
 30
0.0
 11
270.6
 21
138.999975
 31
0.0
  0
LINE
  5
221
330
1E
100
AcDbEntity
  8
0
100
AcDbLine
 10
270.5
 20
139.999975
 30
0.0
 11
270.5
 21
162.999975
 31
0.0
  0
LINE
  5
222
330
1E
100
AcDbEntity
  8
0
100
AcDbLine
 10
270.6
 20
138.999975
 30
0.0
 11
271.0
 21
137.0999749999999
 31
0.0
  0
LINE
  5
223
330
1E
100
AcDbEntity
  8
0
100
AcDbLine
 10
271.0
 20
137.0999749999999
 30
0.0
 11
271.7999999999999
 21
135.0999749999999
 31
0.0
  0
LINE
  5
224
330
1E
100
AcDbEntity
  8
0
100
AcDbLine
 10
271.7999999999999
 20
135.0999749999999
 30
0.0
 11
273.3
 21
132.999975
 31
0.0
  0
LINE
  5
225
330
1E
100
AcDbEntity
  8
0
100
AcDbLine
 10
273.3
 20
132.999975
 30
0.0
 11
275.4
 21
131.2999749999999
 31
0.0
  0
LINE
  5
226
330
1E
100
AcDbEntity
  8
0
100
AcDbLine
 10
275.4
 20
131.2999749999999
 30
0.0
 11
277.8
 21
130.399975
 31
0.0
  0
LINE
  5
228
330
1E
100
AcDbEntity
  8
0
100
AcDbLine
 10
280.1999999999999
 20
129.999975
 30
0.0
 11
309.5
 21
128.2999749999999
 31
0.0
  0
LINE
  5
229
330
1E
100
AcDbEntity
  8
0
100
AcDbLine
 10
309.5
 20
128.2999749999999
 30
0.0
 11
312.165
 21
128.149975
 31
0.0
  0
LINE
  5
22A
330
1E
100
AcDbEntity
  8
0
100
AcDbLine
 10
312.165
 20
128.149975
 30
0.0
 11
314.678
 21
127.984975
 31
0.0
  0
LINE
  5
22B
330
1E
100
AcDbEntity
  8
0
100
AcDbLine
 10
277.8
 20
130.399975
 30
0.0
 11
280.1999999999999
 21
129.999975
 31
0.0
  0
LINE
  5
22D
330
1E
100
AcDbEntity
  8
0
100
AcDbLine
 10
170.5
 20
54.499975
 30
0.0
 11
170.5
 21
165.4999749999999
 31
0.0
  0
LINE
  5
22E
330
1E
100
AcDbEntity
  8
0
100
AcDbLine
 10
170.5
 20
54.499975
 30
0.0
 11
170.5
 21
50.192575
 31
0.0
  0
LINE
  5
22F
330
1E
100
AcDbEntity
  8
0
100
AcDbLine
 10
170.5
 20
165.4999749999999
 30
0.0
 11
170.5
 21
54.499975
 31
0.0
  0
LINE
  5
230
330
1E
100
AcDbEntity
  8
0
100
AcDbLine
 10
170.5
 20
165.4999749999999
 30
0.0
 11
170.5
 21
165.999975
 31
0.0
  0
LINE
  5
231
330
1E
100
AcDbEntity
  8
0
100
AcDbLine
 10
154.8
 20
1.315595
 30
0.0
 11
157.3
 21
0.375902
 31
0.0
  0
LINE
  5
232
330
1E
100
AcDbEntity
  8
0
100
AcDbLine
 10
154.8
 20
1.315595
 30
0.0
 11
157.3
 21
0.375902
 31
0.0
  0
LINE
  5
233
330
1E
100
AcDbEntity
  8
0
100
AcDbLine
 10
157.3
 20
0.375902
 30
0.0
 11
160.0
 21
0.0000249999999999
 31
0.0
  0
LINE
  5
234
330
1E
100
AcDbEntity
  8
0
100
AcDbLine
 10
157.3
 20
0.375902
 30
0.0
 11
160.0
 21
0.0000249999999999
 31
0.0
  0
LINE
  5
235
330
1E
100
AcDbEntity
  8
0
100
AcDbLine
 10
149.5
 20
54.499975
 30
0.0
 11
149.5
 21
165.4999749999999
 31
0.0
  0
LINE
  5
236
330
1E
100
AcDbEntity
  8
0
100
AcDbLine
 10
149.5
 20
54.499975
 30
0.0
 11
149.5
 21
50.192575
 31
0.0
  0
LINE
  5
237
330
1E
100
AcDbEntity
  8
0
100
AcDbLine
 10
170.5
 20
165.999975
 30
0.0
 11
170.6999999999999
 21
166.7999749999999
 31
0.0
  0
LINE
  5
238
330
1E
100
AcDbEntity
  8
0
100
AcDbLine
 10
170.5
 20
165.999975
 30
0.0
 11
170.5
 21
165.4999749999999
 31
0.0
  0
LINE
  5
239
330
1E
100
AcDbEntity
  8
0
100
AcDbLine
 10
249.5
 20
165.999975
 30
0.0
 11
249.5
 21
165.4999749999999
 31
0.0
  0
LINE
  5
23A
330
1E
100
AcDbEntity
  8
0
100
AcDbLine
 10
170.6999999999999
 20
166.7999749999999
 30
0.0
 11
171.1999999999999
 21
167.7999749999999
 31
0.0
  0
LINE
  5
23B
330
1E
100
AcDbEntity
  8
0
100
AcDbLine
 10
171.1999999999999
 20
167.7999749999999
 30
0.0
 11
172.1999999999999
 21
168.599975
 31
0.0
  0
LINE
  5
23C
330
1E
100
AcDbEntity
  8
0
100
AcDbLine
 10
249.3
 20
166.7999749999999
 30
0.0
 11
249.5
 21
165.999975
 31
0.0
  0
LINE
  5
23D
330
1E
100
AcDbEntity
  8
0
100
AcDbLine
 10
248.7999999999999
 20
167.7999749999999
 30
0.0
 11
249.3
 21
166.7999749999999
 31
0.0
  0
LINE
  5
23E
330
1E
100
AcDbEntity
  8
0
100
AcDbLine
 10
270.5
 20
165.999975
 30
0.0
 11
270.6999999999999
 21
166.7999749999999
 31
0.0
  0
LINE
  5
23F
330
1E
100
AcDbEntity
  8
0
100
AcDbLine
 10
270.5
 20
165.999975
 30
0.0
 11
270.5
 21
165.4999749999999
 31
0.0
  0
LINE
  5
240
330
1E
100
AcDbEntity
  8
0
100
AcDbLine
 10
270.6999999999999
 20
166.7999749999999
 30
0.0
 11
271.1999999999999
 21
167.7999749999999
 31
0.0
  0
LINE
  5
241
330
1E
100
AcDbEntity
  8
0
100
AcDbLine
 10
271.1999999999999
 20
167.7999749999999
 30
0.0
 11
272.1999999999999
 21
168.599975
 31
0.0
  0
LINE
  5
242
330
1E
100
AcDbEntity
  8
0
100
AcDbLine
 10
149.5
 20
165.999975
 30
0.0
 11
149.5
 21
165.4999749999999
 31
0.0
  0
LINE
  5
243
330
1E
100
AcDbEntity
  8
0
100
AcDbLine
 10
149.5
 20
165.4999749999999
 30
0.0
 11
149.5
 21
165.999975
 31
0.0
  0
LINE
  5
244
330
1E
100
AcDbEntity
  8
0
100
AcDbLine
 10
149.5
 20
165.4999749999999
 30
0.0
 11
149.5
 21
54.499975
 31
0.0
  0
LINE
  5
245
330
1E
100
AcDbEntity
  8
0
100
AcDbLine
 10
149.3
 20
166.7999749999999
 30
0.0
 11
149.5
 21
165.999975
 31
0.0
  0
LINE
  5
246
330
1E
100
AcDbEntity
  8
0
100
AcDbLine
 10
148.6999999999999
 20
168.999975
 30
0.0
 11
152.0
 21
168.999975
 31
0.0
  0
LINE
  5
247
330
1E
100
AcDbEntity
  8
0
100
AcDbLine
 10
152.0
 20
168.999975
 30
0.0
 11
155.9
 21
168.999975
 31
0.0
  0
LINE
  5
248
330
1E
100
AcDbEntity
  8
0
100
AcDbLine
 10
164.1
 20
168.999975
 30
0.0
 11
168.0
 21
168.999975
 31
0.0
  0
LINE
  5
249
330
1E
100
AcDbEntity
  8
0
100
AcDbLine
 10
160.0
 20
168.999975
 30
0.0
 11
167.1999999999999
 21
168.999975
 31
0.0
  0
LINE
  5
24A
330
1E
100
AcDbEntity
  8
0
100
AcDbLine
 10
160.0
 20
168.999975
 30
0.0
 11
164.1
 21
168.999975
 31
0.0
  0
LINE
  5
24B
330
1E
100
AcDbEntity
  8
0
100
AcDbLine
 10
172.1999999999999
 20
168.599975
 30
0.0
 11
173.5
 21
168.999975
 31
0.0
  0
LINE
  5
24C
330
1E
100
AcDbEntity
  8
0
100
AcDbLine
 10
174.0999999999999
 20
168.999975
 30
0.0
 11
174.5999999999999
 21
168.999975
 31
0.0
  0
LINE
  5
24D
330
1E
100
AcDbEntity
  8
0
100
AcDbLine
 10
168.0
 20
168.999975
 30
0.0
 11
171.3
 21
168.999975
 31
0.0
  0
LINE
  5
24E
330
1E
100
AcDbEntity
  8
0
100
AcDbLine
 10
171.3
 20
168.999975
 30
0.0
 11
173.9
 21
168.999975
 31
0.0
  0
LINE
  5
24F
330
1E
100
AcDbEntity
  8
0
100
AcDbLine
 10
178.8
 20
168.999975
 30
0.0
 11
183.0
 21
168.999975
 31
0.0
  0
LINE
  5
250
330
1E
100
AcDbEntity
  8
0
100
AcDbLine
 10
175.4
 20
168.999975
 30
0.0
 11
176.0
 21
168.999975
 31
0.0
  0
LINE
  5
251
330
1E
100
AcDbEntity
  8
0
100
AcDbLine
 10
173.5
 20
168.999975
 30
0.0
 11
246.4999999999999
 21
168.999975
 31
0.0
  0
LINE
  5
252
330
1E
100
AcDbEntity
  8
0
100
AcDbLine
 10
173.5
 20
168.999975
 30
0.0
 11
178.8
 21
168.999975
 31
0.0
  0
LINE
  5
253
330
1E
100
AcDbEntity
  8
0
100
AcDbLine
 10
173.5
 20
168.999975
 30
0.0
 11
174.0999999999999
 21
168.999975
 31
0.0
  0
LINE
  5
254
330
1E
100
AcDbEntity
  8
0
100
AcDbLine
 10
167.1999999999999
 20
168.999975
 30
0.0
 11
173.9
 21
168.999975
 31
0.0
  0
LINE
  5
255
330
1E
100
AcDbEntity
  8
0
100
AcDbLine
 10
173.9
 20
168.999975
 30
0.0
 11
179.8
 21
168.999975
 31
0.0
  0
LINE
  5
256
330
1E
100
AcDbEntity
  8
0
100
AcDbLine
 10
173.9
 20
168.999975
 30
0.0
 11
175.4
 21
168.999975
 31
0.0
  0
LINE
  5
257
330
1E
100
AcDbEntity
  8
0
100
AcDbLine
 10
183.0
 20
168.999975
 30
0.0
 11
185.5999999999999
 21
168.999975
 31
0.0
  0
LINE
  5
258
330
1E
100
AcDbEntity
  8
0
100
AcDbLine
 10
185.5999999999999
 20
168.999975
 30
0.0
 11
186.5999999999999
 21
168.999975
 31
0.0
  0
LINE
  5
259
330
1E
100
AcDbEntity
  8
0
100
AcDbLine
 10
179.8
 20
168.999975
 30
0.0
 11
184.3
 21
168.999975
 31
0.0
  0
LINE
  5
25A
330
1E
100
AcDbEntity
  8
0
100
AcDbLine
 10
184.3
 20
168.999975
 30
0.0
 11
187.0
 21
168.999975
 31
0.0
  0
LINE
  5
25B
330
1E
100
AcDbEntity
  8
0
100
AcDbLine
 10
237.0
 20
168.999975
 30
0.0
 11
241.1999999999999
 21
168.999975
 31
0.0
  0
LINE
  5
25C
330
1E
100
AcDbEntity
  8
0
100
AcDbLine
 10
234.4
 20
168.999975
 30
0.0
 11
237.0
 21
168.999975
 31
0.0
  0
LINE
  5
25D
330
1E
100
AcDbEntity
  8
0
100
AcDbLine
 10
233.4
 20
168.999975
 30
0.0
 11
234.4
 21
168.999975
 31
0.0
  0
LINE
  5
25E
330
1E
100
AcDbEntity
  8
0
100
AcDbLine
 10
241.1999999999999
 20
168.999975
 30
0.0
 11
246.4999999999999
 21
168.999975
 31
0.0
  0
LINE
  5
25F
330
1E
100
AcDbEntity
  8
0
100
AcDbLine
 10
247.8
 20
168.599975
 30
0.0
 11
248.7999999999999
 21
167.7999749999999
 31
0.0
  0
LINE
  5
260
330
1E
100
AcDbEntity
  8
0
100
AcDbLine
 10
246.4999999999999
 20
168.999975
 30
0.0
 11
247.8
 21
168.599975
 31
0.0
  0
LINE
  5
261
330
1E
100
AcDbEntity
  8
0
100
AcDbLine
 10
245.9
 20
168.999975
 30
0.0
 11
246.4999999999999
 21
168.999975
 31
0.0
  0
LINE
  5
262
330
1E
100
AcDbEntity
  8
0
100
AcDbLine
 10
245.4
 20
168.999975
 30
0.0
 11
245.9
 21
168.999975
 31
0.0
  0
LINE
  5
263
330
1E
100
AcDbEntity
  8
0
100
AcDbLine
 10
244.6
 20
168.999975
 30
0.0
 11
246.0999999999999
 21
168.999975
 31
0.0
  0
LINE
  5
264
330
1E
100
AcDbEntity
  8
0
100
AcDbLine
 10
244.0
 20
168.999975
 30
0.0
 11
244.6
 21
168.999975
 31
0.0
  0
LINE
  5
265
330
1E
100
AcDbEntity
  8
0
100
AcDbLine
 10
248.7
 20
168.999975
 30
0.0
 11
252.0
 21
168.999975
 31
0.0
  0
LINE
  5
266
330
1E
100
AcDbEntity
  8
0
100
AcDbLine
 10
252.0
 20
168.999975
 30
0.0
 11
255.9
 21
168.999975
 31
0.0
  0
LINE
  5
267
330
1E
100
AcDbEntity
  8
0
100
AcDbLine
 10
255.9
 20
168.999975
 30
0.0
 11
260.0
 21
168.999975
 31
0.0
  0
LINE
  5
268
330
1E
100
AcDbEntity
  8
0
100
AcDbLine
 10
264.1
 20
168.999975
 30
0.0
 11
268.0
 21
168.999975
 31
0.0
  0
LINE
  5
269
330
1E
100
AcDbEntity
  8
0
100
AcDbLine
 10
252.8
 20
168.999975
 30
0.0
 11
260.0
 21
168.999975
 31
0.0
  0
LINE
  5
26A
330
1E
100
AcDbEntity
  8
0
100
AcDbLine
 10
246.0999999999999
 20
168.999975
 30
0.0
 11
252.8
 21
168.999975
 31
0.0
  0
LINE
  5
26B
330
1E
100
AcDbEntity
  8
0
100
AcDbLine
 10
246.0999999999999
 20
168.999975
 30
0.0
 11
248.7
 21
168.999975
 31
0.0
  0
LINE
  5
26C
330
1E
100
AcDbEntity
  8
0
100
AcDbLine
 10
240.2
 20
168.999975
 30
0.0
 11
246.0999999999999
 21
168.999975
 31
0.0
  0
LINE
  5
26D
330
1E
100
AcDbEntity
  8
0
100
AcDbLine
 10
235.6999999999999
 20
168.999975
 30
0.0
 11
240.2
 21
168.999975
 31
0.0
  0
LINE
  5
26E
330
1E
100
AcDbEntity
  8
0
100
AcDbLine
 10
233.0
 20
168.999975
 30
0.0
 11
235.6999999999999
 21
168.999975
 31
0.0
  0
LINE
  5
26F
330
1E
100
AcDbEntity
  8
0
100
AcDbLine
 10
232.0
 20
168.999975
 30
0.0
 11
233.0
 21
168.999975
 31
0.0
  0
LINE
  5
270
330
1E
100
AcDbEntity
  8
0
100
AcDbLine
 10
187.0
 20
168.999975
 30
0.0
 11
188.0
 21
168.999975
 31
0.0
  0
LINE
  5
271
330
1E
100
AcDbEntity
  8
0
100
AcDbLine
 10
260.0
 20
168.999975
 30
0.0
 11
267.2
 21
168.999975
 31
0.0
  0
LINE
  5
272
330
1E
100
AcDbEntity
  8
0
100
AcDbLine
 10
260.0
 20
168.999975
 30
0.0
 11
264.1
 21
168.999975
 31
0.0
  0
LINE
  5
273
330
1E
100
AcDbEntity
  8
0
100
AcDbLine
 10
272.1999999999999
 20
168.599975
 30
0.0
 11
273.4999999999999
 21
168.999975
 31
0.0
  0
LINE
  5
274
330
1E
100
AcDbEntity
  8
0
100
AcDbLine
 10
274.1
 20
168.999975
 30
0.0
 11
274.6
 21
168.999975
 31
0.0
  0
LINE
  5
275
330
1E
100
AcDbEntity
  8
0
100
AcDbLine
 10
268.0
 20
168.999975
 30
0.0
 11
271.3
 21
168.999975
 31
0.0
  0
LINE
  5
276
330
1E
100
AcDbEntity
  8
0
100
AcDbLine
 10
271.3
 20
168.999975
 30
0.0
 11
273.8999999999999
 21
168.999975
 31
0.0
  0
LINE
  5
277
330
1E
100
AcDbEntity
  8
0
100
AcDbLine
 10
278.8
 20
168.999975
 30
0.0
 11
283.0
 21
168.999975
 31
0.0
  0
LINE
  5
278
330
1E
100
AcDbEntity
  8
0
100
AcDbLine
 10
275.4
 20
168.999975
 30
0.0
 11
276.0
 21
168.999975
 31
0.0
  0
LINE
  5
279
330
1E
100
AcDbEntity
  8
0
100
AcDbLine
 10
273.4999999999999
 20
168.999975
 30
0.0
 11
289.0
 21
168.999975
 31
0.0
  0
LINE
  5
27A
330
1E
100
AcDbEntity
  8
0
100
AcDbLine
 10
273.4999999999999
 20
168.999975
 30
0.0
 11
278.8
 21
168.999975
 31
0.0
  0
LINE
  5
27B
330
1E
100
AcDbEntity
  8
0
100
AcDbLine
 10
273.4999999999999
 20
168.999975
 30
0.0
 11
274.1
 21
168.999975
 31
0.0
  0
LINE
  5
27C
330
1E
100
AcDbEntity
  8
0
100
AcDbLine
 10
267.2
 20
168.999975
 30
0.0
 11
273.8999999999999
 21
168.999975
 31
0.0
  0
LINE
  5
27D
330
1E
100
AcDbEntity
  8
0
100
AcDbLine
 10
273.8999999999999
 20
168.999975
 30
0.0
 11
279.8
 21
168.999975
 31
0.0
  0
LINE
  5
27E
330
1E
100
AcDbEntity
  8
0
100
AcDbLine
 10
273.8999999999999
 20
168.999975
 30
0.0
 11
275.4
 21
168.999975
 31
0.0
  0
LINE
  5
27F
330
1E
100
AcDbEntity
  8
0
100
AcDbLine
 10
283.0
 20
168.999975
 30
0.0
 11
285.6
 21
168.999975
 31
0.0
  0
LINE
  5
280
330
1E
100
AcDbEntity
  8
0
100
AcDbLine
 10
285.6
 20
168.999975
 30
0.0
 11
286.6
 21
168.999975
 31
0.0
  0
LINE
  5
281
330
1E
100
AcDbEntity
  8
0
100
AcDbLine
 10
279.8
 20
168.999975
 30
0.0
 11
284.2999999999999
 21
168.999975
 31
0.0
  0
LINE
  5
282
330
1E
100
AcDbEntity
  8
0
100
AcDbLine
 10
284.2999999999999
 20
168.999975
 30
0.0
 11
287.0
 21
168.999975
 31
0.0
  0
LINE
  5
283
330
1E
100
AcDbEntity
  8
0
100
AcDbLine
 10
292.5
 20
168.999975
 30
0.0
 11
293.3
 21
168.999975
 31
0.0
  0
LINE
  5
284
330
1E
100
AcDbEntity
  8
0
100
AcDbLine
 10
293.3
 20
168.999975
 30
0.0
 11
293.8
 21
168.999975
 31
0.0
  0
LINE
  5
285
330
1E
100
AcDbEntity
  8
0
100
AcDbLine
 10
294.0
 20
168.999975
 30
0.0
 11
294.7
 21
169.299975
 31
0.0
  0
LINE
  5
286
330
1E
100
AcDbEntity
  8
0
100
AcDbLine
 10
293.8
 20
168.999975
 30
0.0
 11
294.0
 21
168.999975
 31
0.0
  0
LINE
  5
287
330
1E
100
AcDbEntity
  8
0
100
AcDbLine
 10
291.5
 20
168.999975
 30
0.0
 11
292.5
 21
168.999975
 31
0.0
  0
LINE
  5
288
330
1E
100
AcDbEntity
  8
0
100
AcDbLine
 10
290.3
 20
168.999975
 30
0.0
 11
291.5
 21
168.999975
 31
0.0
  0
LINE
  5
289
330
1E
100
AcDbEntity
  8
0
100
AcDbLine
 10
289.0
 20
168.999975
 30
0.0
 11
290.3
 21
168.999975
 31
0.0
  0
LINE
  5
28A
330
1E
100
AcDbEntity
  8
0
100
AcDbLine
 10
287.0
 20
168.999975
 30
0.0
 11
288.0
 21
168.999975
 31
0.0
  0
LINE
  5
28B
330
1E
100
AcDbEntity
  8
0
100
AcDbLine
 10
155.9
 20
168.999975
 30
0.0
 11
160.0
 21
168.999975
 31
0.0
  0
LINE
  5
28C
330
1E
100
AcDbEntity
  8
0
100
AcDbLine
 10
152.8
 20
168.999975
 30
0.0
 11
160.0
 21
168.999975
 31
0.0
  0
LINE
  5
28D
330
1E
100
AcDbEntity
  8
0
100
AcDbLine
 10
148.8
 20
167.7999749999999
 30
0.0
 11
149.3
 21
166.7999749999999
 31
0.0
  0
LINE
  5
28E
330
1E
100
AcDbEntity
  8
0
100
AcDbLine
 10
147.8
 20
168.599975
 30
0.0
 11
148.8
 21
167.7999749999999
 31
0.0
  0
LINE
  5
28F
330
1E
100
AcDbEntity
  8
0
100
AcDbLine
 10
146.5
 20
168.999975
 30
0.0
 11
147.8
 21
168.599975
 31
0.0
  0
LINE
  5
290
330
1E
100
AcDbEntity
  8
0
100
AcDbLine
 10
145.9
 20
168.999975
 30
0.0
 11
146.5
 21
168.999975
 31
0.0
  0
LINE
  5
291
330
1E
100
AcDbEntity
  8
0
100
AcDbLine
 10
145.4
 20
168.999975
 30
0.0
 11
145.9
 21
168.999975
 31
0.0
  0
LINE
  5
292
330
1E
100
AcDbEntity
  8
0
100
AcDbLine
 10
137.0
 20
168.999975
 30
0.0
 11
141.1999999999999
 21
168.999975
 31
0.0
  0
LINE
  5
293
330
1E
100
AcDbEntity
  8
0
100
AcDbLine
 10
147.0
 20
175.999975
 30
0.0
 11
147.0
 21
189.999975
 31
0.0
  0
LINE
  5
294
330
1E
100
AcDbEntity
  8
0
100
AcDbLine
 10
160.0
 20
169.299975
 30
0.0
 11
289.0
 21
169.299975
 31
0.0
  0
LINE
  5
295
330
1E
100
AcDbEntity
  8
0
100
AcDbLine
 10
290.5
 20
169.299975
 30
0.0
 11
291.8
 21
169.299975
 31
0.0
  0
LINE
  5
296
330
1E
100
AcDbEntity
  8
0
100
AcDbLine
 10
247.0
 20
175.999975
 30
0.0
 11
247.0
 21
189.999975
 31
0.0
  0
LINE
  5
297
330
1E
100
AcDbEntity
  8
0
100
AcDbLine
 10
273.0
 20
175.999975
 30
0.0
 11
273.0
 21
200.9999749999999
 31
0.0
  0
LINE
  5
298
330
1E
100
AcDbEntity
  8
0
100
AcDbLine
 10
173.0
 20
175.999975
 30
0.0
 11
173.0
 21
189.999975
 31
0.0
  0
LINE
  5
299
330
1E
100
AcDbEntity
  8
0
100
AcDbLine
 10
289.0
 20
169.299975
 30
0.0
 11
290.5
 21
169.299975
 31
0.0
  0
LINE
  5
29A
330
1E
100
AcDbEntity
  8
0
100
AcDbLine
 10
160.0
 20
175.999975
 30
0.0
 11
289.0
 21
175.999975
 31
0.0
  0
LINE
  5
29B
330
1E
100
AcDbEntity
  8
0
100
AcDbLine
 10
289.0
 20
175.999975
 30
0.0
 11
290.5
 21
175.999975
 31
0.0
  0
LINE
  5
29C
330
1E
100
AcDbEntity
  8
0
100
AcDbLine
 10
293.0
 20
169.299975
 30
0.0
 11
293.8999999999999
 21
169.299975
 31
0.0
  0
LINE
  5
29D
330
1E
100
AcDbEntity
  8
0
100
AcDbLine
 10
291.8
 20
169.299975
 30
0.0
 11
293.0
 21
169.299975
 31
0.0
  0
LINE
  5
29E
330
1E
100
AcDbEntity
  8
0
100
AcDbLine
 10
290.5
 20
175.999975
 30
0.0
 11
292.0
 21
175.999975
 31
0.0
  0
LINE
  5
29F
330
1E
100
AcDbEntity
  8
0
100
AcDbLine
 10
292.0
 20
175.999975
 30
0.0
 11
293.2
 21
175.999975
 31
0.0
  0
LINE
  5
2A0
330
1E
100
AcDbEntity
  8
0
100
AcDbLine
 10
293.8999999999999
 20
169.299975
 30
0.0
 11
294.4999999999999
 21
169.299975
 31
0.0
  0
LINE
  5
2A1
330
1E
100
AcDbEntity
  8
0
100
AcDbLine
 10
294.4999999999999
 20
169.299975
 30
0.0
 11
294.7
 21
169.299975
 31
0.0
  0
LINE
  5
2A2
330
1E
100
AcDbEntity
  8
0
100
AcDbLine
 10
293.2
 20
175.999975
 30
0.0
 11
294.1999999999999
 21
175.999975
 31
0.0
  0
LINE
  5
2A3
330
1E
100
AcDbEntity
  8
0
100
AcDbLine
 10
147.0
 20
189.999975
 30
0.0
 11
147.0
 21
175.999975
 31
0.0
  0
LINE
  5
2A4
330
1E
100
AcDbEntity
  8
0
100
AcDbLine
 10
260.0
 20
189.999975
 30
0.0
 11
263.3279999999999
 21
190.4679749999999
 31
0.0
  0
LINE
  5
2A5
330
1E
100
AcDbEntity
  8
0
100
AcDbLine
 10
228.0
 20
189.999975
 30
0.0
 11
228.0
 21
190.4679749999999
 31
0.0
  0
LINE
  5
2A6
330
1E
100
AcDbEntity
  8
0
100
AcDbLine
 10
228.0
 20
189.999975
 30
0.0
 11
247.0
 21
189.999975
 31
0.0
  0
LINE
  5
2A7
330
1E
100
AcDbEntity
  8
0
100
AcDbLine
 10
253.8659999999999
 20
190.375575
 30
0.0
 11
254.8659999999999
 21
192.107675
 31
0.0
  0
LINE
  5
2A8
330
1E
100
AcDbEntity
  8
0
100
AcDbLine
 10
266.134
 20
190.375575
 30
0.0
 11
267.8659999999999
 21
191.3755749999999
 31
0.0
  0
LINE
  5
2A9
330
1E
100
AcDbEntity
  8
0
100
AcDbLine
 10
256.672
 20
190.4679749999999
 30
0.0
 11
260.0
 21
189.999975
 31
0.0
  0
LINE
  5
2AA
330
1E
100
AcDbEntity
  8
0
100
AcDbLine
 10
263.3279999999999
 20
190.4679749999999
 30
0.0
 11
266.4479999999999
 21
191.7159749999999
 31
0.0
  0
LINE
  5
2AB
330
1E
100
AcDbEntity
  8
0
100
AcDbLine
 10
228.0
 20
190.4679749999999
 30
0.0
 11
228.0
 21
191.7159749999999
 31
0.0
  0
LINE
  5
2AC
330
1E
100
AcDbEntity
  8
0
100
AcDbLine
 10
228.0
 20
190.4679749999999
 30
0.0
 11
228.0
 21
189.999975
 31
0.0
  0
LINE
  5
2AD
330
1E
100
AcDbEntity
  8
0
100
AcDbLine
 10
228.0
 20
190.4679749999999
 30
0.0
 11
228.0
 21
191.7159749999999
 31
0.0
  0
LINE
  5
2AE
330
1E
100
AcDbEntity
  8
0
100
AcDbLine
 10
247.0
 20
189.999975
 30
0.0
 11
247.0
 21
175.999975
 31
0.0
  0
LINE
  5
2AF
330
1E
100
AcDbEntity
  8
0
100
AcDbLine
 10
188.0
 20
189.999975
 30
0.0
 11
188.0
 21
190.4679749999999
 31
0.0
  0
LINE
  5
2B0
330
1E
100
AcDbEntity
  8
0
100
AcDbLine
 10
188.0
 20
191.999975
 30
0.0
 11
228.0
 21
191.999975
 31
0.0
  0
LINE
  5
2B1
330
1E
100
AcDbEntity
  8
0
100
AcDbLine
 10
188.0
 20
206.3279749999999
 30
0.0
 11
188.0
 21
202.9999749999999
 31
0.0
  0
LINE
  5
2B2
330
1E
100
AcDbEntity
  8
0
100
AcDbLine
 10
188.0
 20
206.3279749999999
 30
0.0
 11
188.0
 21
209.447975
 31
0.0
  0
LINE
  5
2B3
330
1E
100
AcDbEntity
  8
0
100
AcDbLine
 10
188.0
 20
213.999975
 30
0.0
 11
228.0
 21
213.999975
 31
0.0
  0
LINE
  5
2B4
330
1E
100
AcDbEntity
  8
0
100
AcDbLine
 10
188.0
 20
209.447975
 30
0.0
 11
188.0
 21
206.3279749999999
 31
0.0
  0
LINE
  5
2B5
330
1E
100
AcDbEntity
  8
0
100
AcDbLine
 10
188.0
 20
209.447975
 30
0.0
 11
188.0
 21
212.203975
 31
0.0
  0
LINE
  5
2B6
330
1E
100
AcDbEntity
  8
0
100
AcDbLine
 10
188.0
 20
212.203975
 30
0.0
 11
188.0
 21
209.447975
 31
0.0
  0
LINE
  5
2B7
330
1E
100
AcDbEntity
  8
0
100
AcDbLine
 10
188.0
 20
212.203975
 30
0.0
 11
188.0
 21
214.2839749999999
 31
0.0
  0
LINE
  5
2B8
330
1E
100
AcDbEntity
  8
0
100
AcDbLine
 10
188.0
 20
214.2839749999999
 30
0.0
 11
188.0
 21
212.203975
 31
0.0
  0
LINE
  5
2B9
330
1E
100
AcDbEntity
  8
0
100
AcDbLine
 10
188.0
 20
214.2839749999999
 30
0.0
 11
188.0
 21
215.5319749999999
 31
0.0
  0
LINE
  5
2BA
330
1E
100
AcDbEntity
  8
0
100
AcDbLine
 10
188.0
 20
215.5319749999999
 30
0.0
 11
188.0
 21
214.2839749999999
 31
0.0
  0
LINE
  5
2BB
330
1E
100
AcDbEntity
  8
0
100
AcDbLine
 10
188.0
 20
215.5319749999999
 30
0.0
 11
188.0
 21
215.999975
 31
0.0
  0
LINE
  5
2BC
330
1E
100
AcDbEntity
  8
0
100
AcDbLine
 10
188.0
 20
215.999975
 30
0.0
 11
188.0
 21
215.5319749999999
 31
0.0
  0
LINE
  5
2BD
330
1E
100
AcDbEntity
  8
0
100
AcDbLine
 10
188.0
 20
202.9999749999999
 30
0.0
 11
188.0
 21
199.671975
 31
0.0
  0
LINE
  5
2BE
330
1E
100
AcDbEntity
  8
0
100
AcDbLine
 10
188.0
 20
202.9999749999999
 30
0.0
 11
188.0
 21
206.3279749999999
 31
0.0
  0
LINE
  5
2BF
330
1E
100
AcDbEntity
  8
0
100
AcDbLine
 10
188.0
 20
199.671975
 30
0.0
 11
188.0
 21
196.551975
 31
0.0
  0
LINE
  5
2C0
330
1E
100
AcDbEntity
  8
0
100
AcDbLine
 10
188.0
 20
199.671975
 30
0.0
 11
188.0
 21
202.9999749999999
 31
0.0
  0
LINE
  5
2C1
330
1E
100
AcDbEntity
  8
0
100
AcDbLine
 10
188.0
 20
196.551975
 30
0.0
 11
188.0
 21
193.795975
 31
0.0
  0
LINE
  5
2C2
330
1E
100
AcDbEntity
  8
0
100
AcDbLine
 10
188.0
 20
196.551975
 30
0.0
 11
188.0
 21
199.671975
 31
0.0
  0
LINE
  5
2C3
330
1E
100
AcDbEntity
  8
0
100
AcDbLine
 10
188.0
 20
193.795975
 30
0.0
 11
188.0
 21
191.7159749999999
 31
0.0
  0
LINE
  5
2C4
330
1E
100
AcDbEntity
  8
0
100
AcDbLine
 10
188.0
 20
193.795975
 30
0.0
 11
188.0
 21
196.551975
 31
0.0
  0
LINE
  5
2C5
330
1E
100
AcDbEntity
  8
0
100
AcDbLine
 10
228.0
 20
191.7159749999999
 30
0.0
 11
228.0
 21
190.4679749999999
 31
0.0
  0
LINE
  5
2C6
330
1E
100
AcDbEntity
  8
0
100
AcDbLine
 10
228.0
 20
191.7159749999999
 30
0.0
 11
228.0
 21
193.795975
 31
0.0
  0
LINE
  5
2C7
330
1E
100
AcDbEntity
  8
0
100
AcDbLine
 10
228.0
 20
191.999975
 30
0.0
 11
228.0
 21
191.7159749999999
 31
0.0
  0
LINE
  5
2C8
330
1E
100
AcDbEntity
  8
0
100
AcDbLine
 10
252.134
 20
191.3755749999999
 30
0.0
 11
252.701226575155
 21
192.358068150826
 31
0.0
  0
LINE
  5
2C9
330
1E
100
AcDbEntity
  8
0
100
AcDbLine
 10
252.134
 20
191.3755749999999
 30
0.0
 11
253.134
 21
193.107675
 31
0.0
  0
LINE
  5
2CA
330
1E
100
AcDbEntity
  8
0
100
AcDbLine
 10
252.134
 20
191.3755749999999
 30
0.0
 11
253.8659999999999
 21
190.375575
 31
0.0
  0
LINE
  5
2CB
330
1E
100
AcDbEntity
  8
0
100
AcDbLine
 10
253.552
 20
191.7159749999999
 30
0.0
 11
256.672
 21
190.4679749999999
 31
0.0
  0
LINE
  5
2CC
330
1E
100
AcDbEntity
  8
0
100
AcDbLine
 10
254.4357668964869
 20
191.3624682414049
 30
0.0
 11
256.672
 21
190.4679749999999
 31
0.0
  0
LINE
  5
2CD
330
1E
100
AcDbEntity
  8
0
100
AcDbLine
 10
257.147
 20
192.258275
 30
0.0
 11
260.0
 21
191.857075
 31
0.0
  0
LINE
  5
2CE
330
1E
100
AcDbEntity
  8
0
100
AcDbLine
 10
265.134
 20
192.107675
 30
0.0
 11
266.134
 21
190.375575
 31
0.0
  0
LINE
  5
2CF
330
1E
100
AcDbEntity
  8
0
100
AcDbLine
 10
265.134
 20
192.107675
 30
0.0
 11
266.866
 21
193.107675
 31
0.0
  0
LINE
  5
2D0
330
1E
100
AcDbEntity
  8
0
100
AcDbLine
 10
260.0
 20
191.857075
 30
0.0
 11
262.853
 21
192.258275
 31
0.0
  0
LINE
  5
2D1
330
1E
100
AcDbEntity
  8
0
100
AcDbLine
 10
262.853
 20
192.258275
 30
0.0
 11
265.5269999999999
 21
193.327975
 31
0.0
  0
LINE
  5
2D2
330
1E
100
AcDbEntity
  8
0
100
AcDbLine
 10
267.298773424845
 20
192.358068150826
 30
0.0
 11
269.2039999999999
 21
193.795975
 31
0.0
  0
LINE
  5
2D3
330
1E
100
AcDbEntity
  8
0
100
AcDbLine
 10
266.4479999999999
 20
191.7159749999999
 30
0.0
 11
269.2039999999999
 21
193.795975
 31
0.0
  0
LINE
  5
2D4
330
1E
100
AcDbEntity
  8
0
100
AcDbLine
 10
228.0
 20
191.7159749999999
 30
0.0
 11
228.0
 21
191.999975
 31
0.0
  0
LINE
  5
2D5
330
1E
100
AcDbEntity
  8
0
100
AcDbLine
 10
228.0
 20
191.7159749999999
 30
0.0
 11
228.0
 21
190.4679749999999
 31
0.0
  0
LINE
  5
2D6
330
1E
100
AcDbEntity
  8
0
100
AcDbLine
 10
228.0
 20
193.795975
 30
0.0
 11
228.0
 21
191.7159749999999
 31
0.0
  0
LINE
  5
2D7
330
1E
100
AcDbEntity
  8
0
100
AcDbLine
 10
228.0
 20
193.795975
 30
0.0
 11
228.0
 21
196.551975
 31
0.0
  0
LINE
  5
2D8
330
1E
100
AcDbEntity
  8
0
100
AcDbLine
 10
228.0
 20
199.671975
 30
0.0
 11
228.0
 21
196.551975
 31
0.0
  0
LINE
  5
2D9
330
1E
100
AcDbEntity
  8
0
100
AcDbLine
 10
228.0
 20
199.671975
 30
0.0
 11
228.0
 21
202.9999749999999
 31
0.0
  0
LINE
  5
2DA
330
1E
100
AcDbEntity
  8
0
100
AcDbLine
 10
228.0
 20
196.551975
 30
0.0
 11
228.0
 21
193.795975
 31
0.0
  0
LINE
  5
2DB
330
1E
100
AcDbEntity
  8
0
100
AcDbLine
 10
228.0
 20
196.551975
 30
0.0
 11
228.0
 21
199.671975
 31
0.0
  0
LINE
  5
2DC
330
1E
100
AcDbEntity
  8
0
100
AcDbLine
 10
228.0
 20
206.3279749999999
 30
0.0
 11
228.0
 21
202.9999749999999
 31
0.0
  0
LINE
  5
2DD
330
1E
100
AcDbEntity
  8
0
100
AcDbLine
 10
228.0
 20
206.3279749999999
 30
0.0
 11
228.0
 21
209.447975
 31
0.0
  0
LINE
  5
2DE
330
1E
100
AcDbEntity
  8
0
100
AcDbLine
 10
228.0
 20
205.815975
 30
0.0
 11
228.0
 21
202.9999749999999
 31
0.0
  0
LINE
  5
2DF
330
1E
100
AcDbEntity
  8
0
100
AcDbLine
 10
228.0
 20
209.447975
 30
0.0
 11
228.0
 21
206.3279749999999
 31
0.0
  0
LINE
  5
2E0
330
1E
100
AcDbEntity
  8
0
100
AcDbLine
 10
228.0
 20
209.447975
 30
0.0
 11
228.0
 21
212.203975
 31
0.0
  0
LINE
  5
2E1
330
1E
100
AcDbEntity
  8
0
100
AcDbLine
 10
228.0
 20
212.203975
 30
0.0
 11
228.0
 21
209.447975
 31
0.0
  0
LINE
  5
2E2
330
1E
100
AcDbEntity
  8
0
100
AcDbLine
 10
228.0
 20
212.203975
 30
0.0
 11
228.0
 21
214.2839749999999
 31
0.0
  0
LINE
  5
2E3
330
1E
100
AcDbEntity
  8
0
100
AcDbLine
 10
228.0
 20
208.4559749999999
 30
0.0
 11
228.0
 21
205.815975
 31
0.0
  0
LINE
  5
2E4
330
1E
100
AcDbEntity
  8
0
100
AcDbLine
 10
228.0
 20
210.7879749999999
 30
0.0
 11
228.0
 21
208.4559749999999
 31
0.0
  0
LINE
  5
2E5
330
1E
100
AcDbEntity
  8
0
100
AcDbLine
 10
228.0
 20
212.547975
 30
0.0
 11
228.0
 21
210.7879749999999
 31
0.0
  0
LINE
  5
2E6
330
1E
100
AcDbEntity
  8
0
100
AcDbLine
 10
228.0
 20
213.603975
 30
0.0
 11
228.0
 21
212.547975
 31
0.0
  0
LINE
  5
2E7
330
1E
100
AcDbEntity
  8
0
100
AcDbLine
 10
228.0
 20
215.999975
 30
0.0
 11
228.0
 21
215.5319749999999
 31
0.0
  0
LINE
  5
2E8
330
1E
100
AcDbEntity
  8
0
100
AcDbLine
 10
228.0
 20
215.999975
 30
0.0
 11
260.0
 21
215.999975
 31
0.0
  0
LINE
  5
2E9
330
1E
100
AcDbEntity
  8
0
100
AcDbLine
 10
228.0
 20
214.2839749999999
 30
0.0
 11
228.0
 21
215.5319749999999
 31
0.0
  0
LINE
  5
2EA
330
1E
100
AcDbEntity
  8
0
100
AcDbLine
 10
228.0
 20
214.2839749999999
 30
0.0
 11
228.0
 21
213.999975
 31
0.0
  0
LINE
  5
2EB
330
1E
100
AcDbEntity
  8
0
100
AcDbLine
 10
228.0
 20
214.2839749999999
 30
0.0
 11
228.0
 21
212.203975
 31
0.0
  0
LINE
  5
2EC
330
1E
100
AcDbEntity
  8
0
100
AcDbLine
 10
228.0
 20
215.5319749999999
 30
0.0
 11
228.0
 21
215.999975
 31
0.0
  0
LINE
  5
2ED
330
1E
100
AcDbEntity
  8
0
100
AcDbLine
 10
228.0
 20
215.5319749999999
 30
0.0
 11
228.0
 21
214.2839749999999
 31
0.0
  0
LINE
  5
2EE
330
1E
100
AcDbEntity
  8
0
100
AcDbLine
 10
228.0
 20
213.999975
 30
0.0
 11
228.0
 21
213.603975
 31
0.0
  0
LINE
  5
2EF
330
1E
100
AcDbEntity
  8
0
100
AcDbLine
 10
228.0
 20
213.999975
 30
0.0
 11
228.0
 21
214.2839749999999
 31
0.0
  0
LINE
  5
2F0
330
1E
100
AcDbEntity
  8
0
100
AcDbLine
 10
228.0
 20
202.9999749999999
 30
0.0
 11
228.0
 21
200.183975
 31
0.0
  0
LINE
  5
2F1
330
1E
100
AcDbEntity
  8
0
100
AcDbLine
 10
228.0
 20
202.9999749999999
 30
0.0
 11
228.0
 21
199.671975
 31
0.0
  0
LINE
  5
2F2
330
1E
100
AcDbEntity
  8
0
100
AcDbLine
 10
228.0
 20
202.9999749999999
 30
0.0
 11
228.0
 21
206.3279749999999
 31
0.0
  0
LINE
  5
2F3
330
1E
100
AcDbEntity
  8
0
100
AcDbLine
 10
228.0
 20
200.183975
 30
0.0
 11
228.0
 21
197.5439749999999
 31
0.0
  0
LINE
  5
2F4
330
1E
100
AcDbEntity
  8
0
100
AcDbLine
 10
228.0
 20
197.5439749999999
 30
0.0
 11
228.0
 21
195.2119749999999
 31
0.0
  0
LINE
  5
2F5
330
1E
100
AcDbEntity
  8
0
100
AcDbLine
 10
228.0
 20
195.2119749999999
 30
0.0
 11
228.0
 21
193.4519749999999
 31
0.0
  0
LINE
  5
2F6
330
1E
100
AcDbEntity
  8
0
100
AcDbLine
 10
253.134
 20
193.107675
 30
0.0
 11
254.8659999999999
 21
192.107675
 31
0.0
  0
LINE
  5
2F7
330
1E
100
AcDbEntity
  8
0
100
AcDbLine
 10
254.4729999999999
 20
193.327975
 30
0.0
 11
257.147
 21
192.258275
 31
0.0
  0
LINE
  5
2F8
330
1E
100
AcDbEntity
  8
0
100
AcDbLine
 10
252.1109999999999
 20
195.1108749999999
 30
0.0
 11
254.4729999999999
 21
193.327975
 31
0.0
  0
LINE
  5
2F9
330
1E
100
AcDbEntity
  8
0
100
AcDbLine
 10
250.796
 20
193.795975
 30
0.0
 11
252.701226575155
 21
192.358068150826
 31
0.0
  0
LINE
  5
2FA
330
1E
100
AcDbEntity
  8
0
100
AcDbLine
 10
250.796
 20
193.795975
 30
0.0
 11
253.552
 21
191.7159749999999
 31
0.0
  0
LINE
  5
2FB
330
1E
100
AcDbEntity
  8
0
100
AcDbLine
 10
266.866
 20
193.107675
 30
0.0
 11
267.8659999999999
 21
191.3755749999999
 31
0.0
  0
LINE
  5
2FC
330
1E
100
AcDbEntity
  8
0
100
AcDbLine
 10
265.5269999999999
 20
193.327975
 30
0.0
 11
267.8889999999999
 21
195.1108749999999
 31
0.0
  0
LINE
  5
2FD
330
1E
100
AcDbEntity
  8
0
100
AcDbLine
 10
248.7159999999999
 20
196.551975
 30
0.0
 11
250.796
 21
193.795975
 31
0.0
  0
LINE
  5
2FE
330
1E
100
AcDbEntity
  8
0
100
AcDbLine
 10
267.8889999999999
 20
195.1108749999999
 30
0.0
 11
269.672
 21
197.4730749999999
 31
0.0
  0
LINE
  5
2FF
330
1E
100
AcDbEntity
  8
0
100
AcDbLine
 10
269.2039999999999
 20
193.795975
 30
0.0
 11
271.2839999999999
 21
196.551975
 31
0.0
  0
LINE
  5
300
330
1E
100
AcDbEntity
  8
0
100
AcDbLine
 10
250.328
 20
197.4730749999999
 30
0.0
 11
252.1109999999999
 21
195.1108749999999
 31
0.0
  0
LINE
  5
301
330
1E
100
AcDbEntity
  8
0
100
AcDbLine
 10
249.2579999999999
 20
200.147375
 30
0.0
 11
250.328
 21
197.4730749999999
 31
0.0
  0
LINE
  5
302
330
1E
100
AcDbEntity
  8
0
100
AcDbLine
 10
247.4679999999999
 20
199.671975
 30
0.0
 11
248.7159999999999
 21
196.551975
 31
0.0
  0
LINE
  5
303
330
1E
100
AcDbEntity
  8
0
100
AcDbLine
 10
269.672
 20
197.4730749999999
 30
0.0
 11
270.742
 21
200.147375
 31
0.0
  0
LINE
  5
304
330
1E
100
AcDbEntity
  8
0
100
AcDbLine
 10
270.742
 20
200.147375
 30
0.0
 11
271.1429999999999
 21
202.9999749999999
 31
0.0
  0
LINE
  5
305
330
1E
100
AcDbEntity
  8
0
100
AcDbLine
 10
271.2839999999999
 20
196.551975
 30
0.0
 11
272.5319999999999
 21
199.671975
 31
0.0
  0
LINE
  5
306
330
1E
100
AcDbEntity
  8
0
100
AcDbLine
 10
284.8
 20
200.9999749999999
 30
0.0
 11
285.0
 21
200.9999749999999
 31
0.0
  0
LINE
  5
307
330
1E
100
AcDbEntity
  8
0
100
AcDbLine
 10
285.0
 20
200.9999749999999
 30
0.0
 11
285.0
 21
204.999975
 31
0.0
  0
LINE
  5
308
330
1E
100
AcDbEntity
  8
0
100
AcDbLine
 10
284.2999999999999
 20
200.9999749999999
 30
0.0
 11
284.8
 21
200.9999749999999
 31
0.0
  0
LINE
  5
309
330
1E
100
AcDbEntity
  8
0
100
AcDbLine
 10
283.4999999999999
 20
200.9999749999999
 30
0.0
 11
284.2999999999999
 21
200.9999749999999
 31
0.0
  0
LINE
  5
30A
330
1E
100
AcDbEntity
  8
0
100
AcDbLine
 10
282.5
 20
200.9999749999999
 30
0.0
 11
283.4999999999999
 21
200.9999749999999
 31
0.0
  0
LINE
  5
30B
330
1E
100
AcDbEntity
  8
0
100
AcDbLine
 10
272.7187499999999
 20
200.9999749999999
 30
0.0
 11
282.5
 21
200.9999749999999
 31
0.0
  0
LINE
  5
30C
330
1E
100
AcDbEntity
  8
0
100
AcDbLine
 10
272.5319999999999
 20
199.671975
 30
0.0
 11
273.0
 21
202.9999749999999
 31
0.0
  0
LINE
  5
30D
330
1E
100
AcDbEntity
  8
0
100
AcDbLine
 10
272.5319999999999
 20
199.671975
 30
0.0
 11
272.8593749999999
 21
201.999975
 31
0.0
  0
LINE
  5
30E
330
1E
100
AcDbEntity
  8
0
100
AcDbLine
 10
246.0
 20
201.999975
 30
0.0
 11
246.0
 21
203.999975
 31
0.0
  0
LINE
  5
30F
330
1E
100
AcDbEntity
  8
0
100
AcDbLine
 10
246.0
 20
201.999975
 30
0.0
 11
248.0
 21
201.999975
 31
0.0
  0
LINE
  5
310
330
1E
100
AcDbEntity
  8
0
100
AcDbLine
 10
246.0
 20
201.999975
 30
0.0
 11
247.140625
 21
201.999975
 31
0.0
  0
LINE
  5
311
330
1E
100
AcDbEntity
  8
0
100
AcDbLine
 10
246.0
 20
203.999975
 30
0.0
 11
248.0
 21
203.999975
 31
0.0
  0
LINE
  5
312
330
1E
100
AcDbEntity
  8
0
100
AcDbLine
 10
246.0
 20
203.999975
 30
0.0
 11
246.0
 21
201.999975
 31
0.0
  0
LINE
  5
313
330
1E
100
AcDbEntity
  8
0
100
AcDbLine
 10
247.140625
 20
203.999975
 30
0.0
 11
247.4679999999999
 21
206.3279749999999
 31
0.0
  0
LINE
  5
314
330
1E
100
AcDbEntity
  8
0
100
AcDbLine
 10
247.0
 20
202.9999749999999
 30
0.0
 11
247.4679999999999
 21
199.671975
 31
0.0
  0
LINE
  5
315
330
1E
100
AcDbEntity
  8
0
100
AcDbLine
 10
247.0
 20
202.9999749999999
 30
0.0
 11
247.4679999999999
 21
206.3279749999999
 31
0.0
  0
LINE
  5
316
330
1E
100
AcDbEntity
  8
0
100
AcDbLine
 10
248.0
 20
201.999975
 30
0.0
 11
248.0
 21
203.999975
 31
0.0
  0
LINE
  5
317
330
1E
100
AcDbEntity
  8
0
100
AcDbLine
 10
272.8593749999999
 20
201.999975
 30
0.0
 11
274.0
 21
201.999975
 31
0.0
  0
LINE
  5
318
330
1E
100
AcDbEntity
  8
0
100
AcDbLine
 10
272.0
 20
201.999975
 30
0.0
 11
274.0
 21
201.999975
 31
0.0
  0
LINE
  5
319
330
1E
100
AcDbEntity
  8
0
100
AcDbLine
 10
272.0
 20
201.999975
 30
0.0
 11
272.0
 21
203.999975
 31
0.0
  0
LINE
  5
31A
330
1E
100
AcDbEntity
  8
0
100
AcDbLine
 10
274.0
 20
201.999975
 30
0.0
 11
274.0
 21
203.999975
 31
0.0
  0
LINE
  5
31B
330
1E
100
AcDbEntity
  8
0
100
AcDbLine
 10
248.0
 20
203.999975
 30
0.0
 11
248.0
 21
201.999975
 31
0.0
  0
LINE
  5
31C
330
1E
100
AcDbEntity
  8
0
100
AcDbLine
 10
270.742
 20
205.852575
 30
0.0
 11
271.1429999999999
 21
202.9999749999999
 31
0.0
  0
LINE
  5
31D
330
1E
100
AcDbEntity
  8
0
100
AcDbLine
 10
269.672
 20
208.526875
 30
0.0
 11
270.742
 21
205.852575
 31
0.0
  0
LINE
  5
31E
330
1E
100
AcDbEntity
  8
0
100
AcDbLine
 10
269.672
 20
208.526875
 30
0.0
 11
270.742
 21
205.852575
 31
0.0
  0
LINE
  5
31F
330
1E
100
AcDbEntity
  8
0
100
AcDbLine
 10
285.0
 20
204.999975
 30
0.0
 11
285.0
 21
200.9999749999999
 31
0.0
  0
LINE
  5
320
330
1E
100
AcDbEntity
  8
0
100
AcDbLine
 10
284.8
 20
204.999975
 30
0.0
 11
285.0
 21
204.999975
 31
0.0
  0
LINE
  5
321
330
1E
100
AcDbEntity
  8
0
100
AcDbLine
 10
284.2999999999999
 20
204.999975
 30
0.0
 11
284.8
 21
204.999975
 31
0.0
  0
LINE
  5
322
330
1E
100
AcDbEntity
  8
0
100
AcDbLine
 10
283.4999999999999
 20
204.999975
 30
0.0
 11
284.2999999999999
 21
204.999975
 31
0.0
  0
LINE
  5
323
330
1E
100
AcDbEntity
  8
0
100
AcDbLine
 10
282.5
 20
204.999975
 30
0.0
 11
283.4999999999999
 21
204.999975
 31
0.0
  0
LINE
  5
324
330
1E
100
AcDbEntity
  8
0
100
AcDbLine
 10
272.7187499999999
 20
204.999975
 30
0.0
 11
282.5
 21
204.999975
 31
0.0
  0
LINE
  5
325
330
1E
100
AcDbEntity
  8
0
100
AcDbLine
 10
274.0
 20
203.999975
 30
0.0
 11
274.0
 21
201.999975
 31
0.0
  0
LINE
  5
326
330
1E
100
AcDbEntity
  8
0
100
AcDbLine
 10
272.0
 20
203.999975
 30
0.0
 11
274.0
 21
203.999975
 31
0.0
  0
LINE
  5
327
330
1E
100
AcDbEntity
  8
0
100
AcDbLine
 10
272.0
 20
203.999975
 30
0.0
 11
272.0
 21
201.999975
 31
0.0
  0
LINE
  5
328
330
1E
100
AcDbEntity
  8
0
100
AcDbLine
 10
272.5319999999999
 20
206.3279749999999
 30
0.0
 11
272.8593749999999
 21
203.999975
 31
0.0
  0
LINE
  5
329
330
1E
100
AcDbEntity
  8
0
100
AcDbLine
 10
272.5319999999999
 20
206.3279749999999
 30
0.0
 11
273.0
 21
202.9999749999999
 31
0.0
  0
LINE
  5
32A
330
1E
100
AcDbEntity
  8
0
100
AcDbLine
 10
272.5319999999999
 20
206.3279749999999
 30
0.0
 11
272.7187499999999
 21
204.999975
 31
0.0
  0
LINE
  5
32B
330
1E
100
AcDbEntity
  8
0
100
AcDbLine
 10
270.742
 20
205.852575
 30
0.0
 11
271.1429999999999
 21
202.9999749999999
 31
0.0
  0
LINE
  5
32C
330
1E
100
AcDbEntity
  8
0
100
AcDbLine
 10
271.2839999999999
 20
209.447975
 30
0.0
 11
272.5319999999999
 21
206.3279749999999
 31
0.0
  0
LINE
  5
32D
330
1E
100
AcDbEntity
  8
0
100
AcDbLine
 10
271.2839999999999
 20
209.447975
 30
0.0
 11
272.5319999999999
 21
206.3279749999999
 31
0.0
  0
LINE
  5
32E
330
1E
100
AcDbEntity
  8
0
100
AcDbLine
 10
250.328
 20
208.526875
 30
0.0
 11
252.1109999999999
 21
210.889075
 31
0.0
  0
LINE
  5
32F
330
1E
100
AcDbEntity
  8
0
100
AcDbLine
 10
249.2579999999999
 20
205.852575
 30
0.0
 11
250.328
 21
208.526875
 31
0.0
  0
LINE
  5
330
330
1E
100
AcDbEntity
  8
0
100
AcDbLine
 10
267.8889999999999
 20
210.889075
 30
0.0
 11
269.672
 21
208.526875
 31
0.0
  0
LINE
  5
331
330
1E
100
AcDbEntity
  8
0
100
AcDbLine
 10
265.5269999999999
 20
212.6719749999999
 30
0.0
 11
267.8889999999999
 21
210.889075
 31
0.0
  0
LINE
  5
332
330
1E
100
AcDbEntity
  8
0
100
AcDbLine
 10
269.2039999999999
 20
212.203975
 30
0.0
 11
271.2839999999999
 21
209.447975
 31
0.0
  0
LINE
  5
333
330
1E
100
AcDbEntity
  8
0
100
AcDbLine
 10
253.134
 20
212.892275
 30
0.0
 11
254.8659999999999
 21
213.892275
 31
0.0
  0
LINE
  5
334
330
1E
100
AcDbEntity
  8
0
100
AcDbLine
 10
266.866
 20
212.892275
 30
0.0
 11
267.8659999999999
 21
214.624375
 31
0.0
  0
LINE
  5
335
330
1E
100
AcDbEntity
  8
0
100
AcDbLine
 10
265.134
 20
213.892275
 30
0.0
 11
266.134
 21
215.6243749999999
 31
0.0
  0
LINE
  5
336
330
1E
100
AcDbEntity
  8
0
100
AcDbLine
 10
265.134
 20
213.892275
 30
0.0
 11
266.866
 21
212.892275
 31
0.0
  0
LINE
  5
337
330
1E
100
AcDbEntity
  8
0
100
AcDbLine
 10
260.0
 20
214.142875
 30
0.0
 11
262.853
 21
213.7416749999999
 31
0.0
  0
LINE
  5
338
330
1E
100
AcDbEntity
  8
0
100
AcDbLine
 10
262.853
 20
213.7416749999999
 30
0.0
 11
265.5269999999999
 21
212.6719749999999
 31
0.0
  0
LINE
  5
339
330
1E
100
AcDbEntity
  8
0
100
AcDbLine
 10
266.4479999999999
 20
214.2839749999999
 30
0.0
 11
269.2039999999999
 21
212.203975
 31
0.0
  0
LINE
  5
33A
330
1E
100
AcDbEntity
  8
0
100
AcDbLine
 10
267.298773424845
 20
213.641881849174
 30
0.0
 11
269.2039999999999
 21
212.203975
 31
0.0
  0
LINE
  5
33B
330
1E
100
AcDbEntity
  8
0
100
AcDbLine
 10
257.147
 20
213.7416749999999
 30
0.0
 11
260.0
 21
214.142875
 31
0.0
  0
LINE
  5
33C
330
1E
100
AcDbEntity
  8
0
100
AcDbLine
 10
254.4729999999999
 20
212.6719749999999
 30
0.0
 11
257.147
 21
213.7416749999999
 31
0.0
  0
LINE
  5
33D
330
1E
100
AcDbEntity
  8
0
100
AcDbLine
 10
252.1109999999999
 20
210.889075
 30
0.0
 11
254.4729999999999
 21
212.6719749999999
 31
0.0
  0
LINE
  5
33E
330
1E
100
AcDbEntity
  8
0
100
AcDbLine
 10
253.8659999999999
 20
215.6243749999999
 30
0.0
 11
254.8659999999999
 21
213.892275
 31
0.0
  0
LINE
  5
33F
330
1E
100
AcDbEntity
  8
0
100
AcDbLine
 10
252.134
 20
214.624375
 30
0.0
 11
253.134
 21
212.892275
 31
0.0
  0
LINE
  5
340
330
1E
100
AcDbEntity
  8
0
100
AcDbLine
 10
252.134
 20
214.624375
 30
0.0
 11
252.701226575155
 21
213.641881849174
 31
0.0
  0
LINE
  5
341
330
1E
100
AcDbEntity
  8
0
100
AcDbLine
 10
252.134
 20
214.624375
 30
0.0
 11
253.8659999999999
 21
215.6243749999999
 31
0.0
  0
LINE
  5
342
330
1E
100
AcDbEntity
  8
0
100
AcDbLine
 10
263.3279999999999
 20
215.5319749999999
 30
0.0
 11
266.4479999999999
 21
214.2839749999999
 31
0.0
  0
LINE
  5
343
330
1E
100
AcDbEntity
  8
0
100
AcDbLine
 10
266.134
 20
215.6243749999999
 30
0.0
 11
267.8659999999999
 21
214.624375
 31
0.0
  0
LINE
  5
344
330
1E
100
AcDbEntity
  8
0
100
AcDbLine
 10
260.0
 20
215.999975
 30
0.0
 11
263.3279999999999
 21
215.5319749999999
 31
0.0
  0
LINE
  5
345
330
1E
100
AcDbEntity
  8
0
100
AcDbLine
 10
256.672
 20
215.5319749999999
 30
0.0
 11
260.0
 21
215.999975
 31
0.0
  0
LINE
  5
346
330
1E
100
AcDbEntity
  8
0
100
AcDbLine
 10
254.4357668964869
 20
214.637481758595
 30
0.0
 11
256.672
 21
215.5319749999999
 31
0.0
  0
LINE
  5
347
330
1E
100
AcDbEntity
  8
0
100
AcDbLine
 10
253.552
 20
214.2839749999999
 30
0.0
 11
256.672
 21
215.5319749999999
 31
0.0
  0
LINE
  5
348
330
1E
100
AcDbEntity
  8
0
100
AcDbLine
 10
250.796
 20
212.203975
 30
0.0
 11
252.701226575155
 21
213.641881849174
 31
0.0
  0
LINE
  5
349
330
1E
100
AcDbEntity
  8
0
100
AcDbLine
 10
250.796
 20
212.203975
 30
0.0
 11
253.552
 21
214.2839749999999
 31
0.0
  0
LINE
  5
34A
330
1E
100
AcDbEntity
  8
0
100
AcDbLine
 10
248.7159999999999
 20
209.447975
 30
0.0
 11
250.796
 21
212.203975
 31
0.0
  0
LINE
  5
34B
330
1E
100
AcDbEntity
  8
0
100
AcDbLine
 10
247.4679999999999
 20
206.3279749999999
 30
0.0
 11
248.7159999999999
 21
209.447975
 31
0.0
  0
LINE
  5
34C
330
1E
100
AcDbEntity
  8
0
100
AcDbLine
 10
248.857
 20
202.9999749999999
 30
0.0
 11
249.2579999999999
 21
200.147375
 31
0.0
  0
LINE
  5
34D
330
1E
100
AcDbEntity
  8
0
100
AcDbLine
 10
248.857
 20
202.9999749999999
 30
0.0
 11
249.2579999999999
 21
205.852575
 31
0.0
  0
LINE
  5
34E
330
1E
100
AcDbEntity
  8
0
100
AcDbLine
 10
248.857
 20
202.9999749999999
 30
0.0
 11
249.2579999999999
 21
205.852575
 31
0.0
  0
LINE
  5
34F
330
1E
100
AcDbEntity
  8
0
100
AcDbLine
 10
247.140625
 20
201.999975
 30
0.0
 11
247.4679999999999
 21
199.671975
 31
0.0
  0
LINE
  5
350
330
1E
100
AcDbEntity
  8
0
100
AcDbLine
 10
273.0
 20
200.9999749999999
 30
0.0
 11
273.0
 21
175.999975
 31
0.0
  0
LINE
  5
351
330
1E
100
AcDbEntity
  8
0
100
AcDbLine
 10
273.0
 20
200.9999749999999
 30
0.0
 11
282.5
 21
200.9999749999999
 31
0.0
  0
LINE
  5
352
330
1E
100
AcDbEntity
  8
0
100
AcDbLine
 10
228.0
 20
193.4519749999999
 30
0.0
 11
228.0
 21
192.395975
 31
0.0
  0
LINE
  5
353
330
1E
100
AcDbEntity
  8
0
100
AcDbLine
 10
228.0
 20
192.395975
 30
0.0
 11
228.0
 21
191.999975
 31
0.0
  0
LINE
  5
354
330
1E
100
AcDbEntity
  8
0
100
AcDbLine
 10
188.0
 20
191.7159749999999
 30
0.0
 11
188.0
 21
190.4679749999999
 31
0.0
  0
LINE
  5
355
330
1E
100
AcDbEntity
  8
0
100
AcDbLine
 10
188.0
 20
191.7159749999999
 30
0.0
 11
188.0
 21
193.795975
 31
0.0
  0
LINE
  5
356
330
1E
100
AcDbEntity
  8
0
100
AcDbLine
 10
188.0
 20
190.4679749999999
 30
0.0
 11
188.0
 21
189.999975
 31
0.0
  0
LINE
  5
357
330
1E
100
AcDbEntity
  8
0
100
AcDbLine
 10
188.0
 20
190.4679749999999
 30
0.0
 11
188.0
 21
191.7159749999999
 31
0.0
  0
LINE
  5
358
330
1E
100
AcDbEntity
  8
0
100
AcDbLine
 10
173.0
 20
189.999975
 30
0.0
 11
188.0
 21
189.999975
 31
0.0
  0
LINE
  5
359
330
1E
100
AcDbEntity
  8
0
100
AcDbLine
 10
173.0
 20
189.999975
 30
0.0
 11
173.0
 21
175.999975
 31
0.0
  0
LINE
  5
35A
330
1E
100
AcDbEntity
  8
0
100
AcDbLine
 10
294.1999999999999
 20
175.999975
 30
0.0
 11
294.8
 21
175.999975
 31
0.0
  0
LINE
  5
35B
330
1E
100
AcDbEntity
  8
0
100
AcDbLine
 10
295.0
 20
169.999975
 30
0.0
 11
295.0
 21
175.999975
 31
0.0
  0
LINE
  5
35C
330
1E
100
AcDbEntity
  8
0
100
AcDbLine
 10
295.0
 20
175.999975
 30
0.0
 11
295.0
 21
169.999975
 31
0.0
  0
LINE
  5
35D
330
1E
100
AcDbEntity
  8
0
100
AcDbLine
 10
294.8
 20
175.999975
 30
0.0
 11
295.0
 21
175.999975
 31
0.0
  0
LINE
  5
35E
330
1E
100
AcDbEntity
  8
0
100
AcDbLine
 10
134.4
 20
168.999975
 30
0.0
 11
137.0
 21
168.999975
 31
0.0
  0
LINE
  5
35F
330
1E
100
AcDbEntity
  8
0
100
AcDbLine
 10
133.4
 20
168.999975
 30
0.0
 11
134.4
 21
168.999975
 31
0.0
  0
LINE
  5
364
330
1E
100
AcDbEntity
  8
0
100
AcDbLine
 10
295.0
 20
169.999975
 30
0.0
 11
294.7
 21
169.299975
 31
0.0
  0
LINE
  5
365
330
1E
100
AcDbEntity
  8
0
100
AcDbLine
 10
319.7
 20
127.299975
 30
0.0
 11
320.0
 21
126.9999749999999
 31
0.0
  0
ENDSEC
  0
SECTION
  2
OBJECTS
  0
DICTIONARY
  5
C
330
0
100
AcDbDictionary
281
     1
  3
ACAD_GROUP
350
D
  3
ACAD_LAYOUT
350
19
  3
ACAD_MLINESTYLE
350
16
  3
ACAD_PLOTSETTINGS
350
18
  3
ACAD_PLOTSTYLENAME
350
E
  3
AcDbVariableDictionary
350
366
  0
DICTIONARY
  5
D
102
{ACAD_REACTORS
330
C
102
}
330
C
100
AcDbDictionary
281
     1
  0
DICTIONARY
  5
19
102
{ACAD_REACTORS
330
C
102
}
330
C
100
AcDbDictionary
281
     1
  3
Layout1
350
1D
  3
Model
350
21
  0
DICTIONARY
  5
16
102
{ACAD_REACTORS
330
C
102
}
330
C
100
AcDbDictionary
281
     1
  3
Standard
350
17
  0
DICTIONARY
  5
18
102
{ACAD_REACTORS
330
C
102
}
330
C
100
AcDbDictionary
281
     1
  0
ACDBDICTIONARYWDFLT
  5
E
102
{ACAD_REACTORS
330
C
102
}
330
C
100
AcDbDictionary
281
     1
  3
Normal
350
F
100
AcDbDictionaryWithDefault
340
F
  0
DICTIONARY
  5
366
102
{ACAD_REACTORS
330
C
102
}
330
C
100
AcDbDictionary
281
     1
  3
DIMASSOC
350
367
  0
LAYOUT
  5
1D
102
{ACAD_REACTORS
330
19
102
}
330
19
100
AcDbPlotSettings
  1

  2
hp deskjet 980c series
  4

  6

 40
0.0
 41
0.0
 42
0.0
 43
0.0
 44
0.0
 45
0.0
 46
0.0
 47
0.0
 48
0.0
 49
0.0
140
0.0
141
0.0
142
1.0
143
1.0
 70
   688
 72
     0
 73
     0
 74
     5
  7

 75
    16
147
1.0
148
0.0
149
0.0
100
AcDbLayout
  1
Layout1
 70
     1
 71
     1
 10
0.0
 20
0.0
 11
12.0
 21
9.0
 12
0.0
 22
0.0
 32
0.0
 14
1.000000000000000E+20
 24
1.000000000000000E+20
 34
1.000000000000000E+20
 15
-1.000000000000000E+20
 25
-1.000000000000000E+20
 35
-1.000000000000000E+20
146
0.0
 13
0.0
 23
0.0
 33
0.0
 16
1.0
 26
0.0
 36
0.0
 17
0.0
 27
1.0
 37
0.0
 76
     0
330
1A
  0
LAYOUT
  5
21
102
{ACAD_REACTORS
330
19
102
}
330
19
100
AcDbPlotSettings
  1

  2
hp deskjet 980c series
  4

  6

 40
0.0
 41
0.0
 42
0.0
 43
0.0
 44
0.0
 45
0.0
 46
0.0
 47
0.0
 48
0.0
 49
0.0
140
0.0
141
0.0
142
1.0
143
1.0
 70
  1712
 72
     0
 73
     0
 74
     0
  7

 75
     0
147
1.0
148
0.0
149
0.0
100
AcDbLayout
  1
Model
 70
     1
 71
     0
 10
0.0
 20
0.0
 11
12.0
 21
9.0
 12
0.0
 22
0.0
 32
0.0
 14
0.0
 24
0.0
 34
0.0
 15
0.0
 25
0.0
 35
0.0
146
0.0
 13
0.0
 23
0.0
 33
0.0
 16
1.0
 26
0.0
 36
0.0
 17
0.0
 27
1.0
 37
0.0
 76
     0
330
1E
  0
MLINESTYLE
  5
17
102
{ACAD_REACTORS
330
16
102
}
330
16
100
AcDbMlineStyle
  2
STANDARD
 70
     0
  3

 62
   256
 51
90.0
 52
90.0
 71
     2
 49
0.5
 62
   256
  6
BYLAYER
 49
-0.5
 62
   256
  6
BYLAYER
  0
ACDBPLACEHOLDER
  5
F
102
{ACAD_REACTORS
330
E
102
}
330
E
  0
DICTIONARYVAR
  5
367
102
{ACAD_REACTORS
330
366
102
}
330
366
100
DictionaryVariables
280
     0
  1
1
  0
ENDSEC
  0
EOF
