  0
SECTION
  2
HEADER
  9
$ACADVER
  1
AC1015
  9
$ACADMAINTVER
 70
    13
  9
$DWGCODEPAGE
  3
ANSI_1252
  9
$INSBASE
 10
0.0
 20
0.0
 30
0.0
  9
$EXTMIN
 10
-0.0000000000000089
 20
-0.210083000000134
 30
0.0
  9
$EXTMAX
 10
320.0
 20
95.21008299999989
 30
0.0
  9
$LIMMIN
 10
0.0
 20
0.0
  9
$LIMMAX
 10
12.0
 20
9.0
  9
$ORTHOMODE
 70
     0
  9
$REGENMODE
 70
     1
  9
$FILLMODE
 70
     1
  9
$QTEXTMODE
 70
     0
  9
$MIRRTEXT
 70
     1
  9
$LTSCALE
 40
1.0
  9
$ATTMODE
 70
     1
  9
$TEXTSIZE
 40
0.2
  9
$TRACEWID
 40
0.05
  9
$TEXTSTYLE
  7
Standard
  9
$CLAYER
  8
0
  9
$CELTYPE
  6
Continuous
  9
$CECOLOR
 62
   256
  9
$CELTSCALE
 40
1.0
  9
$DISPSILH
 70
     0
  9
$DIMSCALE
 40
1.0
  9
$DIMASZ
 40
0.18
  9
$DIMEXO
 40
0.0625
  9
$DIMDLI
 40
0.38
  9
$DIMRND
 40
0.0
  9
$DIMDLE
 40
0.0
  9
$DIMEXE
 40
0.18
  9
$DIMTP
 40
0.0
  9
$DIMTM
 40
0.0
  9
$DIMTXT
 40
0.18
  9
$DIMCEN
 40
0.09
  9
$DIMTSZ
 40
0.0
  9
$DIMTOL
 70
     0
  9
$DIMLIM
 70
     0
  9
$DIMTIH
 70
     1
  9
$DIMTOH
 70
     1
  9
$DIMSE1
 70
     0
  9
$DIMSE2
 70
     0
  9
$DIMTAD
 70
     0
  9
$DIMZIN
 70
     0
  9
$DIMBLK
  1

  9
$DIMASO
 70
     1
  9
$DIMSHO
 70
     1
  9
$DIMPOST
  1

  9
$DIMAPOST
  1

  9
$DIMALT
 70
     0
  9
$DIMALTD
 70
     2
  9
$DIMALTF
 40
25.4
  9
$DIMLFAC
 40
1.0
  9
$DIMTOFL
 70
     0
  9
$DIMTVP
 40
0.0
  9
$DIMTIX
 70
     0
  9
$DIMSOXD
 70
     0
  9
$DIMSAH
 70
     0
  9
$DIMBLK1
  1

  9
$DIMBLK2
  1

  9
$DIMSTYLE
  2
Standard
  9
$DIMCLRD
 70
     0
  9
$DIMCLRE
 70
     0
  9
$DIMCLRT
 70
     0
  9
$DIMTFAC
 40
1.0
  9
$DIMGAP
 40
0.09
  9
$DIMJUST
 70
     0
  9
$DIMSD1
 70
     0
  9
$DIMSD2
 70
     0
  9
$DIMTOLJ
 70
     1
  9
$DIMTZIN
 70
     0
  9
$DIMALTZ
 70
     0
  9
$DIMALTTZ
 70
     0
  9
$DIMUPT
 70
     0
  9
$DIMDEC
 70
     4
  9
$DIMTDEC
 70
     4
  9
$DIMALTU
 70
     2
  9
$DIMALTTD
 70
     2
  9
$DIMTXSTY
  7
Standard
  9
$DIMAUNIT
 70
     0
  9
$DIMADEC
 70
     0
  9
$DIMALTRND
 40
0.0
  9
$DIMAZIN
 70
     0
  9
$DIMDSEP
 70
    46
  9
$DIMATFIT
 70
     3
  9
$DIMFRAC
 70
     0
  9
$DIMLDRBLK
  1

  9
$DIMLUNIT
 70
     2
  9
$DIMLWD
 70
    -2
  9
$DIMLWE
 70
    -2
  9
$DIMTMOVE
 70
     0
  9
$LUNITS
 70
     2
  9
$LUPREC
 70
     4
  9
$SKETCHINC
 40
0.1
  9
$FILLETRAD
 40
0.0
  9
$AUNITS
 70
     0
  9
$AUPREC
 70
     0
  9
$MENU
  1
.
  9
$ELEVATION
 40
0.0
  9
$PELEVATION
 40
0.0
  9
$THICKNESS
 40
0.0
  9
$LIMCHECK
 70
     0
  9
$CHAMFERA
 40
0.0
  9
$CHAMFERB
 40
0.0
  9
$CHAMFERC
 40
0.0
  9
$CHAMFERD
 40
0.0
  9
$SKPOLY
 70
     0
  9
$TDCREATE
 40
2454637.843618854
  9
$TDUCREATE
 40
2454637.760285521
  9
$TDUPDATE
 40
2454637.849073136
  9
$TDUUPDATE
 40
2454637.765739803
  9
$TDINDWG
 40
0.0054542824
  9
$TDUSRTIMER
 40
0.0054542824
  9
$USRTIMER
 70
     1
  9
$ANGBASE
 50
0.0
  9
$ANGDIR
 70
     0
  9
$PDMODE
 70
     0
  9
$PDSIZE
 40
0.0
  9
$PLINEWID
 40
0.0
  9
$SPLFRAME
 70
     0
  9
$SPLINETYPE
 70
     6
  9
$SPLINESEGS
 70
     8
  9
$HANDSEED
  5
3E9
  9
$SURFTAB1
 70
     6
  9
$SURFTAB2
 70
     6
  9
$SURFTYPE
 70
     6
  9
$SURFU
 70
     6
  9
$SURFV
 70
     6
  9
$UCSBASE
  2

  9
$UCSNAME
  2

  9
$UCSORG
 10
0.0
 20
0.0
 30
0.0
  9
$UCSXDIR
 10
1.0
 20
0.0
 30
0.0
  9
$UCSYDIR
 10
0.0
 20
1.0
 30
0.0
  9
$UCSORTHOREF
  2

  9
$UCSORTHOVIEW
 70
     1
  9
$UCSORGTOP
 10
0.0
 20
0.0
 30
0.0
  9
$UCSORGBOTTOM
 10
0.0
 20
0.0
 30
0.0
  9
$UCSORGLEFT
 10
0.0
 20
0.0
 30
0.0
  9
$UCSORGRIGHT
 10
0.0
 20
0.0
 30
0.0
  9
$UCSORGFRONT
 10
0.0
 20
0.0
 30
0.0
  9
$UCSORGBACK
 10
0.0
 20
0.0
 30
0.0
  9
$PUCSBASE
  2

  9
$PUCSNAME
  2

  9
$PUCSORG
 10
0.0
 20
0.0
 30
0.0
  9
$PUCSXDIR
 10
1.0
 20
0.0
 30
0.0
  9
$PUCSYDIR
 10
0.0
 20
1.0
 30
0.0
  9
$PUCSORTHOREF
  2

  9
$PUCSORTHOVIEW
 70
     0
  9
$PUCSORGTOP
 10
0.0
 20
0.0
 30
0.0
  9
$PUCSORGBOTTOM
 10
0.0
 20
0.0
 30
0.0
  9
$PUCSORGLEFT
 10
0.0
 20
0.0
 30
0.0
  9
$PUCSORGRIGHT
 10
0.0
 20
0.0
 30
0.0
  9
$PUCSORGFRONT
 10
0.0
 20
0.0
 30
0.0
  9
$PUCSORGBACK
 10
0.0
 20
0.0
 30
0.0
  9
$USERI1
 70
     0
  9
$USERI2
 70
     0
  9
$USERI3
 70
     0
  9
$USERI4
 70
     0
  9
$USERI5
 70
     0
  9
$USERR1
 40
0.0
  9
$USERR2
 40
0.0
  9
$USERR3
 40
0.0
  9
$USERR4
 40
0.0
  9
$USERR5
 40
0.0
  9
$WORLDVIEW
 70
     1
  9
$SHADEDGE
 70
     3
  9
$SHADEDIF
 70
    70
  9
$TILEMODE
 70
     1
  9
$MAXACTVP
 70
    64
  9
$PINSBASE
 10
0.0
 20
0.0
 30
0.0
  9
$PLIMCHECK
 70
     0
  9
$PEXTMIN
 10
1.000000000000000E+20
 20
1.000000000000000E+20
 30
1.000000000000000E+20
  9
$PEXTMAX
 10
-1.000000000000000E+20
 20
-1.000000000000000E+20
 30
-1.000000000000000E+20
  9
$PLIMMIN
 10
0.0
 20
0.0
  9
$PLIMMAX
 10
12.0
 20
9.0
  9
$UNITMODE
 70
     0
  9
$VISRETAIN
 70
     1
  9
$PLINEGEN
 70
     0
  9
$PSLTSCALE
 70
     1
  9
$TREEDEPTH
 70
  3020
  9
$CMLSTYLE
  2
Standard
  9
$CMLJUST
 70
     0
  9
$CMLSCALE
 40
1.0
  9
$PROXYGRAPHICS
 70
     1
  9
$MEASUREMENT
 70
     0
  9
$CELWEIGHT
370
    -1
  9
$ENDCAPS
280
     0
  9
$JOINSTYLE
280
     0
  9
$LWDISPLAY
290
     0
  9
$INSUNITS
 70
     0
  9
$HYPERLINKBASE
  1

  9
$STYLESHEET
  1

  9
$XEDIT
290
     1
  9
$CEPSNTYPE
380
     0
  9
$PSTYLEMODE
290
     1
  9
$FINGERPRINTGUID
  2
{6A39CA33-2B8D-4D54-AF9C-E663AEE12636}
  9
$VERSIONGUID
  2
{61BDC655-85CB-4964-AB3E-A997419DDA17}
  9
$EXTNAMES
290
     1
  9
$PSVPSCALE
 40
0.0
  9
$OLESTARTUP
290
     0
  0
ENDSEC
  0
SECTION
  2
CLASSES
  0
CLASS
  1
ACDBDICTIONARYWDFLT
  2
AcDbDictionaryWithDefault
  3
AutoCAD 2000
 90
        0
280
     0
281
     0
  0
CLASS
  1
ACDBPLACEHOLDER
  2
AcDbPlaceHolder
  3
AutoCAD 2000
 90
        0
280
     0
281
     0
  0
CLASS
  1
LAYOUT
  2
AcDbLayout
  3
AutoCAD 2000
 90
        0
280
     0
281
     0
  0
CLASS
  1
DICTIONARYVAR
  2
AcDbDictionaryVar
  3
AutoCAD 2000
 90
        0
280
     0
281
     0
  0
ENDSEC
  0
SECTION
  2
TABLES
  0
TABLE
  2
VPORT
  5
8
330
0
100
AcDbSymbolTable
 70
     6
  0
VPORT
  5
3E8
330
8
100
AcDbSymbolTableRecord
100
AcDbViewportTableRecord
  2
*Active
 70
     0
 10
0.0
 20
0.0
 11
1.0
 21
1.0
 12
160.0
 22
47.49999999999988
 13
0.0
 23
0.0
 14
1.0
 24
1.0
 15
0.0
 25
0.0
 16
0.0
 26
0.0
 36
1.0
 17
0.0
 27
0.0
 37
0.0
 40
157.1797998440057
 41
2.043533930857874
 42
50.0
 43
0.0
 44
0.0
 50
0.0
 51
0.0
 71
     0
 72
   100
 73
     1
 74
     3
 75
     0
 76
     0
 77
     0
 78
     0
281
     0
 65
     1
110
0.0
120
0.0
130
0.0
111
1.0
121
0.0
131
0.0
112
0.0
122
1.0
132
0.0
 79
     1
146
0.0
  0
ENDTAB
  0
TABLE
  2
LTYPE
  5
5
330
0
100
AcDbSymbolTable
 70
     1
  0
LTYPE
  5
13
330
5
100
AcDbSymbolTableRecord
100
AcDbLinetypeTableRecord
  2
ByBlock
 70
     0
  3

 72
    65
 73
     0
 40
0.0
  0
LTYPE
  5
14
330
5
100
AcDbSymbolTableRecord
100
AcDbLinetypeTableRecord
  2
ByLayer
 70
     0
  3

 72
    65
 73
     0
 40
0.0
  0
LTYPE
  5
15
330
5
100
AcDbSymbolTableRecord
100
AcDbLinetypeTableRecord
  2
Continuous
 70
     0
  3
Solid line
 72
    65
 73
     0
 40
0.0
  0
ENDTAB
  0
TABLE
  2
LAYER
  5
2
330
0
100
AcDbSymbolTable
 70
     1
  0
LAYER
  5
10
330
2
100
AcDbSymbolTableRecord
100
AcDbLayerTableRecord
  2
0
 70
     0
 62
     7
  6
Continuous
370
    -3
390
F
  0
ENDTAB
  0
TABLE
  2
STYLE
  5
3
330
0
100
AcDbSymbolTable
 70
     1
  0
STYLE
  5
11
330
3
100
AcDbSymbolTableRecord
100
AcDbTextStyleTableRecord
  2
Standard
 70
     0
 40
0.0
 41
1.0
 50
0.0
 71
     0
 42
0.2
  3
txt
  4

  0
ENDTAB
  0
TABLE
  2
VIEW
  5
6
330
0
100
AcDbSymbolTable
 70
     0
  0
ENDTAB
  0
TABLE
  2
UCS
  5
7
330
0
100
AcDbSymbolTable
 70
     0
  0
ENDTAB
  0
TABLE
  2
APPID
  5
9
330
0
100
AcDbSymbolTable
 70
     1
  0
APPID
  5
12
330
9
100
AcDbSymbolTableRecord
100
AcDbRegAppTableRecord
  2
ACAD
 70
     0
  0
ENDTAB
  0
TABLE
  2
DIMSTYLE
  5
A
330
0
100
AcDbSymbolTable
 70
     1
100
AcDbDimStyleTable
 71
     0
  0
DIMSTYLE
105
2F2
330
A
100
AcDbSymbolTableRecord
100
AcDbDimStyleTableRecord
  2
Standard
 70
     0
340
11
  0
ENDTAB
  0
TABLE
  2
BLOCK_RECORD
  5
1
330
0
100
AcDbSymbolTable
 70
     0
  0
BLOCK_RECORD
  5
1E
330
1
100
AcDbSymbolTableRecord
100
AcDbBlockTableRecord
  2
*Model_Space
340
21
  0
BLOCK_RECORD
  5
1A
330
1
100
AcDbSymbolTableRecord
100
AcDbBlockTableRecord
  2
*Paper_Space
340
1D
  0
ENDTAB
  0
ENDSEC
  0
SECTION
  2
BLOCKS
  0
BLOCK
  5
1F
330
1E
100
AcDbEntity
  8
0
100
AcDbBlockBegin
  2
*Model_Space
 70
     0
 10
0.0
 20
0.0
 30
0.0
  3
*Model_Space
  1

  0
ENDBLK
  5
20
330
1E
100
AcDbEntity
  8
0
100
AcDbBlockEnd
  0
BLOCK
  5
1B
330
1A
100
AcDbEntity
 67
     1
  8
0
100
AcDbBlockBegin
  2
*Paper_Space
 70
     0
 10
0.0
 20
0.0
 30
0.0
  3
*Paper_Space
  1

  0
ENDBLK
  5
1C
330
1A
100
AcDbEntity
 67
     1
  8
0
100
AcDbBlockEnd
  0
ENDSEC
  0
SECTION
  2
ENTITIES
  0
LINE
  5
22
330
1E
100
AcDbEntity
  8
0
100
AcDbLine
 10
31.0
 20
33.5100829999999
 30
0.0
 11
149.5
 21
33.5100829999999
 31
0.0
  0
LINE
  5
23
330
1E
100
AcDbEntity
  8
0
100
AcDbLine
 10
27.0
 20
35.21008299999989
 30
0.0
 11
28.2
 21
34.3100829999999
 31
0.0
  0
LINE
  5
24
330
1E
100
AcDbEntity
  8
0
100
AcDbLine
 10
28.2
 20
34.3100829999999
 30
0.0
 11
29.5
 21
33.71008299999989
 31
0.0
  0
LINE
  5
25
330
1E
100
AcDbEntity
  8
0
100
AcDbLine
 10
29.5
 20
33.71008299999989
 30
0.0
 11
31.0
 21
33.5100829999999
 31
0.0
  0
LINE
  5
26
330
1E
100
AcDbEntity
  8
0
100
AcDbLine
 10
26.8
 20
35.0100829999999
 30
0.0
 11
28.0
 21
34.0100829999999
 31
0.0
  0
LINE
  5
27
330
1E
100
AcDbEntity
  8
0
100
AcDbLine
 10
29.5
 20
33.4100829999999
 30
0.0
 11
31.0
 21
33.2100829999999
 31
0.0
  0
LINE
  5
28
330
1E
100
AcDbEntity
  8
0
100
AcDbLine
 10
46.0
 20
31.2100829999999
 30
0.0
 11
46.0
 21
33.2100829999999
 31
0.0
  0
LINE
  5
29
330
1E
100
AcDbEntity
  8
0
100
AcDbLine
 10
46.0
 20
31.2100829999999
 30
0.0
 11
48.0
 21
31.2100829999999
 31
0.0
  0
LINE
  5
2A
330
1E
100
AcDbEntity
  8
0
100
AcDbLine
 10
47.468
 20
31.2100829999999
 30
0.0
 11
48.716
 21
31.2100829999999
 31
0.0
  0
LINE
  5
2B
330
1E
100
AcDbEntity
  8
0
100
AcDbLine
 10
48.716
 20
31.2100829999999
 30
0.0
 11
50.79600000000001
 21
31.2100829999999
 31
0.0
  0
LINE
  5
2C
330
1E
100
AcDbEntity
  8
0
100
AcDbLine
 10
50.79600000000001
 20
31.2100829999999
 30
0.0
 11
53.55199999999999
 21
31.2100829999999
 31
0.0
  0
LINE
  5
2D
330
1E
100
AcDbEntity
  8
0
100
AcDbLine
 10
50.328
 20
31.2100829999999
 30
0.0
 11
52.1109
 21
31.2100829999999
 31
0.0
  0
LINE
  5
2E
330
1E
100
AcDbEntity
  8
0
100
AcDbLine
 10
50.328
 20
31.2100829999999
 30
0.0
 11
52.1109
 21
31.2100829999999
 31
0.0
  0
LINE
  5
2F
330
1E
100
AcDbEntity
  8
0
100
AcDbLine
 10
49.2583
 20
31.2100829999999
 30
0.0
 11
50.328
 21
31.2100829999999
 31
0.0
  0
LINE
  5
30
330
1E
100
AcDbEntity
  8
0
100
AcDbLine
 10
49.2583
 20
31.2100829999999
 30
0.0
 11
50.328
 21
31.2100829999999
 31
0.0
  0
LINE
  5
31
330
1E
100
AcDbEntity
  8
0
100
AcDbLine
 10
48.8571
 20
31.2100829999999
 30
0.0
 11
49.2583
 21
31.2100829999999
 31
0.0
  0
LINE
  5
32
330
1E
100
AcDbEntity
  8
0
100
AcDbLine
 10
53.13399999999999
 20
31.2100829999999
 30
0.0
 11
54.86600000000001
 21
31.2100829999999
 31
0.0
  0
LINE
  5
33
330
1E
100
AcDbEntity
  8
0
100
AcDbLine
 10
52.134
 20
31.2100829999999
 30
0.0
 11
53.86600000000001
 21
31.2100829999999
 31
0.0
  0
LINE
  5
34
330
1E
100
AcDbEntity
  8
0
100
AcDbLine
 10
52.134
 20
31.2100829999999
 30
0.0
 11
53.13399999999999
 21
31.2100829999999
 31
0.0
  0
LINE
  5
35
330
1E
100
AcDbEntity
  8
0
100
AcDbLine
 10
53.86600000000001
 20
31.2100829999999
 30
0.0
 11
54.86600000000001
 21
31.2100829999999
 31
0.0
  0
LINE
  5
36
330
1E
100
AcDbEntity
  8
0
100
AcDbLine
 10
53.55199999999999
 20
31.2100829999999
 30
0.0
 11
56.672
 21
31.2100829999999
 31
0.0
  0
LINE
  5
37
330
1E
100
AcDbEntity
  8
0
100
AcDbLine
 10
54.4731
 20
31.2100829999999
 30
0.0
 11
57.14739999999999
 21
31.2100829999999
 31
0.0
  0
LINE
  5
38
330
1E
100
AcDbEntity
  8
0
100
AcDbLine
 10
53.13399999999999
 20
31.2100829999999
 30
0.0
 11
54.86600000000001
 21
31.2100829999999
 31
0.0
  0
LINE
  5
39
330
1E
100
AcDbEntity
  8
0
100
AcDbLine
 10
52.134
 20
31.2100829999999
 30
0.0
 11
52.134
 21
33.2100829999999
 31
0.0
  0
LINE
  5
3A
330
1E
100
AcDbEntity
  8
0
100
AcDbLine
 10
52.134
 20
31.2100829999999
 30
0.0
 11
53.86600000000001
 21
31.2100829999999
 31
0.0
  0
LINE
  5
3B
330
1E
100
AcDbEntity
  8
0
100
AcDbLine
 10
52.134
 20
31.2100829999999
 30
0.0
 11
53.13399999999999
 21
31.2100829999999
 31
0.0
  0
LINE
  5
3C
330
1E
100
AcDbEntity
  8
0
100
AcDbLine
 10
53.86600000000001
 20
31.2100829999999
 30
0.0
 11
53.86600000000001
 21
33.2100829999999
 31
0.0
  0
LINE
  5
3D
330
1E
100
AcDbEntity
  8
0
100
AcDbLine
 10
53.86600000000001
 20
31.2100829999999
 30
0.0
 11
54.86600000000001
 21
31.2100829999999
 31
0.0
  0
LINE
  5
3E
330
1E
100
AcDbEntity
  8
0
100
AcDbLine
 10
52.1109
 20
31.2100829999999
 30
0.0
 11
54.4731
 21
31.2100829999999
 31
0.0
  0
LINE
  5
3F
330
1E
100
AcDbEntity
  8
0
100
AcDbLine
 10
56.672
 20
31.2100829999999
 30
0.0
 11
60.0
 21
31.2100829999999
 31
0.0
  0
LINE
  5
40
330
1E
100
AcDbEntity
  8
0
100
AcDbLine
 10
54.4731
 20
31.2100829999999
 30
0.0
 11
57.14739999999999
 21
31.2100829999999
 31
0.0
  0
LINE
  5
41
330
1E
100
AcDbEntity
  8
0
100
AcDbLine
 10
52.1109
 20
31.2100829999999
 30
0.0
 11
54.4731
 21
31.2100829999999
 31
0.0
  0
LINE
  5
42
330
1E
100
AcDbEntity
  8
0
100
AcDbLine
 10
57.14739999999999
 20
31.2100829999999
 30
0.0
 11
60.0
 21
31.2100829999999
 31
0.0
  0
LINE
  5
43
330
1E
100
AcDbEntity
  8
0
100
AcDbLine
 10
60.0
 20
31.2100829999999
 30
0.0
 11
63.328
 21
31.2100829999999
 31
0.0
  0
LINE
  5
44
330
1E
100
AcDbEntity
  8
0
100
AcDbLine
 10
60.0
 20
31.2100829999999
 30
0.0
 11
62.8526
 21
31.2100829999999
 31
0.0
  0
LINE
  5
45
330
1E
100
AcDbEntity
  8
0
100
AcDbLine
 10
62.8526
 20
31.2100829999999
 30
0.0
 11
65.5269
 21
31.2100829999999
 31
0.0
  0
LINE
  5
46
330
1E
100
AcDbEntity
  8
0
100
AcDbLine
 10
63.328
 20
31.2100829999999
 30
0.0
 11
66.448
 21
31.2100829999999
 31
0.0
  0
LINE
  5
47
330
1E
100
AcDbEntity
  8
0
100
AcDbLine
 10
60.0
 20
31.2100829999999
 30
0.0
 11
63.328
 21
31.2100829999999
 31
0.0
  0
LINE
  5
48
330
1E
100
AcDbEntity
  8
0
100
AcDbLine
 10
60.0
 20
31.2100829999999
 30
0.0
 11
62.8526
 21
31.2100829999999
 31
0.0
  0
LINE
  5
49
330
1E
100
AcDbEntity
  8
0
100
AcDbLine
 10
62.8526
 20
31.2100829999999
 30
0.0
 11
65.5269
 21
31.2100829999999
 31
0.0
  0
LINE
  5
4A
330
1E
100
AcDbEntity
  8
0
100
AcDbLine
 10
65.134
 20
31.2100829999999
 30
0.0
 11
66.134
 21
31.2100829999999
 31
0.0
  0
LINE
  5
4B
330
1E
100
AcDbEntity
  8
0
100
AcDbLine
 10
65.134
 20
31.2100829999999
 30
0.0
 11
66.866
 21
31.2100829999999
 31
0.0
  0
LINE
  5
4C
330
1E
100
AcDbEntity
  8
0
100
AcDbLine
 10
66.134
 20
31.2100829999999
 30
0.0
 11
67.86599999999999
 21
31.2100829999999
 31
0.0
  0
LINE
  5
4D
330
1E
100
AcDbEntity
  8
0
100
AcDbLine
 10
65.5269
 20
31.2100829999999
 30
0.0
 11
67.8891
 21
31.2100829999999
 31
0.0
  0
LINE
  5
4E
330
1E
100
AcDbEntity
  8
0
100
AcDbLine
 10
65.134
 20
31.2100829999999
 30
0.0
 11
66.134
 21
31.2100829999999
 31
0.0
  0
LINE
  5
4F
330
1E
100
AcDbEntity
  8
0
100
AcDbLine
 10
65.134
 20
31.2100829999999
 30
0.0
 11
66.866
 21
31.2100829999999
 31
0.0
  0
LINE
  5
50
330
1E
100
AcDbEntity
  8
0
100
AcDbLine
 10
66.134
 20
31.2100829999999
 30
0.0
 11
66.134
 21
33.2100829999999
 31
0.0
  0
LINE
  5
51
330
1E
100
AcDbEntity
  8
0
100
AcDbLine
 10
66.134
 20
31.2100829999999
 30
0.0
 11
67.86599999999999
 21
31.2100829999999
 31
0.0
  0
LINE
  5
52
330
1E
100
AcDbEntity
  8
0
100
AcDbLine
 10
66.448
 20
31.2100829999999
 30
0.0
 11
69.20399999999999
 21
31.2100829999999
 31
0.0
  0
LINE
  5
53
330
1E
100
AcDbEntity
  8
0
100
AcDbLine
 10
63.328
 20
31.2100829999999
 30
0.0
 11
66.448
 21
31.2100829999999
 31
0.0
  0
LINE
  5
54
330
1E
100
AcDbEntity
  8
0
100
AcDbLine
 10
65.5269
 20
31.2100829999999
 30
0.0
 11
67.8891
 21
31.2100829999999
 31
0.0
  0
LINE
  5
55
330
1E
100
AcDbEntity
  8
0
100
AcDbLine
 10
66.866
 20
31.2100829999999
 30
0.0
 11
67.86599999999999
 21
31.2100829999999
 31
0.0
  0
LINE
  5
56
330
1E
100
AcDbEntity
  8
0
100
AcDbLine
 10
67.8891
 20
31.2100829999999
 30
0.0
 11
69.672
 21
31.2100829999999
 31
0.0
  0
LINE
  5
57
330
1E
100
AcDbEntity
  8
0
100
AcDbLine
 10
66.866
 20
31.2100829999999
 30
0.0
 11
67.86599999999999
 21
31.2100829999999
 31
0.0
  0
LINE
  5
58
330
1E
100
AcDbEntity
  8
0
100
AcDbLine
 10
67.86599999999999
 20
31.2100829999999
 30
0.0
 11
67.86599999999999
 21
33.2100829999999
 31
0.0
  0
LINE
  5
59
330
1E
100
AcDbEntity
  8
0
100
AcDbLine
 10
69.20399999999999
 20
31.2100829999999
 30
0.0
 11
71.28399999999999
 21
31.2100829999999
 31
0.0
  0
LINE
  5
5A
330
1E
100
AcDbEntity
  8
0
100
AcDbLine
 10
66.448
 20
31.2100829999999
 30
0.0
 11
69.20399999999999
 21
31.2100829999999
 31
0.0
  0
LINE
  5
5B
330
1E
100
AcDbEntity
  8
0
100
AcDbLine
 10
67.8891
 20
31.2100829999999
 30
0.0
 11
69.672
 21
31.2100829999999
 31
0.0
  0
LINE
  5
5C
330
1E
100
AcDbEntity
  8
0
100
AcDbLine
 10
69.672
 20
31.2100829999999
 30
0.0
 11
70.74169999999999
 21
31.2100829999999
 31
0.0
  0
LINE
  5
5D
330
1E
100
AcDbEntity
  8
0
100
AcDbLine
 10
71.28399999999999
 20
31.2100829999999
 30
0.0
 11
72.53199999999999
 21
31.2100829999999
 31
0.0
  0
LINE
  5
5E
330
1E
100
AcDbEntity
  8
0
100
AcDbLine
 10
69.20399999999999
 20
31.2100829999999
 30
0.0
 11
71.28399999999999
 21
31.2100829999999
 31
0.0
  0
LINE
  5
5F
330
1E
100
AcDbEntity
  8
0
100
AcDbLine
 10
69.672
 20
31.2100829999999
 30
0.0
 11
70.74169999999999
 21
31.2100829999999
 31
0.0
  0
LINE
  5
60
330
1E
100
AcDbEntity
  8
0
100
AcDbLine
 10
72.0
 20
31.2100829999999
 30
0.0
 11
74.0
 21
31.2100829999999
 31
0.0
  0
LINE
  5
61
330
1E
100
AcDbEntity
  8
0
100
AcDbLine
 10
72.53199999999999
 20
31.2100829999999
 30
0.0
 11
73.0
 21
31.2100829999999
 31
0.0
  0
LINE
  5
62
330
1E
100
AcDbEntity
  8
0
100
AcDbLine
 10
71.28399999999999
 20
31.2100829999999
 30
0.0
 11
72.53199999999999
 21
31.2100829999999
 31
0.0
  0
LINE
  5
63
330
1E
100
AcDbEntity
  8
0
100
AcDbLine
 10
70.74169999999999
 20
31.2100829999999
 30
0.0
 11
71.1429
 21
31.2100829999999
 31
0.0
  0
LINE
  5
64
330
1E
100
AcDbEntity
  8
0
100
AcDbLine
 10
74.0
 20
31.2100829999999
 30
0.0
 11
74.0
 21
33.2100829999999
 31
0.0
  0
LINE
  5
65
330
1E
100
AcDbEntity
  8
0
100
AcDbLine
 10
72.53199999999999
 20
31.2100829999999
 30
0.0
 11
73.0
 21
31.2100829999999
 31
0.0
  0
LINE
  5
66
330
1E
100
AcDbEntity
  8
0
100
AcDbLine
 10
57.14739999999999
 20
31.2100829999999
 30
0.0
 11
60.0
 21
31.2100829999999
 31
0.0
  0
LINE
  5
67
330
1E
100
AcDbEntity
  8
0
100
AcDbLine
 10
56.672
 20
31.2100829999999
 30
0.0
 11
60.0
 21
31.2100829999999
 31
0.0
  0
LINE
  5
68
330
1E
100
AcDbEntity
  8
0
100
AcDbLine
 10
53.55199999999999
 20
31.2100829999999
 30
0.0
 11
56.672
 21
31.2100829999999
 31
0.0
  0
LINE
  5
69
330
1E
100
AcDbEntity
  8
0
100
AcDbLine
 10
50.79600000000001
 20
31.2100829999999
 30
0.0
 11
53.55199999999999
 21
31.2100829999999
 31
0.0
  0
LINE
  5
6A
330
1E
100
AcDbEntity
  8
0
100
AcDbLine
 10
48.716
 20
31.2100829999999
 30
0.0
 11
50.79600000000001
 21
31.2100829999999
 31
0.0
  0
LINE
  5
6B
330
1E
100
AcDbEntity
  8
0
100
AcDbLine
 10
47.468
 20
31.2100829999999
 30
0.0
 11
48.716
 21
31.2100829999999
 31
0.0
  0
LINE
  5
6C
330
1E
100
AcDbEntity
  8
0
100
AcDbLine
 10
46.0
 20
33.2100829999999
 30
0.0
 11
46.0
 21
31.2100829999999
 31
0.0
  0
LINE
  5
6D
330
1E
100
AcDbEntity
  8
0
100
AcDbLine
 10
52.134
 20
33.2100829999999
 30
0.0
 11
52.134
 21
31.2100829999999
 31
0.0
  0
LINE
  5
6E
330
1E
100
AcDbEntity
  8
0
100
AcDbLine
 10
74.0
 20
33.2100829999999
 30
0.0
 11
74.0
 21
31.2100829999999
 31
0.0
  0
LINE
  5
6F
330
1E
100
AcDbEntity
  8
0
100
AcDbLine
 10
66.134
 20
33.2100829999999
 30
0.0
 11
66.134
 21
31.2100829999999
 31
0.0
  0
LINE
  5
70
330
1E
100
AcDbEntity
  8
0
100
AcDbLine
 10
67.86599999999999
 20
33.2100829999999
 30
0.0
 11
67.86599999999999
 21
31.2100829999999
 31
0.0
  0
LINE
  5
71
330
1E
100
AcDbEntity
  8
0
100
AcDbLine
 10
53.86600000000001
 20
33.2100829999999
 30
0.0
 11
53.86600000000001
 21
31.2100829999999
 31
0.0
  0
LINE
  5
72
330
1E
100
AcDbEntity
  8
0
100
AcDbLine
 10
47.0
 20
31.2100829999999
 30
0.0
 11
47.468
 21
31.2100829999999
 31
0.0
  0
LINE
  5
73
330
1E
100
AcDbEntity
  8
0
100
AcDbLine
 10
47.0
 20
31.2100829999999
 30
0.0
 11
47.468
 21
31.2100829999999
 31
0.0
  0
LINE
  5
74
330
1E
100
AcDbEntity
  8
0
100
AcDbLine
 10
31.0
 20
33.2100829999999
 30
0.0
 11
149.5
 21
33.2100829999999
 31
0.0
  0
LINE
  5
75
330
1E
100
AcDbEntity
  8
0
100
AcDbLine
 10
60.0
 20
35.9100829999999
 30
0.0
 11
67.0
 21
36.9100829999999
 31
0.0
  0
LINE
  5
76
330
1E
100
AcDbEntity
  8
0
100
AcDbLine
 10
31.0
 20
33.5100829999999
 30
0.0
 11
149.5
 21
33.5100829999999
 31
0.0
  0
LINE
  5
77
330
1E
100
AcDbEntity
  8
0
100
AcDbLine
 10
31.0
 20
33.2100829999999
 30
0.0
 11
149.5
 21
33.2100829999999
 31
0.0
  0
LINE
  5
78
330
1E
100
AcDbEntity
  8
0
100
AcDbLine
 10
67.0
 20
36.9100829999999
 30
0.0
 11
73.59999999999999
 21
39.61008299999989
 31
0.0
  0
LINE
  5
79
330
1E
100
AcDbEntity
  8
0
100
AcDbLine
 10
53.0
 20
36.9100829999999
 30
0.0
 11
60.0
 21
35.9100829999999
 31
0.0
  0
LINE
  5
7A
330
1E
100
AcDbEntity
  8
0
100
AcDbLine
 10
26.1
 20
36.4100829999999
 30
0.0
 11
27.0
 21
35.21008299999989
 31
0.0
  0
LINE
  5
7B
330
1E
100
AcDbEntity
  8
0
100
AcDbLine
 10
25.5
 20
37.71008299999989
 30
0.0
 11
26.1
 21
36.4100829999999
 31
0.0
  0
LINE
  5
7C
330
1E
100
AcDbEntity
  8
0
100
AcDbLine
 10
25.3
 20
39.21008299999989
 30
0.0
 11
25.3
 21
52.7100829999999
 31
0.0
  0
LINE
  5
7D
330
1E
100
AcDbEntity
  8
0
100
AcDbLine
 10
25.3
 20
39.21008299999989
 30
0.0
 11
25.5
 21
37.71008299999989
 31
0.0
  0
LINE
  5
7E
330
1E
100
AcDbEntity
  8
0
100
AcDbLine
 10
25.8
 20
36.21008299999989
 30
0.0
 11
26.8
 21
35.0100829999999
 31
0.0
  0
LINE
  5
7F
330
1E
100
AcDbEntity
  8
0
100
AcDbLine
 10
25.2
 20
37.71008299999989
 30
0.0
 11
25.8
 21
36.21008299999989
 31
0.0
  0
LINE
  5
81
330
1E
100
AcDbEntity
  8
0
100
AcDbLine
 10
5.29999999999999
 20
54.1100829999999
 30
0.0
 11
7.79999999999999
 21
53.01008299999989
 31
0.0
  0
LINE
  5
82
330
1E
100
AcDbEntity
  8
0
100
AcDbLine
 10
2.99999999999999
 20
55.7100829999999
 30
0.0
 11
5.29999999999999
 21
54.1100829999999
 31
0.0
  0
LINE
  5
84
330
1E
100
AcDbEntity
  8
0
100
AcDbLine
 10
1.399999999999989
 20
58.01008299999989
 30
0.0
 11
2.99999999999999
 21
55.7100829999999
 31
0.0
  0
LINE
  5
85
330
1E
100
AcDbEntity
  8
0
100
AcDbLine
 10
0.299999999999991
 20
60.51008299999989
 30
0.0
 11
1.399999999999989
 21
58.01008299999989
 31
0.0
  0
LINE
  5
86
330
1E
100
AcDbEntity
  8
0
100
AcDbLine
 10
0.299999999999991
 20
60.51008299999989
 30
0.0
 11
1.399999999999989
 21
58.01008299999989
 31
0.0
  0
LINE
  5
87
330
1E
100
AcDbEntity
  8
0
100
AcDbLine
 10
10.5
 20
52.7100829999999
 30
0.0
 11
60.0
 21
52.7100829999999
 31
0.0
  0
LINE
  5
88
330
1E
100
AcDbEntity
  8
0
100
AcDbLine
 10
10.5
 20
52.7100829999999
 30
0.0
 11
40.0
 21
52.7100829999999
 31
0.0
  0
LINE
  5
89
330
1E
100
AcDbEntity
  8
0
100
AcDbLine
 10
7.79999999999999
 20
53.01008299999989
 30
0.0
 11
10.5
 21
52.7100829999999
 31
0.0
  0
LINE
  5
8A
330
1E
100
AcDbEntity
  8
0
100
AcDbLine
 10
-0.0000000000000089
 20
63.2100829999999
 30
0.0
 11
0.299999999999991
 21
60.51008299999989
 31
0.0
  0
LINE
  5
8B
330
1E
100
AcDbEntity
  8
0
100
AcDbLine
 10
35.13181818181819
 20
52.7100829999999
 30
0.0
 11
36.4
 21
49.61008299999989
 31
0.0
  0
LINE
  5
8C
330
1E
100
AcDbEntity
  8
0
100
AcDbLine
 10
73.59999999999999
 20
39.61008299999989
 30
0.0
 11
79.29999999999999
 21
43.91008299999989
 31
0.0
  0
LINE
  5
8E
330
1E
100
AcDbEntity
  8
0
100
AcDbLine
 10
79.29999999999999
 20
43.91008299999989
 30
0.0
 11
83.59999999999999
 21
49.61008299999989
 31
0.0
  0
LINE
  5
90
330
1E
100
AcDbEntity
  8
0
100
AcDbLine
 10
63.9
 20
48.51008299999989
 30
0.0
 11
67.59999999999999
 21
49.9100829999999
 31
0.0
  0
LINE
  5
91
330
1E
100
AcDbEntity
  8
0
100
AcDbLine
 10
60.0
 20
47.91008299999989
 30
0.0
 11
63.9
 21
48.51008299999989
 31
0.0
  0
LINE
  5
92
330
1E
100
AcDbEntity
  8
0
100
AcDbLine
 10
83.59999999999999
 20
49.61008299999989
 30
0.0
 11
86.3
 21
56.21008299999989
 31
0.0
  0
LINE
  5
94
330
1E
100
AcDbEntity
  8
0
100
AcDbLine
 10
56.1
 20
48.51008299999989
 30
0.0
 11
60.0
 21
47.91008299999989
 31
0.0
  0
LINE
  5
95
330
1E
100
AcDbEntity
  8
0
100
AcDbLine
 10
40.7
 20
43.91008299999989
 30
0.0
 11
46.39999999999999
 21
39.61008299999989
 31
0.0
  0
LINE
  5
96
330
1E
100
AcDbEntity
  8
0
100
AcDbLine
 10
46.39999999999999
 20
39.61008299999989
 30
0.0
 11
53.0
 21
36.9100829999999
 31
0.0
  0
LINE
  5
98
330
1E
100
AcDbEntity
  8
0
100
AcDbLine
 10
47.0
 20
52.7100829999999
 30
0.0
 11
51.0
 21
52.7100829999999
 31
0.0
  0
LINE
  5
99
330
1E
100
AcDbEntity
  8
0
100
AcDbLine
 10
43.3
 20
52.7100829999999
 30
0.0
 11
47.0
 21
52.7100829999999
 31
0.0
  0
LINE
  5
9A
330
1E
100
AcDbEntity
  8
0
100
AcDbLine
 10
40.0
 20
52.7100829999999
 30
0.0
 11
43.3
 21
52.7100829999999
 31
0.0
  0
LINE
  5
9B
330
1E
100
AcDbEntity
  8
0
100
AcDbLine
 10
40.0
 20
52.7100829999999
 30
0.0
 11
60.0
 21
52.7100829999999
 31
0.0
  0
LINE
  5
9D
330
1E
100
AcDbEntity
  8
0
100
AcDbLine
 10
67.59999999999999
 20
49.9100829999999
 30
0.0
 11
70.8
 21
52.4100829999999
 31
0.0
  0
LINE
  5
A0
330
1E
100
AcDbEntity
  8
0
100
AcDbLine
 10
60.0
 20
52.7100829999999
 30
0.0
 11
62.7
 21
53.01008299999989
 31
0.0
  0
LINE
  5
A1
330
1E
100
AcDbEntity
  8
0
100
AcDbLine
 10
59.6
 20
52.7100829999999
 30
0.0
 11
60.0
 21
52.7100829999999
 31
0.0
  0
LINE
  5
A2
330
1E
100
AcDbEntity
  8
0
100
AcDbLine
 10
55.3
 20
52.7100829999999
 30
0.0
 11
58.1
 21
52.7100829999999
 31
0.0
  0
LINE
  5
A3
330
1E
100
AcDbEntity
  8
0
100
AcDbLine
 10
51.0
 20
52.7100829999999
 30
0.0
 11
55.3
 21
52.7100829999999
 31
0.0
  0
LINE
  5
A5
330
1E
100
AcDbEntity
  8
0
100
AcDbLine
 10
70.8
 20
52.4100829999999
 30
0.0
 11
73.3
 21
55.6100829999999
 31
0.0
  0
LINE
  5
A9
330
1E
100
AcDbEntity
  8
0
100
AcDbLine
 10
49.2
 20
52.4100829999999
 30
0.0
 11
52.4
 21
49.9100829999999
 31
0.0
  0
LINE
  5
AA
330
1E
100
AcDbEntity
  8
0
100
AcDbLine
 10
52.4
 20
49.9100829999999
 30
0.0
 11
56.1
 21
48.51008299999989
 31
0.0
  0
LINE
  5
AC
330
1E
100
AcDbEntity
  8
0
100
AcDbLine
 10
48.965625
 20
52.7100829999999
 30
0.0
 11
49.2
 21
52.4100829999999
 31
0.0
  0
LINE
  5
AE
330
1E
100
AcDbEntity
  8
0
100
AcDbLine
 10
36.4
 20
49.61008299999989
 30
0.0
 11
40.7
 21
43.91008299999989
 31
0.0
  0
LINE
  5
B0
330
1E
100
AcDbEntity
  8
0
100
AcDbLine
 10
62.7
 20
53.01008299999989
 30
0.0
 11
65.2
 21
54.1100829999999
 31
0.0
  0
LINE
  5
B2
330
1E
100
AcDbEntity
  8
0
100
AcDbLine
 10
65.2
 20
54.1100829999999
 30
0.0
 11
67.5
 21
55.7100829999999
 31
0.0
  0
LINE
  5
B3
330
1E
100
AcDbEntity
  8
0
100
AcDbLine
 10
67.5
 20
55.7100829999999
 30
0.0
 11
69.1
 21
58.01008299999989
 31
0.0
  0
LINE
  5
B5
330
1E
100
AcDbEntity
  8
0
100
AcDbLine
 10
69.1
 20
58.01008299999989
 30
0.0
 11
70.2
 21
60.51008299999989
 31
0.0
  0
LINE
  5
B7
330
1E
100
AcDbEntity
  8
0
100
AcDbLine
 10
73.3
 20
55.6100829999999
 30
0.0
 11
74.7
 21
59.31008299999989
 31
0.0
  0
LINE
  5
B8
330
1E
100
AcDbEntity
  8
0
100
AcDbLine
 10
70.2
 20
60.51008299999989
 30
0.0
 11
70.5
 21
63.2100829999999
 31
0.0
  0
LINE
  5
B9
330
1E
100
AcDbEntity
  8
0
100
AcDbLine
 10
74.7
 20
59.31008299999989
 30
0.0
 11
75.3
 21
63.2100829999999
 31
0.0
  0
LINE
  5
BA
330
1E
100
AcDbEntity
  8
0
100
AcDbLine
 10
86.3
 20
56.21008299999989
 30
0.0
 11
87.3
 21
63.2100829999999
 31
0.0
  0
LINE
  5
BB
330
1E
100
AcDbEntity
  8
0
100
AcDbLine
 10
25.3
 20
52.7100829999999
 30
0.0
 11
25.3
 21
39.21008299999989
 31
0.0
  0
LINE
  5
BC
330
1E
100
AcDbEntity
  8
0
100
AcDbLine
 10
25.0
 20
52.7100829999999
 30
0.0
 11
25.0
 21
39.21008299999989
 31
0.0
  0
LINE
  5
BD
330
1E
100
AcDbEntity
  8
0
100
AcDbLine
 10
25.0
 20
39.21008299999989
 30
0.0
 11
25.0
 21
52.7100829999999
 31
0.0
  0
LINE
  5
BE
330
1E
100
AcDbEntity
  8
0
100
AcDbLine
 10
25.0
 20
39.21008299999989
 30
0.0
 11
25.2
 21
37.71008299999989
 31
0.0
  0
LINE
  5
BF
330
1E
100
AcDbEntity
  8
0
100
AcDbLine
 10
133.6999999999999
 20
56.21008299999989
 30
0.0
 11
136.4
 21
49.61008299999989
 31
0.0
  0
LINE
  5
C0
330
1E
100
AcDbEntity
  8
0
100
AcDbLine
 10
0.299999999999991
 20
65.9100829999999
 30
0.0
 11
1.399999999999989
 21
68.4100829999999
 31
0.0
  0
LINE
  5
C3
330
1E
100
AcDbEntity
  8
0
100
AcDbLine
 10
2.99999999999999
 20
70.7100829999999
 30
0.0
 11
5.29999999999999
 21
72.31008299999991
 31
0.0
  0
LINE
  5
C4
330
1E
100
AcDbEntity
  8
0
100
AcDbLine
 10
1.399999999999989
 20
68.4100829999999
 30
0.0
 11
2.99999999999999
 21
70.7100829999999
 31
0.0
  0
LINE
  5
C5
330
1E
100
AcDbEntity
  8
0
100
AcDbLine
 10
0.299999999999991
 20
65.9100829999999
 30
0.0
 11
1.399999999999989
 21
68.4100829999999
 31
0.0
  0
LINE
  5
C6
330
1E
100
AcDbEntity
  8
0
100
AcDbLine
 10
10.5
 20
73.71008299999989
 30
0.0
 11
60.0
 21
73.71008299999989
 31
0.0
  0
LINE
  5
C7
330
1E
100
AcDbEntity
  8
0
100
AcDbLine
 10
10.5
 20
73.71008299999989
 30
0.0
 11
60.0
 21
73.71008299999989
 31
0.0
  0
LINE
  5
C8
330
1E
100
AcDbEntity
  8
0
100
AcDbLine
 10
7.79999999999999
 20
73.4100829999999
 30
0.0
 11
10.5
 21
73.71008299999989
 31
0.0
  0
LINE
  5
C9
330
1E
100
AcDbEntity
  8
0
100
AcDbLine
 10
5.29999999999999
 20
72.31008299999991
 30
0.0
 11
7.79999999999999
 21
73.4100829999999
 31
0.0
  0
LINE
  5
CA
330
1E
100
AcDbEntity
  8
0
100
AcDbLine
 10
25.0
 20
87.2100829999999
 30
0.0
 11
25.2
 21
88.7100829999999
 31
0.0
  0
LINE
  5
CB
330
1E
100
AcDbEntity
  8
0
100
AcDbLine
 10
25.0
 20
87.2100829999999
 30
0.0
 11
25.0
 21
73.71008299999989
 31
0.0
  0
LINE
  5
CF
330
1E
100
AcDbEntity
  8
0
100
AcDbLine
 10
48.965625
 20
73.71008299999989
 30
0.0
 11
49.2
 21
74.01008299999991
 31
0.0
  0
LINE
  5
D1
330
1E
100
AcDbEntity
  8
0
100
AcDbLine
 10
35.13181818181819
 20
73.71008299999989
 30
0.0
 11
36.4
 21
76.81008299999991
 31
0.0
  0
LINE
  5
D2
330
1E
100
AcDbEntity
  8
0
100
AcDbLine
 10
25.3
 20
73.71008299999989
 30
0.0
 11
25.3
 21
87.2100829999999
 31
0.0
  0
LINE
  5
D3
330
1E
100
AcDbEntity
  8
0
100
AcDbLine
 10
65.2
 20
72.31008299999991
 30
0.0
 11
67.5
 21
70.7100829999999
 31
0.0
  0
LINE
  5
D4
330
1E
100
AcDbEntity
  8
0
100
AcDbLine
 10
67.5
 20
70.7100829999999
 30
0.0
 11
69.1
 21
68.4100829999999
 31
0.0
  0
LINE
  5
D6
330
1E
100
AcDbEntity
  8
0
100
AcDbLine
 10
49.2
 20
74.01008299999991
 30
0.0
 11
52.4
 21
76.51008299999991
 31
0.0
  0
LINE
  5
D7
330
1E
100
AcDbEntity
  8
0
100
AcDbLine
 10
60.0
 20
73.71008299999989
 30
0.0
 11
62.7
 21
73.4100829999999
 31
0.0
  0
LINE
  5
D8
330
1E
100
AcDbEntity
  8
0
100
AcDbLine
 10
69.1
 20
68.4100829999999
 30
0.0
 11
70.2
 21
65.9100829999999
 31
0.0
  0
LINE
  5
D9
330
1E
100
AcDbEntity
  8
0
100
AcDbLine
 10
70.2
 20
65.9100829999999
 30
0.0
 11
70.5
 21
63.2100829999999
 31
0.0
  0
LINE
  5
DC
330
1E
100
AcDbEntity
  8
0
100
AcDbLine
 10
52.4
 20
76.51008299999991
 30
0.0
 11
56.1
 21
77.9100829999999
 31
0.0
  0
LINE
  5
DE
330
1E
100
AcDbEntity
  8
0
100
AcDbLine
 10
36.4
 20
76.81008299999991
 30
0.0
 11
40.7
 21
82.51008299999991
 31
0.0
  0
LINE
  5
E0
330
1E
100
AcDbEntity
  8
0
100
AcDbLine
 10
56.1
 20
77.9100829999999
 30
0.0
 11
60.0
 21
78.51008299999991
 31
0.0
  0
LINE
  5
E3
330
1E
100
AcDbEntity
  8
0
100
AcDbLine
 10
67.59999999999999
 20
76.51008299999991
 30
0.0
 11
70.8
 21
74.01008299999991
 31
0.0
  0
LINE
  5
E4
330
1E
100
AcDbEntity
  8
0
100
AcDbLine
 10
63.9
 20
77.9100829999999
 30
0.0
 11
67.59999999999999
 21
76.51008299999991
 31
0.0
  0
LINE
  5
E5
330
1E
100
AcDbEntity
  8
0
100
AcDbLine
 10
40.7
 20
82.51008299999991
 30
0.0
 11
46.39999999999999
 21
86.81008299999991
 31
0.0
  0
LINE
  5
E6
330
1E
100
AcDbEntity
  8
0
100
AcDbLine
 10
60.0
 20
78.51008299999991
 30
0.0
 11
63.9
 21
77.9100829999999
 31
0.0
  0
LINE
  5
E8
330
1E
100
AcDbEntity
  8
0
100
AcDbLine
 10
70.8
 20
74.01008299999991
 30
0.0
 11
73.3
 21
70.8100829999999
 31
0.0
  0
LINE
  5
EA
330
1E
100
AcDbEntity
  8
0
100
AcDbLine
 10
73.3
 20
70.8100829999999
 30
0.0
 11
74.7
 21
67.11008299999988
 31
0.0
  0
LINE
  5
EB
330
1E
100
AcDbEntity
  8
0
100
AcDbLine
 10
74.7
 20
67.11008299999988
 30
0.0
 11
75.3
 21
63.2100829999999
 31
0.0
  0
LINE
  5
ED
330
1E
100
AcDbEntity
  8
0
100
AcDbLine
 10
46.39999999999999
 20
86.81008299999991
 30
0.0
 11
53.0
 21
89.5100829999999
 31
0.0
  0
LINE
  5
EF
330
1E
100
AcDbEntity
  8
0
100
AcDbLine
 10
25.5
 20
88.7100829999999
 30
0.0
 11
26.1
 21
90.01008299999991
 31
0.0
  0
LINE
  5
F0
330
1E
100
AcDbEntity
  8
0
100
AcDbLine
 10
25.3
 20
87.2100829999999
 30
0.0
 11
25.5
 21
88.7100829999999
 31
0.0
  0
LINE
  5
F1
330
1E
100
AcDbEntity
  8
0
100
AcDbLine
 10
25.3
 20
87.2100829999999
 30
0.0
 11
25.3
 21
73.71008299999989
 31
0.0
  0
LINE
  5
F2
330
1E
100
AcDbEntity
  8
0
100
AcDbLine
 10
73.59999999999999
 20
86.81008299999991
 30
0.0
 11
79.29999999999999
 21
82.51008299999991
 31
0.0
  0
LINE
  5
F4
330
1E
100
AcDbEntity
  8
0
100
AcDbLine
 10
79.29999999999999
 20
82.51008299999991
 30
0.0
 11
83.59999999999999
 21
76.81008299999991
 31
0.0
  0
LINE
  5
F5
330
1E
100
AcDbEntity
  8
0
100
AcDbLine
 10
133.6999999999999
 20
70.2100829999999
 30
0.0
 11
136.4
 21
76.81008299999991
 31
0.0
  0
LINE
  5
F7
330
1E
100
AcDbEntity
  8
0
100
AcDbLine
 10
83.59999999999999
 20
76.81008299999991
 30
0.0
 11
86.3
 21
70.2100829999999
 31
0.0
  0
LINE
  5
F8
330
1E
100
AcDbEntity
  8
0
100
AcDbLine
 10
86.3
 20
70.2100829999999
 30
0.0
 11
87.3
 21
63.2100829999999
 31
0.0
  0
LINE
  5
FA
330
1E
100
AcDbEntity
  8
0
100
AcDbLine
 10
26.1
 20
90.01008299999991
 30
0.0
 11
27.0
 21
91.2100829999999
 31
0.0
  0
LINE
  5
FB
330
1E
100
AcDbEntity
  8
0
100
AcDbLine
 10
53.0
 20
89.5100829999999
 30
0.0
 11
60.0
 21
90.5100829999999
 31
0.0
  0
LINE
  5
FC
330
1E
100
AcDbEntity
  8
0
100
AcDbLine
 10
67.0
 20
89.5100829999999
 30
0.0
 11
73.59999999999999
 21
86.81008299999991
 31
0.0
  0
LINE
  5
FD
330
1E
100
AcDbEntity
  8
0
100
AcDbLine
 10
60.0
 20
90.5100829999999
 30
0.0
 11
67.0
 21
89.5100829999999
 31
0.0
  0
LINE
  5
FE
330
1E
100
AcDbEntity
  8
0
100
AcDbLine
 10
27.0
 20
91.2100829999999
 30
0.0
 11
28.2
 21
92.1100829999999
 31
0.0
  0
LINE
  5
FF
330
1E
100
AcDbEntity
  8
0
100
AcDbLine
 10
28.2
 20
92.1100829999999
 30
0.0
 11
29.5
 21
92.71008299999989
 31
0.0
  0
LINE
  5
100
330
1E
100
AcDbEntity
  8
0
100
AcDbLine
 10
29.5
 20
92.71008299999989
 30
0.0
 11
31.0
 21
92.9100829999999
 31
0.0
  0
LINE
  5
101
330
1E
100
AcDbEntity
  8
0
100
AcDbLine
 10
31.0
 20
92.9100829999999
 30
0.0
 11
160.0
 21
92.9100829999999
 31
0.0
  0
LINE
  5
102
330
1E
100
AcDbEntity
  8
0
100
AcDbLine
 10
31.0
 20
92.9100829999999
 30
0.0
 11
160.0
 21
92.9100829999999
 31
0.0
  0
LINE
  5
103
330
1E
100
AcDbEntity
  8
0
100
AcDbLine
 10
52.134
 20
93.2100829999999
 30
0.0
 11
52.134
 21
95.21008299999989
 31
0.0
  0
LINE
  5
104
330
1E
100
AcDbEntity
  8
0
100
AcDbLine
 10
53.86600000000001
 20
93.2100829999999
 30
0.0
 11
53.86600000000001
 21
95.21008299999989
 31
0.0
  0
LINE
  5
105
330
1E
100
AcDbEntity
  8
0
100
AcDbLine
 10
66.134
 20
93.2100829999999
 30
0.0
 11
66.134
 21
95.21008299999989
 31
0.0
  0
LINE
  5
106
330
1E
100
AcDbEntity
  8
0
100
AcDbLine
 10
67.86599999999999
 20
93.2100829999999
 30
0.0
 11
67.86599999999999
 21
95.21008299999989
 31
0.0
  0
LINE
  5
107
330
1E
100
AcDbEntity
  8
0
100
AcDbLine
 10
46.0
 20
93.2100829999999
 30
0.0
 11
46.0
 21
95.21008299999989
 31
0.0
  0
LINE
  5
108
330
1E
100
AcDbEntity
  8
0
100
AcDbLine
 10
74.0
 20
93.2100829999999
 30
0.0
 11
74.0
 21
95.21008299999989
 31
0.0
  0
LINE
  5
109
330
1E
100
AcDbEntity
  8
0
100
AcDbLine
 10
46.0
 20
95.21008299999989
 30
0.0
 11
46.0
 21
93.2100829999999
 31
0.0
  0
LINE
  5
10A
330
1E
100
AcDbEntity
  8
0
100
AcDbLine
 10
46.0
 20
95.21008299999989
 30
0.0
 11
47.0
 21
95.21008299999989
 31
0.0
  0
LINE
  5
10B
330
1E
100
AcDbEntity
  8
0
100
AcDbLine
 10
52.134
 20
95.21008299999989
 30
0.0
 11
52.134
 21
93.2100829999999
 31
0.0
  0
LINE
  5
10C
330
1E
100
AcDbEntity
  8
0
100
AcDbLine
 10
52.134
 20
95.21008299999989
 30
0.0
 11
53.86600000000001
 21
95.21008299999989
 31
0.0
  0
LINE
  5
10D
330
1E
100
AcDbEntity
  8
0
100
AcDbLine
 10
53.86600000000001
 20
95.21008299999989
 30
0.0
 11
53.86600000000001
 21
93.2100829999999
 31
0.0
  0
LINE
  5
10E
330
1E
100
AcDbEntity
  8
0
100
AcDbLine
 10
53.86600000000001
 20
95.21008299999989
 30
0.0
 11
54.86600000000001
 21
95.21008299999989
 31
0.0
  0
LINE
  5
10F
330
1E
100
AcDbEntity
  8
0
100
AcDbLine
 10
60.0
 20
95.21008299999989
 30
0.0
 11
63.328
 21
95.21008299999989
 31
0.0
  0
LINE
  5
110
330
1E
100
AcDbEntity
  8
0
100
AcDbLine
 10
65.134
 20
95.21008299999989
 30
0.0
 11
66.134
 21
95.21008299999989
 31
0.0
  0
LINE
  5
111
330
1E
100
AcDbEntity
  8
0
100
AcDbLine
 10
66.134
 20
95.21008299999989
 30
0.0
 11
66.134
 21
93.2100829999999
 31
0.0
  0
LINE
  5
112
330
1E
100
AcDbEntity
  8
0
100
AcDbLine
 10
66.134
 20
95.21008299999989
 30
0.0
 11
67.86599999999999
 21
95.21008299999989
 31
0.0
  0
LINE
  5
113
330
1E
100
AcDbEntity
  8
0
100
AcDbLine
 10
63.328
 20
95.21008299999989
 30
0.0
 11
65.134
 21
95.21008299999989
 31
0.0
  0
LINE
  5
114
330
1E
100
AcDbEntity
  8
0
100
AcDbLine
 10
67.86599999999999
 20
95.21008299999989
 30
0.0
 11
69.20399999999999
 21
95.21008299999989
 31
0.0
  0
LINE
  5
115
330
1E
100
AcDbEntity
  8
0
100
AcDbLine
 10
67.86599999999999
 20
95.21008299999989
 30
0.0
 11
67.86599999999999
 21
93.2100829999999
 31
0.0
  0
LINE
  5
116
330
1E
100
AcDbEntity
  8
0
100
AcDbLine
 10
69.20399999999999
 20
95.21008299999989
 30
0.0
 11
71.28399999999999
 21
95.21008299999989
 31
0.0
  0
LINE
  5
117
330
1E
100
AcDbEntity
  8
0
100
AcDbLine
 10
71.28399999999999
 20
95.21008299999989
 30
0.0
 11
72.53199999999999
 21
95.21008299999989
 31
0.0
  0
LINE
  5
118
330
1E
100
AcDbEntity
  8
0
100
AcDbLine
 10
73.0
 20
95.21008299999989
 30
0.0
 11
74.0
 21
95.21008299999989
 31
0.0
  0
LINE
  5
119
330
1E
100
AcDbEntity
  8
0
100
AcDbLine
 10
74.0
 20
95.21008299999989
 30
0.0
 11
74.0
 21
93.2100829999999
 31
0.0
  0
LINE
  5
11A
330
1E
100
AcDbEntity
  8
0
100
AcDbLine
 10
72.53199999999999
 20
95.21008299999989
 30
0.0
 11
73.0
 21
95.21008299999989
 31
0.0
  0
LINE
  5
11B
330
1E
100
AcDbEntity
  8
0
100
AcDbLine
 10
56.672
 20
95.21008299999989
 30
0.0
 11
60.0
 21
95.21008299999989
 31
0.0
  0
LINE
  5
11C
330
1E
100
AcDbEntity
  8
0
100
AcDbLine
 10
54.86600000000001
 20
95.21008299999989
 30
0.0
 11
56.672
 21
95.21008299999989
 31
0.0
  0
LINE
  5
11D
330
1E
100
AcDbEntity
  8
0
100
AcDbLine
 10
50.79600000000001
 20
95.21008299999989
 30
0.0
 11
52.134
 21
95.21008299999989
 31
0.0
  0
LINE
  5
11E
330
1E
100
AcDbEntity
  8
0
100
AcDbLine
 10
48.716
 20
95.21008299999989
 30
0.0
 11
50.79600000000001
 21
95.21008299999989
 31
0.0
  0
LINE
  5
11F
330
1E
100
AcDbEntity
  8
0
100
AcDbLine
 10
47.468
 20
95.21008299999989
 30
0.0
 11
48.716
 21
95.21008299999989
 31
0.0
  0
LINE
  5
120
330
1E
100
AcDbEntity
  8
0
100
AcDbLine
 10
47.0
 20
95.21008299999989
 30
0.0
 11
47.468
 21
95.21008299999989
 31
0.0
  0
LINE
  5
121
330
1E
100
AcDbEntity
  8
0
100
AcDbLine
 10
31.0
 20
93.2100829999999
 30
0.0
 11
160.0
 21
93.2100829999999
 31
0.0
  0
LINE
  5
122
330
1E
100
AcDbEntity
  8
0
100
AcDbLine
 10
31.0
 20
93.2100829999999
 30
0.0
 11
160.0
 21
93.2100829999999
 31
0.0
  0
LINE
  5
123
330
1E
100
AcDbEntity
  8
0
100
AcDbLine
 10
29.5
 20
93.0100829999999
 30
0.0
 11
31.0
 21
93.2100829999999
 31
0.0
  0
LINE
  5
124
330
1E
100
AcDbEntity
  8
0
100
AcDbLine
 10
28.0
 20
92.4100829999999
 30
0.0
 11
29.5
 21
93.0100829999999
 31
0.0
  0
LINE
  5
125
330
1E
100
AcDbEntity
  8
0
100
AcDbLine
 10
26.8
 20
91.4100829999999
 30
0.0
 11
28.0
 21
92.4100829999999
 31
0.0
  0
LINE
  5
126
330
1E
100
AcDbEntity
  8
0
100
AcDbLine
 10
25.8
 20
90.21008299999989
 30
0.0
 11
26.8
 21
91.4100829999999
 31
0.0
  0
LINE
  5
127
330
1E
100
AcDbEntity
  8
0
100
AcDbLine
 10
25.2
 20
88.7100829999999
 30
0.0
 11
25.8
 21
90.21008299999989
 31
0.0
  0
LINE
  5
128
330
1E
100
AcDbEntity
  8
0
100
AcDbLine
 10
25.0
 20
73.71008299999989
 30
0.0
 11
25.0
 21
87.2100829999999
 31
0.0
  0
LINE
  5
129
330
1E
100
AcDbEntity
  8
0
100
AcDbLine
 10
132.6999999999999
 20
63.2100829999999
 30
0.0
 11
133.6999999999999
 21
56.21008299999989
 31
0.0
  0
LINE
  5
12A
330
1E
100
AcDbEntity
  8
0
100
AcDbLine
 10
132.6999999999999
 20
63.2100829999999
 30
0.0
 11
133.6999999999999
 21
70.2100829999999
 31
0.0
  0
LINE
  5
12B
330
1E
100
AcDbEntity
  8
0
100
AcDbLine
 10
162.5999999999999
 20
-0.0732750000001335
 30
0.0
 11
165.0
 21
0.234542999999866
 31
0.0
  0
LINE
  5
12C
330
1E
100
AcDbEntity
  8
0
100
AcDbLine
 10
160.0
 20
-0.210083000000134
 30
0.0
 11
162.5999999999999
 21
-0.0732750000001335
 31
0.0
  0
LINE
  5
12D
330
1E
100
AcDbEntity
  8
0
100
AcDbLine
 10
160.0
 20
-0.210083000000134
 30
0.0
 11
162.5999999999999
 21
-0.0732750000001335
 31
0.0
  0
LINE
  5
12E
330
1E
100
AcDbEntity
  8
0
100
AcDbLine
 10
149.9
 20
4.603422999999869
 30
0.0
 11
150.9
 21
5.45847299999987
 31
0.0
  0
LINE
  5
12F
330
1E
100
AcDbEntity
  8
0
100
AcDbLine
 10
151.0
 20
3.21012299999987
 30
0.0
 11
151.3
 21
2.423472999999869
 31
0.0
  0
LINE
  5
130
330
1E
100
AcDbEntity
  8
0
100
AcDbLine
 10
151.0
 20
3.21012299999987
 30
0.0
 11
151.3
 21
3.996762999999869
 31
0.0
  0
LINE
  5
131
330
1E
100
AcDbEntity
  8
0
100
AcDbLine
 10
151.3
 20
2.423472999999869
 30
0.0
 11
152.2
 21
1.67102299999987
 31
0.0
  0
LINE
  5
132
330
1E
100
AcDbEntity
  8
0
100
AcDbLine
 10
150.4
 20
4.09937299999987
 30
0.0
 11
151.3
 21
4.92022299999987
 31
0.0
  0
LINE
  5
133
330
1E
100
AcDbEntity
  8
0
100
AcDbLine
 10
151.3
 20
3.996762999999869
 30
0.0
 11
152.2
 21
4.74921299999987
 31
0.0
  0
LINE
  5
134
330
1E
100
AcDbEntity
  8
0
100
AcDbLine
 10
151.3
 20
4.92022299999987
 30
0.0
 11
152.9
 21
5.63846299999987
 31
0.0
  0
LINE
  5
135
330
1E
100
AcDbEntity
  8
0
100
AcDbLine
 10
150.9
 20
5.45847299999987
 30
0.0
 11
152.5999999999999
 21
6.21091299999987
 31
0.0
  0
LINE
  5
136
330
1E
100
AcDbEntity
  8
0
100
AcDbLine
 10
150.0
 20
3.21012299999987
 30
0.0
 11
150.4
 21
2.32086299999987
 31
0.0
  0
LINE
  5
137
330
1E
100
AcDbEntity
  8
0
100
AcDbLine
 10
150.0
 20
3.21012299999987
 30
0.0
 11
150.4
 21
4.09937299999987
 31
0.0
  0
LINE
  5
138
330
1E
100
AcDbEntity
  8
0
100
AcDbLine
 10
149.9
 20
2.756512999999869
 30
0.0
 11
150.4
 21
2.32086299999987
 31
0.0
  0
LINE
  5
139
330
1E
100
AcDbEntity
  8
0
100
AcDbLine
 10
150.4
 20
2.32086299999987
 30
0.0
 11
151.3
 21
1.500022999999869
 31
0.0
  0
LINE
  5
13A
330
1E
100
AcDbEntity
  8
0
100
AcDbLine
 10
152.2
 20
4.74921299999987
 30
0.0
 11
153.6
 21
5.39904299999987
 31
0.0
  0
LINE
  5
13B
330
1E
100
AcDbEntity
  8
0
100
AcDbLine
 10
152.1571118992009
 20
4.71335616505959
 30
0.0
 11
152.3
 21
4.37126299999987
 31
0.0
  0
LINE
  5
13C
330
1E
100
AcDbEntity
  8
0
100
AcDbLine
 10
152.9
 20
5.63846299999987
 30
0.0
 11
155.0
 21
6.185692999999869
 31
0.0
  0
LINE
  5
13D
330
1E
100
AcDbEntity
  8
0
100
AcDbLine
 10
152.5999999999999
 20
6.21091299999987
 30
0.0
 11
154.8
 21
6.79234299999987
 31
0.0
  0
LINE
  5
13E
330
1E
100
AcDbEntity
  8
0
100
AcDbLine
 10
152.3
 20
4.37126299999987
 30
0.0
 11
153.0999999999999
 21
3.72142299999987
 31
0.0
  0
LINE
  5
13F
330
1E
100
AcDbEntity
  8
0
100
AcDbLine
 10
153.6
 20
5.39904299999987
 30
0.0
 11
155.4999999999999
 21
5.87787299999987
 31
0.0
  0
LINE
  5
140
330
1E
100
AcDbEntity
  8
0
100
AcDbLine
 10
155.0
 20
6.185692999999869
 30
0.0
 11
157.4
 21
6.49351299999987
 31
0.0
  0
LINE
  5
141
330
1E
100
AcDbEntity
  8
0
100
AcDbLine
 10
154.8
 20
6.79234299999987
 30
0.0
 11
157.3
 21
7.134362999999869
 31
0.0
  0
LINE
  5
142
330
1E
100
AcDbEntity
  8
0
100
AcDbLine
 10
153.0999999999999
 20
3.72142299999987
 30
0.0
 11
154.4
 21
3.17419299999987
 31
0.0
  0
LINE
  5
143
330
1E
100
AcDbEntity
  8
0
100
AcDbLine
 10
154.4
 20
3.17419299999987
 30
0.0
 11
156.0
 21
2.72956299999987
 31
0.0
  0
LINE
  5
144
330
1E
100
AcDbEntity
  8
0
100
AcDbLine
 10
152.2
 20
1.67102299999987
 30
0.0
 11
153.6
 21
1.02119299999987
 31
0.0
  0
LINE
  5
145
330
1E
100
AcDbEntity
  8
0
100
AcDbLine
 10
153.6
 20
1.02119299999987
 30
0.0
 11
155.4999999999999
 21
0.5423629999998671
 31
0.0
  0
LINE
  5
146
330
1E
100
AcDbEntity
  8
0
100
AcDbLine
 10
151.3
 20
1.500022999999869
 30
0.0
 11
152.9
 21
0.7817729999998661
 31
0.0
  0
LINE
  5
147
330
1E
100
AcDbEntity
  8
0
100
AcDbLine
 10
152.9
 20
0.7817729999998661
 30
0.0
 11
155.0
 21
0.234542999999866
 31
0.0
  0
LINE
  5
148
330
1E
100
AcDbEntity
  8
0
100
AcDbLine
 10
162.5999999999999
 20
-0.0732750000001335
 30
0.0
 11
165.0
 21
0.234542999999866
 31
0.0
  0
LINE
  5
149
330
1E
100
AcDbEntity
  8
0
100
AcDbLine
 10
162.3
 20
0.234542999999866
 30
0.0
 11
164.5
 21
0.5423629999998671
 31
0.0
  0
LINE
  5
14A
330
1E
100
AcDbEntity
  8
0
100
AcDbLine
 10
160.0
 20
0.131936999999867
 30
0.0
 11
162.3
 21
0.234542999999866
 31
0.0
  0
LINE
  5
14B
330
1E
100
AcDbEntity
  8
0
100
AcDbLine
 10
165.0
 20
0.234542999999866
 30
0.0
 11
167.1
 21
0.7817729999998661
 31
0.0
  0
LINE
  5
14C
330
1E
100
AcDbEntity
  8
0
100
AcDbLine
 10
157.4
 20
-0.0732750000001335
 30
0.0
 11
160.0
 21
-0.210083000000134
 31
0.0
  0
LINE
  5
14D
330
1E
100
AcDbEntity
  8
0
100
AcDbLine
 10
155.4999999999999
 20
5.87787299999987
 30
0.0
 11
157.6999999999999
 21
6.185692999999869
 31
0.0
  0
LINE
  5
14E
330
1E
100
AcDbEntity
  8
0
100
AcDbLine
 10
162.0999999999999
 20
2.455952999999869
 30
0.0
 11
164.0
 21
2.72956299999987
 31
0.0
  0
LINE
  5
14F
330
1E
100
AcDbEntity
  8
0
100
AcDbLine
 10
160.0
 20
2.35334299999987
 30
0.0
 11
162.0999999999999
 21
2.455952999999869
 31
0.0
  0
LINE
  5
150
330
1E
100
AcDbEntity
  8
0
100
AcDbLine
 10
166.4
 20
1.02119299999987
 30
0.0
 11
167.8
 21
1.67102299999987
 31
0.0
  0
LINE
  5
151
330
1E
100
AcDbEntity
  8
0
100
AcDbLine
 10
164.5
 20
0.5423629999998671
 30
0.0
 11
166.4
 21
1.02119299999987
 31
0.0
  0
LINE
  5
152
330
1E
100
AcDbEntity
  8
0
100
AcDbLine
 10
168.6999999999999
 20
2.423472999999869
 30
0.0
 11
169.0
 21
3.21012299999987
 31
0.0
  0
LINE
  5
153
330
1E
100
AcDbEntity
  8
0
100
AcDbLine
 10
167.8
 20
1.67102299999987
 30
0.0
 11
168.6999999999999
 21
2.423472999999869
 31
0.0
  0
LINE
  5
154
330
1E
100
AcDbEntity
  8
0
100
AcDbLine
 10
169.5999999999999
 20
2.32086299999987
 30
0.0
 11
170.1
 21
2.756512999999869
 31
0.0
  0
LINE
  5
155
330
1E
100
AcDbEntity
  8
0
100
AcDbLine
 10
169.5999999999999
 20
2.32086299999987
 30
0.0
 11
170.0
 21
3.21012299999987
 31
0.0
  0
LINE
  5
156
330
1E
100
AcDbEntity
  8
0
100
AcDbLine
 10
168.6999999999999
 20
1.500022999999869
 30
0.0
 11
169.5999999999999
 21
2.32086299999987
 31
0.0
  0
LINE
  5
157
330
1E
100
AcDbEntity
  8
0
100
AcDbLine
 10
167.1
 20
0.7817729999998661
 30
0.0
 11
168.6999999999999
 21
1.500022999999869
 31
0.0
  0
LINE
  5
158
330
1E
100
AcDbEntity
  8
0
100
AcDbLine
 10
164.5
 20
5.87787299999987
 30
0.0
 11
166.4
 21
5.39904299999987
 31
0.0
  0
LINE
  5
159
330
1E
100
AcDbEntity
  8
0
100
AcDbLine
 10
162.3
 20
6.185692999999869
 30
0.0
 11
164.5
 21
5.87787299999987
 31
0.0
  0
LINE
  5
15A
330
1E
100
AcDbEntity
  8
0
100
AcDbLine
 10
165.0
 20
6.185692999999869
 30
0.0
 11
167.1
 21
5.63846299999987
 31
0.0
  0
LINE
  5
15B
330
1E
100
AcDbEntity
  8
0
100
AcDbLine
 10
166.4
 20
5.39904299999987
 30
0.0
 11
167.8
 21
4.74921299999987
 31
0.0
  0
LINE
  5
15C
330
1E
100
AcDbEntity
  8
0
100
AcDbLine
 10
167.1
 20
5.63846299999987
 30
0.0
 11
168.6999999999999
 21
4.92022299999987
 31
0.0
  0
LINE
  5
15D
330
1E
100
AcDbEntity
  8
0
100
AcDbLine
 10
168.6999999999999
 20
3.996762999999869
 30
0.0
 11
169.0
 21
3.21012299999987
 31
0.0
  0
LINE
  5
15E
330
1E
100
AcDbEntity
  8
0
100
AcDbLine
 10
167.8
 20
4.74921299999987
 30
0.0
 11
168.6999999999999
 21
3.996762999999869
 31
0.0
  0
LINE
  5
15F
330
1E
100
AcDbEntity
  8
0
100
AcDbLine
 10
169.5999999999999
 20
4.09937299999987
 30
0.0
 11
170.0
 21
3.21012299999987
 31
0.0
  0
LINE
  5
160
330
1E
100
AcDbEntity
  8
0
100
AcDbLine
 10
168.6999999999999
 20
4.92022299999987
 30
0.0
 11
169.5999999999999
 21
4.09937299999987
 31
0.0
  0
LINE
  5
161
330
1E
100
AcDbEntity
  8
0
100
AcDbLine
 10
170.1
 20
4.603422999999869
 30
0.0
 11
170.5
 21
3.67996299999987
 31
0.0
  0
LINE
  5
162
330
1E
100
AcDbEntity
  8
0
100
AcDbLine
 10
169.1
 20
5.45847299999987
 30
0.0
 11
170.1
 21
4.603422999999869
 31
0.0
  0
LINE
  5
163
330
1E
100
AcDbEntity
  8
0
100
AcDbLine
 10
167.6999999999999
 20
4.37126299999987
 30
0.0
 11
167.842888100799
 21
4.71335616505959
 31
0.0
  0
LINE
  5
164
330
1E
100
AcDbEntity
  8
0
100
AcDbLine
 10
166.9
 20
3.72142299999987
 30
0.0
 11
167.6999999999999
 21
4.37126299999987
 31
0.0
  0
LINE
  5
165
330
1E
100
AcDbEntity
  8
0
100
AcDbLine
 10
165.5999999999999
 20
3.17419299999987
 30
0.0
 11
166.9
 21
3.72142299999987
 31
0.0
  0
LINE
  5
166
330
1E
100
AcDbEntity
  8
0
100
AcDbLine
 10
164.0
 20
2.72956299999987
 30
0.0
 11
165.5999999999999
 21
3.17419299999987
 31
0.0
  0
LINE
  5
167
330
1E
100
AcDbEntity
  8
0
100
AcDbLine
 10
170.5
 20
3.67996299999987
 30
0.0
 11
170.5
 21
42.8386829999999
 31
0.0
  0
LINE
  5
168
330
1E
100
AcDbEntity
  8
0
100
AcDbLine
 10
170.1
 20
2.756512999999869
 30
0.0
 11
170.5
 21
3.67996299999987
 31
0.0
  0
LINE
  5
169
330
1E
100
AcDbEntity
  8
0
100
AcDbLine
 10
160.0
 20
6.28830299999987
 30
0.0
 11
162.3
 21
6.185692999999869
 31
0.0
  0
LINE
  5
16A
330
1E
100
AcDbEntity
  8
0
100
AcDbLine
 10
162.5999999999999
 20
6.49351299999987
 30
0.0
 11
165.0
 21
6.185692999999869
 31
0.0
  0
LINE
  5
16B
330
1E
100
AcDbEntity
  8
0
100
AcDbLine
 10
160.0
 20
6.63032299999987
 30
0.0
 11
162.5999999999999
 21
6.49351299999987
 31
0.0
  0
LINE
  5
16C
330
1E
100
AcDbEntity
  8
0
100
AcDbLine
 10
167.4
 20
6.21091299999987
 30
0.0
 11
169.1
 21
5.45847299999987
 31
0.0
  0
LINE
  5
16D
330
1E
100
AcDbEntity
  8
0
100
AcDbLine
 10
165.1999999999999
 20
6.79234299999987
 30
0.0
 11
167.4
 21
6.21091299999987
 31
0.0
  0
LINE
  5
16E
330
1E
100
AcDbEntity
  8
0
100
AcDbLine
 10
162.6999999999999
 20
7.134362999999869
 30
0.0
 11
165.1999999999999
 21
6.79234299999987
 31
0.0
  0
LINE
  5
16F
330
1E
100
AcDbEntity
  8
0
100
AcDbLine
 10
157.6999999999999
 20
6.185692999999869
 30
0.0
 11
160.0
 21
6.28830299999987
 31
0.0
  0
LINE
  5
170
330
1E
100
AcDbEntity
  8
0
100
AcDbLine
 10
157.4
 20
6.49351299999987
 30
0.0
 11
160.0
 21
6.63032299999987
 31
0.0
  0
LINE
  5
1BE
330
1E
100
AcDbEntity
  8
0
100
AcDbLine
 10
170.5
 20
38.3419011818181
 30
0.0
 11
173.5999999999999
 21
39.61008299999989
 31
0.0
  0
LINE
  5
1BF
330
1E
100
AcDbEntity
  8
0
100
AcDbLine
 10
170.5
 20
38.34190118181799
 30
0.0
 11
173.5999999999999
 21
39.61008299999989
 31
0.0
  0
LINE
  5
1C4
330
1E
100
AcDbEntity
  8
0
100
AcDbLine
 10
173.5999999999999
 20
39.61008299999989
 30
0.0
 11
179.3
 21
43.91008299999989
 31
0.0
  0
LINE
  5
1D3
330
1E
100
AcDbEntity
  8
0
100
AcDbLine
 10
160.0
 20
7.27117299999987
 30
0.0
 11
162.6999999999999
 21
7.134362999999869
 31
0.0
  0
LINE
  5
1D4
330
1E
100
AcDbEntity
  8
0
100
AcDbLine
 10
157.3
 20
7.134362999999869
 30
0.0
 11
160.0
 21
7.27117299999987
 31
0.0
  0
LINE
  5
1D5
330
1E
100
AcDbEntity
  8
0
100
AcDbLine
 10
156.0
 20
2.72956299999987
 30
0.0
 11
157.9
 21
2.455952999999869
 31
0.0
  0
LINE
  5
1D6
330
1E
100
AcDbEntity
  8
0
100
AcDbLine
 10
157.9
 20
2.455952999999869
 30
0.0
 11
160.0
 21
2.35334299999987
 31
0.0
  0
LINE
  5
1D7
330
1E
100
AcDbEntity
  8
0
100
AcDbLine
 10
155.4999999999999
 20
0.5423629999998671
 30
0.0
 11
157.6999999999999
 21
0.234542999999866
 31
0.0
  0
LINE
  5
1D8
330
1E
100
AcDbEntity
  8
0
100
AcDbLine
 10
157.6999999999999
 20
0.234542999999866
 30
0.0
 11
160.0
 21
0.131936999999867
 31
0.0
  0
LINE
  5
1D9
330
1E
100
AcDbEntity
  8
0
100
AcDbLine
 10
155.0
 20
0.234542999999866
 30
0.0
 11
157.4
 21
-0.0732750000001335
 31
0.0
  0
LINE
  5
1DA
330
1E
100
AcDbEntity
  8
0
100
AcDbLine
 10
155.0
 20
0.234542999999866
 30
0.0
 11
157.4
 21
-0.0732750000001335
 31
0.0
  0
LINE
  5
1DB
330
1E
100
AcDbEntity
  8
0
100
AcDbLine
 10
157.4
 20
-0.0732750000001335
 30
0.0
 11
160.0
 21
-0.210083000000134
 31
0.0
  0
LINE
  5
1DC
330
1E
100
AcDbEntity
  8
0
100
AcDbLine
 10
149.5
 20
3.67996299999987
 30
0.0
 11
149.9
 21
2.756512999999869
 31
0.0
  0
LINE
  5
1DD
330
1E
100
AcDbEntity
  8
0
100
AcDbLine
 10
149.5
 20
3.67996299999987
 30
0.0
 11
149.5
 21
42.8386829999999
 31
0.0
  0
LINE
  5
1DE
330
1E
100
AcDbEntity
  8
0
100
AcDbLine
 10
149.5
 20
3.67996299999987
 30
0.0
 11
149.9
 21
4.603422999999869
 31
0.0
  0
LINE
  5
1DF
330
1E
100
AcDbEntity
  8
0
100
AcDbLine
 10
170.5
 20
42.8386829999999
 30
0.0
 11
170.5
 21
3.67996299999987
 31
0.0
  0
LINE
  5
1E0
330
1E
100
AcDbEntity
  8
0
100
AcDbLine
 10
170.5
 20
42.8386829999999
 30
0.0
 11
170.5
 21
46.71008299999989
 31
0.0
  0
LINE
  5
1E1
330
1E
100
AcDbEntity
  8
0
100
AcDbLine
 10
179.3
 20
43.91008299999989
 30
0.0
 11
183.6
 21
49.61008299999989
 31
0.0
  0
LINE
  5
1E8
330
1E
100
AcDbEntity
  8
0
100
AcDbLine
 10
183.6
 20
49.61008299999989
 30
0.0
 11
186.3
 21
56.21008299999989
 31
0.0
  0
LINE
  5
1EF
330
1E
100
AcDbEntity
  8
0
100
AcDbLine
 10
170.5
 20
46.71008299999989
 30
0.0
 11
170.5
 21
42.8386829999999
 31
0.0
  0
LINE
  5
1F0
330
1E
100
AcDbEntity
  8
0
100
AcDbLine
 10
170.5
 20
46.71008299999989
 30
0.0
 11
170.5
 21
50.29918299999989
 31
0.0
  0
LINE
  5
1F1
330
1E
100
AcDbEntity
  8
0
100
AcDbLine
 10
149.5
 20
46.71008299999989
 30
0.0
 11
149.5
 21
50.29918299999989
 31
0.0
  0
LINE
  5
1F2
330
1E
100
AcDbEntity
  8
0
100
AcDbLine
 10
149.5
 20
46.71008299999989
 30
0.0
 11
149.5
 21
42.8386829999999
 31
0.0
  0
LINE
  5
1F3
330
1E
100
AcDbEntity
  8
0
100
AcDbLine
 10
149.5
 20
42.8386829999999
 30
0.0
 11
149.5
 21
3.67996299999987
 31
0.0
  0
LINE
  5
1F4
330
1E
100
AcDbEntity
  8
0
100
AcDbLine
 10
149.5
 20
42.8386829999999
 30
0.0
 11
149.5
 21
46.71008299999989
 31
0.0
  0
LINE
  5
1F5
330
1E
100
AcDbEntity
  8
0
100
AcDbLine
 10
140.6999999999999
 20
43.91008299999989
 30
0.0
 11
146.4
 21
39.61008299999989
 31
0.0
  0
LINE
  5
1F6
330
1E
100
AcDbEntity
  8
0
100
AcDbLine
 10
146.4
 20
39.61008299999989
 30
0.0
 11
149.5
 21
38.3419011818181
 31
0.0
  0
LINE
  5
1F7
330
1E
100
AcDbEntity
  8
0
100
AcDbLine
 10
146.4
 20
39.61008299999989
 30
0.0
 11
149.5
 21
38.34190118181799
 31
0.0
  0
LINE
  5
1FA
330
1E
100
AcDbEntity
  8
0
100
AcDbLine
 10
145.3
 20
59.31008299999989
 30
0.0
 11
146.6999999999999
 21
55.6100829999999
 31
0.0
  0
LINE
  5
1FC
330
1E
100
AcDbEntity
  8
0
100
AcDbLine
 10
145.3
 20
67.11008299999988
 30
0.0
 11
146.6999999999999
 21
70.8100829999999
 31
0.0
  0
LINE
  5
1FD
330
1E
100
AcDbEntity
  8
0
100
AcDbLine
 10
140.6999999999999
 20
82.51008299999991
 30
0.0
 11
146.4
 21
86.81008299999991
 31
0.0
  0
LINE
  5
1FE
330
1E
100
AcDbEntity
  8
0
100
AcDbLine
 10
146.4
 20
86.81008299999991
 30
0.0
 11
153.0
 21
89.5100829999999
 31
0.0
  0
LINE
  5
201
330
1E
100
AcDbEntity
  8
0
100
AcDbLine
 10
136.4
 20
76.81008299999991
 30
0.0
 11
140.6999999999999
 21
82.51008299999991
 31
0.0
  0
LINE
  5
202
330
1E
100
AcDbEntity
  8
0
100
AcDbLine
 10
144.6999999999999
 20
63.2100829999999
 30
0.0
 11
145.3
 21
59.31008299999989
 31
0.0
  0
LINE
  5
203
330
1E
100
AcDbEntity
  8
0
100
AcDbLine
 10
144.6999999999999
 20
63.2100829999999
 30
0.0
 11
145.3
 21
67.11008299999988
 31
0.0
  0
LINE
  5
20A
330
1E
100
AcDbEntity
  8
0
100
AcDbLine
 10
170.8
 20
52.4100829999999
 30
0.0
 11
173.3
 21
55.6100829999999
 31
0.0
  0
LINE
  5
20C
330
1E
100
AcDbEntity
  8
0
100
AcDbLine
 10
170.5
 20
52.1757079999999
 30
0.0
 11
170.8
 21
52.4100829999999
 31
0.0
  0
LINE
  5
212
330
1E
100
AcDbEntity
  8
0
100
AcDbLine
 10
170.5
 20
50.29918299999989
 30
0.0
 11
170.5
 21
46.71008299999989
 31
0.0
  0
LINE
  5
213
330
1E
100
AcDbEntity
  8
0
100
AcDbLine
 10
170.5
 20
50.29918299999989
 30
0.0
 11
170.5
 21
53.5445829999999
 31
0.0
  0
LINE
  5
214
330
1E
100
AcDbEntity
  8
0
100
AcDbLine
 10
149.5
 20
50.29918299999989
 30
0.0
 11
149.5
 21
53.5445829999999
 31
0.0
  0
LINE
  5
215
330
1E
100
AcDbEntity
  8
0
100
AcDbLine
 10
149.5
 20
50.29918299999989
 30
0.0
 11
149.5
 21
46.71008299999989
 31
0.0
  0
LINE
  5
228
330
1E
100
AcDbEntity
  8
0
100
AcDbLine
 10
170.5
 20
53.5445829999999
 30
0.0
 11
170.5
 21
56.39078299999989
 31
0.0
  0
LINE
  5
229
330
1E
100
AcDbEntity
  8
0
100
AcDbLine
 10
170.5
 20
53.5445829999999
 30
0.0
 11
170.5
 21
50.29918299999989
 31
0.0
  0
LINE
  5
22B
330
1E
100
AcDbEntity
  8
0
100
AcDbLine
 10
173.3
 20
55.6100829999999
 30
0.0
 11
174.6999999999999
 21
59.31008299999989
 31
0.0
  0
LINE
  5
230
330
1E
100
AcDbEntity
  8
0
100
AcDbLine
 10
149.5
 20
53.5445829999999
 30
0.0
 11
149.5
 21
56.39078299999989
 31
0.0
  0
LINE
  5
231
330
1E
100
AcDbEntity
  8
0
100
AcDbLine
 10
149.5
 20
53.5445829999999
 30
0.0
 11
149.5
 21
50.29918299999989
 31
0.0
  0
LINE
  5
233
330
1E
100
AcDbEntity
  8
0
100
AcDbLine
 10
149.1999999999999
 20
52.4100829999999
 30
0.0
 11
149.5
 21
52.1757079999999
 31
0.0
  0
LINE
  5
236
330
1E
100
AcDbEntity
  8
0
100
AcDbLine
 10
146.6999999999999
 20
70.8100829999999
 30
0.0
 11
149.1999999999999
 21
74.01008299999991
 31
0.0
  0
LINE
  5
237
330
1E
100
AcDbEntity
  8
0
100
AcDbLine
 10
149.5
 20
60.6980829999999
 30
0.0
 11
149.5
 21
62.08568299999989
 31
0.0
  0
LINE
  5
238
330
1E
100
AcDbEntity
  8
0
100
AcDbLine
 10
149.5
 20
60.6980829999999
 30
0.0
 11
149.5
 21
58.78888299999989
 31
0.0
  0
LINE
  5
239
330
1E
100
AcDbEntity
  8
0
100
AcDbLine
 10
149.5
 20
62.08568299999989
 30
0.0
 11
149.5
 21
62.9277829999999
 31
0.0
  0
LINE
  5
23A
330
1E
100
AcDbEntity
  8
0
100
AcDbLine
 10
149.5
 20
62.08568299999989
 30
0.0
 11
149.5
 21
60.6980829999999
 31
0.0
  0
LINE
  5
23B
330
1E
100
AcDbEntity
  8
0
100
AcDbLine
 10
149.5
 20
62.9277829999999
 30
0.0
 11
149.5
 21
62.08568299999989
 31
0.0
  0
LINE
  5
23C
330
1E
100
AcDbEntity
  8
0
100
AcDbLine
 10
149.5
 20
62.9277829999999
 30
0.0
 11
149.5
 21
63.2100829999999
 31
0.0
  0
LINE
  5
23D
330
1E
100
AcDbEntity
  8
0
100
AcDbLine
 10
149.5
 20
58.78888299999989
 30
0.0
 11
149.5
 21
56.39078299999989
 31
0.0
  0
LINE
  5
23E
330
1E
100
AcDbEntity
  8
0
100
AcDbLine
 10
149.5
 20
58.78888299999989
 30
0.0
 11
149.5
 21
60.6980829999999
 31
0.0
  0
LINE
  5
23F
330
1E
100
AcDbEntity
  8
0
100
AcDbLine
 10
149.5
 20
56.39078299999989
 30
0.0
 11
149.5
 21
53.5445829999999
 31
0.0
  0
LINE
  5
240
330
1E
100
AcDbEntity
  8
0
100
AcDbLine
 10
149.5
 20
56.39078299999989
 30
0.0
 11
149.5
 21
58.78888299999989
 31
0.0
  0
LINE
  5
241
330
1E
100
AcDbEntity
  8
0
100
AcDbLine
 10
149.5
 20
63.2100829999999
 30
0.0
 11
149.9
 21
65.9100829999999
 31
0.0
  0
LINE
  5
242
330
1E
100
AcDbEntity
  8
0
100
AcDbLine
 10
149.5
 20
63.2100829999999
 30
0.0
 11
149.521000948502
 21
63.06832659761189
 31
0.0
  0
LINE
  5
243
330
1E
100
AcDbEntity
  8
0
100
AcDbLine
 10
149.5
 20
63.2100829999999
 30
0.0
 11
149.5
 21
62.9277829999999
 31
0.0
  0
LINE
  5
244
330
1E
100
AcDbEntity
  8
0
100
AcDbLine
 10
170.5
 20
62.9277829999999
 30
0.0
 11
170.5
 21
62.08568299999989
 31
0.0
  0
LINE
  5
245
330
1E
100
AcDbEntity
  8
0
100
AcDbLine
 10
170.5
 20
62.9277829999999
 30
0.0
 11
170.5
 21
63.2100829999999
 31
0.0
  0
LINE
  5
246
330
1E
100
AcDbEntity
  8
0
100
AcDbLine
 10
170.5
 20
62.08568299999989
 30
0.0
 11
170.5
 21
60.6980829999999
 31
0.0
  0
LINE
  5
247
330
1E
100
AcDbEntity
  8
0
100
AcDbLine
 10
170.5
 20
62.08568299999989
 30
0.0
 11
170.5
 21
62.9277829999999
 31
0.0
  0
LINE
  5
248
330
1E
100
AcDbEntity
  8
0
100
AcDbLine
 10
170.5
 20
60.6980829999999
 30
0.0
 11
170.5
 21
58.78888299999989
 31
0.0
  0
LINE
  5
249
330
1E
100
AcDbEntity
  8
0
100
AcDbLine
 10
170.5
 20
60.6980829999999
 30
0.0
 11
170.5
 21
62.08568299999989
 31
0.0
  0
LINE
  5
24A
330
1E
100
AcDbEntity
  8
0
100
AcDbLine
 10
170.5
 20
58.78888299999989
 30
0.0
 11
170.5
 21
60.6980829999999
 31
0.0
  0
LINE
  5
24B
330
1E
100
AcDbEntity
  8
0
100
AcDbLine
 10
170.5
 20
58.78888299999989
 30
0.0
 11
170.5
 21
56.39078299999989
 31
0.0
  0
LINE
  5
250
330
1E
100
AcDbEntity
  8
0
100
AcDbLine
 10
186.3
 20
56.21008299999989
 30
0.0
 11
187.3
 21
63.2100829999999
 31
0.0
  0
LINE
  5
251
330
1E
100
AcDbEntity
  8
0
100
AcDbLine
 10
174.6999999999999
 20
59.31008299999989
 30
0.0
 11
175.3
 21
63.2100829999999
 31
0.0
  0
LINE
  5
25B
330
1E
100
AcDbEntity
  8
0
100
AcDbLine
 10
170.5
 20
56.39078299999989
 30
0.0
 11
170.5
 21
58.78888299999989
 31
0.0
  0
LINE
  5
25C
330
1E
100
AcDbEntity
  8
0
100
AcDbLine
 10
170.5
 20
56.39078299999989
 30
0.0
 11
170.5
 21
53.5445829999999
 31
0.0
  0
LINE
  5
265
330
1E
100
AcDbEntity
  8
0
100
AcDbLine
 10
170.5
 20
63.2100829999999
 30
0.0
 11
170.5
 21
62.9277829999999
 31
0.0
  0
LINE
  5
266
330
1E
100
AcDbEntity
  8
0
100
AcDbLine
 10
170.1
 20
65.9100829999999
 30
0.0
 11
170.5
 21
63.2100829999999
 31
0.0
  0
LINE
  5
267
330
1E
100
AcDbEntity
  8
0
100
AcDbLine
 10
170.4789990514979
 20
63.06832659761189
 30
0.0
 11
170.5
 21
63.2100829999999
 31
0.0
  0
LINE
  5
269
330
1E
100
AcDbEntity
  8
0
100
AcDbLine
 10
149.1999999999999
 20
74.01008299999991
 30
0.0
 11
152.4
 21
76.51008299999991
 31
0.0
  0
LINE
  5
26B
330
1E
100
AcDbEntity
  8
0
100
AcDbLine
 10
169.1
 20
68.4100829999999
 30
0.0
 11
170.1
 21
65.9100829999999
 31
0.0
  0
LINE
  5
26C
330
1E
100
AcDbEntity
  8
0
100
AcDbLine
 10
167.4
 20
70.6100829999999
 30
0.0
 11
169.1
 21
68.4100829999999
 31
0.0
  0
LINE
  5
26D
330
1E
100
AcDbEntity
  8
0
100
AcDbLine
 10
174.6999999999999
 20
67.11008299999988
 30
0.0
 11
175.3
 21
63.2100829999999
 31
0.0
  0
LINE
  5
26E
330
1E
100
AcDbEntity
  8
0
100
AcDbLine
 10
186.3
 20
70.2100829999999
 30
0.0
 11
187.3
 21
63.2100829999999
 31
0.0
  0
LINE
  5
276
330
1E
100
AcDbEntity
  8
0
100
AcDbLine
 10
169.1
 20
68.4100829999999
 30
0.0
 11
170.1
 21
65.9100829999999
 31
0.0
  0
LINE
  5
278
330
1E
100
AcDbEntity
  8
0
100
AcDbLine
 10
152.4
 20
76.51008299999991
 30
0.0
 11
156.0999999999999
 21
77.9100829999999
 31
0.0
  0
LINE
  5
279
330
1E
100
AcDbEntity
  8
0
100
AcDbLine
 10
153.0
 20
89.5100829999999
 30
0.0
 11
160.0
 21
90.5100829999999
 31
0.0
  0
LINE
  5
27A
330
1E
100
AcDbEntity
  8
0
100
AcDbLine
 10
162.6999999999999
 20
73.3100829999999
 30
0.0
 11
165.1999999999999
 21
72.31008299999991
 31
0.0
  0
LINE
  5
27E
330
1E
100
AcDbEntity
  8
0
100
AcDbLine
 10
173.3
 20
70.8100829999999
 30
0.0
 11
174.6999999999999
 21
67.11008299999988
 31
0.0
  0
LINE
  5
285
330
1E
100
AcDbEntity
  8
0
100
AcDbLine
 10
165.1999999999999
 20
72.31008299999991
 30
0.0
 11
167.4
 21
70.6100829999999
 31
0.0
  0
LINE
  5
28C
330
1E
100
AcDbEntity
  8
0
100
AcDbLine
 10
170.8
 20
74.01008299999991
 30
0.0
 11
173.3
 21
70.8100829999999
 31
0.0
  0
LINE
  5
291
330
1E
100
AcDbEntity
  8
0
100
AcDbLine
 10
167.5999999999999
 20
76.51008299999991
 30
0.0
 11
170.8
 21
74.01008299999991
 31
0.0
  0
LINE
  5
294
330
1E
100
AcDbEntity
  8
0
100
AcDbLine
 10
183.6
 20
76.81008299999991
 30
0.0
 11
186.3
 21
70.2100829999999
 31
0.0
  0
LINE
  5
29B
330
1E
100
AcDbEntity
  8
0
100
AcDbLine
 10
163.9
 20
77.9100829999999
 30
0.0
 11
167.5999999999999
 21
76.51008299999991
 31
0.0
  0
LINE
  5
29C
330
1E
100
AcDbEntity
  8
0
100
AcDbLine
 10
160.0
 20
78.51008299999991
 30
0.0
 11
163.9
 21
77.9100829999999
 31
0.0
  0
LINE
  5
2A2
330
1E
100
AcDbEntity
  8
0
100
AcDbLine
 10
179.3
 20
82.51008299999991
 30
0.0
 11
183.6
 21
76.81008299999991
 31
0.0
  0
LINE
  5
2AC
330
1E
100
AcDbEntity
  8
0
100
AcDbLine
 10
173.5999999999999
 20
86.81008299999991
 30
0.0
 11
179.3
 21
82.51008299999991
 31
0.0
  0
LINE
  5
2AD
330
1E
100
AcDbEntity
  8
0
100
AcDbLine
 10
167.0
 20
89.5100829999999
 30
0.0
 11
173.5999999999999
 21
86.81008299999991
 31
0.0
  0
LINE
  5
2B0
330
1E
100
AcDbEntity
  8
0
100
AcDbLine
 10
160.0
 20
90.5100829999999
 30
0.0
 11
167.0
 21
89.5100829999999
 31
0.0
  0
LINE
  5
2E5
330
1E
100
AcDbEntity
  8
0
100
AcDbLine
 10
160.0
 20
73.71008299999989
 30
0.0
 11
162.6999999999999
 21
73.3100829999999
 31
0.0
  0
LINE
  5
2E6
330
1E
100
AcDbEntity
  8
0
100
AcDbLine
 10
156.0999999999999
 20
77.9100829999999
 30
0.0
 11
160.0
 21
78.51008299999991
 31
0.0
  0
LINE
  5
2E7
330
1E
100
AcDbEntity
  8
0
100
AcDbLine
 10
157.3
 20
73.3100829999999
 30
0.0
 11
160.0
 21
73.71008299999989
 31
0.0
  0
LINE
  5
2E8
330
1E
100
AcDbEntity
  8
0
100
AcDbLine
 10
154.8
 20
72.31008299999991
 30
0.0
 11
157.3
 21
73.3100829999999
 31
0.0
  0
LINE
  5
2E9
330
1E
100
AcDbEntity
  8
0
100
AcDbLine
 10
152.5999999999999
 20
70.6100829999999
 30
0.0
 11
154.8
 21
72.31008299999991
 31
0.0
  0
LINE
  5
2EA
330
1E
100
AcDbEntity
  8
0
100
AcDbLine
 10
150.9
 20
68.4100829999999
 30
0.0
 11
152.5999999999999
 21
70.6100829999999
 31
0.0
  0
LINE
  5
2EB
330
1E
100
AcDbEntity
  8
0
100
AcDbLine
 10
149.9
 20
65.9100829999999
 30
0.0
 11
150.9
 21
68.4100829999999
 31
0.0
  0
LINE
  5
2EC
330
1E
100
AcDbEntity
  8
0
100
AcDbLine
 10
149.9
 20
65.9100829999999
 30
0.0
 11
150.9
 21
68.4100829999999
 31
0.0
  0
LINE
  5
2EE
330
1E
100
AcDbEntity
  8
0
100
AcDbLine
 10
146.6999999999999
 20
55.6100829999999
 30
0.0
 11
149.1999999999999
 21
52.4100829999999
 31
0.0
  0
LINE
  5
2F0
330
1E
100
AcDbEntity
  8
0
100
AcDbLine
 10
136.4
 20
49.61008299999989
 30
0.0
 11
140.6999999999999
 21
43.91008299999989
 31
0.0
  0
LINE
  5
2F6
330
1E
100
AcDbEntity
  8
0
100
AcDbLine
 10
-0.0000000000000089
 20
63.2100829999999
 30
0.0
 11
0.299999999999991
 21
65.9100829999999
 31
0.0
  0
LINE
  5
2F7
330
1E
100
AcDbEntity
  8
0
100
AcDbLine
 10
62.7
 20
73.4100829999999
 30
0.0
 11
65.2
 21
72.31008299999991
 31
0.0
  0
LINE
  5
2F8
330
1E
100
AcDbEntity
  8
0
100
AcDbLine
 10
28.0
 20
34.0100829999999
 30
0.0
 11
29.5
 21
33.4100829999999
 31
0.0
  0
LINE
  5
303
330
1E
100
AcDbEntity
  8
0
100
AcDbLine
 10
295.0
 20
39.21008299999989
 30
0.0
 11
295.0
 21
52.7100829999999
 31
0.0
  0
LINE
  5
304
330
1E
100
AcDbEntity
  8
0
100
AcDbLine
 10
295.0
 20
52.7100829999999
 30
0.0
 11
295.0
 21
39.21008299999989
 31
0.0
  0
LINE
  5
305
330
1E
100
AcDbEntity
  8
0
100
AcDbLine
 10
294.7
 20
52.7100829999999
 30
0.0
 11
294.7
 21
39.21008299999989
 31
0.0
  0
LINE
  5
306
330
1E
100
AcDbEntity
  8
0
100
AcDbLine
 10
283.6
 20
49.61008299999989
 30
0.0
 11
279.3
 21
43.91008299999989
 31
0.0
  0
LINE
  5
307
330
1E
100
AcDbEntity
  8
0
100
AcDbLine
 10
240.7
 20
43.91008299999989
 30
0.0
 11
236.4
 21
49.61008299999989
 31
0.0
  0
LINE
  5
308
330
1E
100
AcDbEntity
  8
0
100
AcDbLine
 10
294.7
 20
39.21008299999989
 30
0.0
 11
294.7
 21
52.7100829999999
 31
0.0
  0
LINE
  5
309
330
1E
100
AcDbEntity
  8
0
100
AcDbLine
 10
289.0
 20
33.2100829999999
 30
0.0
 11
170.5
 21
33.2100829999999
 31
0.0
  0
LINE
  5
30A
330
1E
100
AcDbEntity
  8
0
100
AcDbLine
 10
289.0
 20
33.5100829999999
 30
0.0
 11
170.5
 21
33.5100829999999
 31
0.0
  0
LINE
  5
30B
330
1E
100
AcDbEntity
  8
0
100
AcDbLine
 10
260.0
 20
35.9100829999999
 30
0.0
 11
253.0
 21
36.9100829999999
 31
0.0
  0
LINE
  5
30C
330
1E
100
AcDbEntity
  8
0
100
AcDbLine
 10
289.0
 20
33.2100829999999
 30
0.0
 11
170.5
 21
33.2100829999999
 31
0.0
  0
LINE
  5
30D
330
1E
100
AcDbEntity
  8
0
100
AcDbLine
 10
260.0
 20
31.2100829999999
 30
0.0
 11
257.1474
 21
31.2100829999999
 31
0.0
  0
LINE
  5
30E
330
1E
100
AcDbEntity
  8
0
100
AcDbLine
 10
260.0
 20
31.2100829999999
 30
0.0
 11
256.672
 21
31.2100829999999
 31
0.0
  0
LINE
  5
30F
330
1E
100
AcDbEntity
  8
0
100
AcDbLine
 10
260.0
 20
31.2100829999999
 30
0.0
 11
257.1474
 21
31.2100829999999
 31
0.0
  0
LINE
  5
310
330
1E
100
AcDbEntity
  8
0
100
AcDbLine
 10
260.0
 20
31.2100829999999
 30
0.0
 11
256.672
 21
31.2100829999999
 31
0.0
  0
LINE
  5
311
330
1E
100
AcDbEntity
  8
0
100
AcDbLine
 10
289.0
 20
33.5100829999999
 30
0.0
 11
170.5
 21
33.5100829999999
 31
0.0
  0
LINE
  5
312
330
1E
100
AcDbEntity
  8
0
100
AcDbLine
 10
266.134
 20
33.2100829999999
 30
0.0
 11
266.134
 21
31.2100829999999
 31
0.0
  0
LINE
  5
313
330
1E
100
AcDbEntity
  8
0
100
AcDbLine
 10
267.8659999999999
 20
33.2100829999999
 30
0.0
 11
267.8659999999999
 21
31.2100829999999
 31
0.0
  0
LINE
  5
314
330
1E
100
AcDbEntity
  8
0
100
AcDbLine
 10
274.0
 20
33.2100829999999
 30
0.0
 11
274.0
 21
31.2100829999999
 31
0.0
  0
LINE
  5
315
330
1E
100
AcDbEntity
  8
0
100
AcDbLine
 10
266.134
 20
31.2100829999999
 30
0.0
 11
266.134
 21
33.2100829999999
 31
0.0
  0
LINE
  5
316
330
1E
100
AcDbEntity
  8
0
100
AcDbLine
 10
267.8659999999999
 20
31.2100829999999
 30
0.0
 11
267.8659999999999
 21
33.2100829999999
 31
0.0
  0
LINE
  5
317
330
1E
100
AcDbEntity
  8
0
100
AcDbLine
 10
274.0
 20
31.2100829999999
 30
0.0
 11
274.0
 21
33.2100829999999
 31
0.0
  0
LINE
  5
318
330
1E
100
AcDbEntity
  8
0
100
AcDbLine
 10
272.5319999999999
 20
31.2100829999999
 30
0.0
 11
271.2839999999999
 21
31.2100829999999
 31
0.0
  0
LINE
  5
319
330
1E
100
AcDbEntity
  8
0
100
AcDbLine
 10
272.5319999999999
 20
31.2100829999999
 30
0.0
 11
271.2839999999999
 21
31.2100829999999
 31
0.0
  0
LINE
  5
31A
330
1E
100
AcDbEntity
  8
0
100
AcDbLine
 10
274.0
 20
31.2100829999999
 30
0.0
 11
272.0
 21
31.2100829999999
 31
0.0
  0
LINE
  5
31B
330
1E
100
AcDbEntity
  8
0
100
AcDbLine
 10
273.0
 20
31.2100829999999
 30
0.0
 11
272.5319999999999
 21
31.2100829999999
 31
0.0
  0
LINE
  5
31C
330
1E
100
AcDbEntity
  8
0
100
AcDbLine
 10
273.0
 20
31.2100829999999
 30
0.0
 11
272.5319999999999
 21
31.2100829999999
 31
0.0
  0
LINE
  5
31D
330
1E
100
AcDbEntity
  8
0
100
AcDbLine
 10
266.4479999999999
 20
31.2100829999999
 30
0.0
 11
263.3279999999999
 21
31.2100829999999
 31
0.0
  0
LINE
  5
31E
330
1E
100
AcDbEntity
  8
0
100
AcDbLine
 10
267.8890999999999
 20
31.2100829999999
 30
0.0
 11
265.5269
 21
31.2100829999999
 31
0.0
  0
LINE
  5
31F
330
1E
100
AcDbEntity
  8
0
100
AcDbLine
 10
267.8890999999999
 20
31.2100829999999
 30
0.0
 11
265.5269
 21
31.2100829999999
 31
0.0
  0
LINE
  5
320
330
1E
100
AcDbEntity
  8
0
100
AcDbLine
 10
267.8659999999999
 20
31.2100829999999
 30
0.0
 11
266.134
 21
31.2100829999999
 31
0.0
  0
LINE
  5
321
330
1E
100
AcDbEntity
  8
0
100
AcDbLine
 10
266.866
 20
31.2100829999999
 30
0.0
 11
265.134
 21
31.2100829999999
 31
0.0
  0
LINE
  5
322
330
1E
100
AcDbEntity
  8
0
100
AcDbLine
 10
266.4479999999999
 20
31.2100829999999
 30
0.0
 11
263.3279999999999
 21
31.2100829999999
 31
0.0
  0
LINE
  5
323
330
1E
100
AcDbEntity
  8
0
100
AcDbLine
 10
267.8659999999999
 20
31.2100829999999
 30
0.0
 11
266.134
 21
31.2100829999999
 31
0.0
  0
LINE
  5
324
330
1E
100
AcDbEntity
  8
0
100
AcDbLine
 10
266.866
 20
31.2100829999999
 30
0.0
 11
265.134
 21
31.2100829999999
 31
0.0
  0
LINE
  5
325
330
1E
100
AcDbEntity
  8
0
100
AcDbLine
 10
271.2839999999999
 20
31.2100829999999
 30
0.0
 11
269.2039999999999
 21
31.2100829999999
 31
0.0
  0
LINE
  5
326
330
1E
100
AcDbEntity
  8
0
100
AcDbLine
 10
269.672
 20
31.2100829999999
 30
0.0
 11
267.8890999999999
 21
31.2100829999999
 31
0.0
  0
LINE
  5
327
330
1E
100
AcDbEntity
  8
0
100
AcDbLine
 10
269.672
 20
31.2100829999999
 30
0.0
 11
267.8890999999999
 21
31.2100829999999
 31
0.0
  0
LINE
  5
328
330
1E
100
AcDbEntity
  8
0
100
AcDbLine
 10
271.2839999999999
 20
31.2100829999999
 30
0.0
 11
269.2039999999999
 21
31.2100829999999
 31
0.0
  0
LINE
  5
329
330
1E
100
AcDbEntity
  8
0
100
AcDbLine
 10
271.1428999999999
 20
31.2100829999999
 30
0.0
 11
270.7416999999999
 21
31.2100829999999
 31
0.0
  0
LINE
  5
32A
330
1E
100
AcDbEntity
  8
0
100
AcDbLine
 10
270.7416999999999
 20
31.2100829999999
 30
0.0
 11
269.672
 21
31.2100829999999
 31
0.0
  0
LINE
  5
32B
330
1E
100
AcDbEntity
  8
0
100
AcDbLine
 10
270.7416999999999
 20
31.2100829999999
 30
0.0
 11
269.672
 21
31.2100829999999
 31
0.0
  0
LINE
  5
32C
330
1E
100
AcDbEntity
  8
0
100
AcDbLine
 10
269.2039999999999
 20
31.2100829999999
 30
0.0
 11
266.4479999999999
 21
31.2100829999999
 31
0.0
  0
LINE
  5
32D
330
1E
100
AcDbEntity
  8
0
100
AcDbLine
 10
267.8659999999999
 20
31.2100829999999
 30
0.0
 11
266.866
 21
31.2100829999999
 31
0.0
  0
LINE
  5
32E
330
1E
100
AcDbEntity
  8
0
100
AcDbLine
 10
267.8659999999999
 20
31.2100829999999
 30
0.0
 11
266.866
 21
31.2100829999999
 31
0.0
  0
LINE
  5
32F
330
1E
100
AcDbEntity
  8
0
100
AcDbLine
 10
269.2039999999999
 20
31.2100829999999
 30
0.0
 11
266.4479999999999
 21
31.2100829999999
 31
0.0
  0
LINE
  5
330
330
1E
100
AcDbEntity
  8
0
100
AcDbLine
 10
263.3279999999999
 20
31.2100829999999
 30
0.0
 11
260.0
 21
31.2100829999999
 31
0.0
  0
LINE
  5
331
330
1E
100
AcDbEntity
  8
0
100
AcDbLine
 10
265.5269
 20
31.2100829999999
 30
0.0
 11
262.8525999999999
 21
31.2100829999999
 31
0.0
  0
LINE
  5
332
330
1E
100
AcDbEntity
  8
0
100
AcDbLine
 10
263.3279999999999
 20
31.2100829999999
 30
0.0
 11
260.0
 21
31.2100829999999
 31
0.0
  0
LINE
  5
333
330
1E
100
AcDbEntity
  8
0
100
AcDbLine
 10
265.5269
 20
31.2100829999999
 30
0.0
 11
262.8525999999999
 21
31.2100829999999
 31
0.0
  0
LINE
  5
334
330
1E
100
AcDbEntity
  8
0
100
AcDbLine
 10
266.134
 20
31.2100829999999
 30
0.0
 11
265.134
 21
31.2100829999999
 31
0.0
  0
LINE
  5
335
330
1E
100
AcDbEntity
  8
0
100
AcDbLine
 10
266.134
 20
31.2100829999999
 30
0.0
 11
265.134
 21
31.2100829999999
 31
0.0
  0
LINE
  5
336
330
1E
100
AcDbEntity
  8
0
100
AcDbLine
 10
262.8525999999999
 20
31.2100829999999
 30
0.0
 11
260.0
 21
31.2100829999999
 31
0.0
  0
LINE
  5
337
330
1E
100
AcDbEntity
  8
0
100
AcDbLine
 10
262.8525999999999
 20
31.2100829999999
 30
0.0
 11
260.0
 21
31.2100829999999
 31
0.0
  0
LINE
  5
338
330
1E
100
AcDbEntity
  8
0
100
AcDbLine
 10
294.8
 20
37.71008299999989
 30
0.0
 11
294.1999999999999
 21
36.21008299999989
 31
0.0
  0
LINE
  5
339
330
1E
100
AcDbEntity
  8
0
100
AcDbLine
 10
293.8999999999999
 20
36.4100829999999
 30
0.0
 11
293.0
 21
35.21008299999989
 31
0.0
  0
LINE
  5
33A
330
1E
100
AcDbEntity
  8
0
100
AcDbLine
 10
291.8
 20
34.3100829999999
 30
0.0
 11
290.5
 21
33.71008299999989
 31
0.0
  0
LINE
  5
33B
330
1E
100
AcDbEntity
  8
0
100
AcDbLine
 10
292.0
 20
34.0100829999999
 30
0.0
 11
290.5
 21
33.4100829999999
 31
0.0
  0
LINE
  5
33C
330
1E
100
AcDbEntity
  8
0
100
AcDbLine
 10
293.2
 20
35.0100829999999
 30
0.0
 11
292.0
 21
34.0100829999999
 31
0.0
  0
LINE
  5
33D
330
1E
100
AcDbEntity
  8
0
100
AcDbLine
 10
293.0
 20
35.21008299999989
 30
0.0
 11
291.8
 21
34.3100829999999
 31
0.0
  0
LINE
  5
33E
330
1E
100
AcDbEntity
  8
0
100
AcDbLine
 10
294.1999999999999
 20
36.21008299999989
 30
0.0
 11
293.2
 21
35.0100829999999
 31
0.0
  0
LINE
  5
33F
330
1E
100
AcDbEntity
  8
0
100
AcDbLine
 10
290.5
 20
33.4100829999999
 30
0.0
 11
289.0
 21
33.2100829999999
 31
0.0
  0
LINE
  5
340
330
1E
100
AcDbEntity
  8
0
100
AcDbLine
 10
290.5
 20
33.71008299999989
 30
0.0
 11
289.0
 21
33.5100829999999
 31
0.0
  0
LINE
  5
341
330
1E
100
AcDbEntity
  8
0
100
AcDbLine
 10
295.0
 20
39.21008299999989
 30
0.0
 11
294.8
 21
37.71008299999989
 31
0.0
  0
LINE
  5
342
330
1E
100
AcDbEntity
  8
0
100
AcDbLine
 10
294.7
 20
39.21008299999989
 30
0.0
 11
294.4999999999999
 21
37.71008299999989
 31
0.0
  0
LINE
  5
343
330
1E
100
AcDbEntity
  8
0
100
AcDbLine
 10
294.4999999999999
 20
37.71008299999989
 30
0.0
 11
293.8999999999999
 21
36.4100829999999
 31
0.0
  0
LINE
  5
344
330
1E
100
AcDbEntity
  8
0
100
AcDbLine
 10
279.3
 20
43.91008299999989
 30
0.0
 11
273.6
 21
39.61008299999989
 31
0.0
  0
LINE
  5
345
330
1E
100
AcDbEntity
  8
0
100
AcDbLine
 10
273.6
 20
39.61008299999989
 30
0.0
 11
267.0
 21
36.9100829999999
 31
0.0
  0
LINE
  5
346
330
1E
100
AcDbEntity
  8
0
100
AcDbLine
 10
267.0
 20
36.9100829999999
 30
0.0
 11
260.0
 21
35.9100829999999
 31
0.0
  0
LINE
  5
347
330
1E
100
AcDbEntity
  8
0
100
AcDbLine
 10
252.134
 20
33.2100829999999
 30
0.0
 11
252.134
 21
31.2100829999999
 31
0.0
  0
LINE
  5
348
330
1E
100
AcDbEntity
  8
0
100
AcDbLine
 10
253.8659999999999
 20
33.2100829999999
 30
0.0
 11
253.8659999999999
 21
31.2100829999999
 31
0.0
  0
LINE
  5
349
330
1E
100
AcDbEntity
  8
0
100
AcDbLine
 10
246.0
 20
33.2100829999999
 30
0.0
 11
246.0
 21
31.2100829999999
 31
0.0
  0
LINE
  5
34A
330
1E
100
AcDbEntity
  8
0
100
AcDbLine
 10
246.0
 20
31.2100829999999
 30
0.0
 11
246.0
 21
33.2100829999999
 31
0.0
  0
LINE
  5
34B
330
1E
100
AcDbEntity
  8
0
100
AcDbLine
 10
252.134
 20
31.2100829999999
 30
0.0
 11
252.134
 21
33.2100829999999
 31
0.0
  0
LINE
  5
34C
330
1E
100
AcDbEntity
  8
0
100
AcDbLine
 10
253.8659999999999
 20
31.2100829999999
 30
0.0
 11
253.8659999999999
 21
33.2100829999999
 31
0.0
  0
LINE
  5
34D
330
1E
100
AcDbEntity
  8
0
100
AcDbLine
 10
248.716
 20
31.2100829999999
 30
0.0
 11
247.468
 21
31.2100829999999
 31
0.0
  0
LINE
  5
34E
330
1E
100
AcDbEntity
  8
0
100
AcDbLine
 10
248.0
 20
31.2100829999999
 30
0.0
 11
246.0
 21
31.2100829999999
 31
0.0
  0
LINE
  5
34F
330
1E
100
AcDbEntity
  8
0
100
AcDbLine
 10
248.716
 20
31.2100829999999
 30
0.0
 11
247.468
 21
31.2100829999999
 31
0.0
  0
LINE
  5
350
330
1E
100
AcDbEntity
  8
0
100
AcDbLine
 10
254.4731
 20
31.2100829999999
 30
0.0
 11
252.1109
 21
31.2100829999999
 31
0.0
  0
LINE
  5
351
330
1E
100
AcDbEntity
  8
0
100
AcDbLine
 10
256.672
 20
31.2100829999999
 30
0.0
 11
253.5519999999999
 21
31.2100829999999
 31
0.0
  0
LINE
  5
352
330
1E
100
AcDbEntity
  8
0
100
AcDbLine
 10
253.8659999999999
 20
31.2100829999999
 30
0.0
 11
252.134
 21
31.2100829999999
 31
0.0
  0
LINE
  5
353
330
1E
100
AcDbEntity
  8
0
100
AcDbLine
 10
254.8659999999999
 20
31.2100829999999
 30
0.0
 11
253.134
 21
31.2100829999999
 31
0.0
  0
LINE
  5
354
330
1E
100
AcDbEntity
  8
0
100
AcDbLine
 10
254.4731
 20
31.2100829999999
 30
0.0
 11
252.1109
 21
31.2100829999999
 31
0.0
  0
LINE
  5
355
330
1E
100
AcDbEntity
  8
0
100
AcDbLine
 10
253.8659999999999
 20
31.2100829999999
 30
0.0
 11
252.134
 21
31.2100829999999
 31
0.0
  0
LINE
  5
356
330
1E
100
AcDbEntity
  8
0
100
AcDbLine
 10
254.8659999999999
 20
31.2100829999999
 30
0.0
 11
253.134
 21
31.2100829999999
 31
0.0
  0
LINE
  5
357
330
1E
100
AcDbEntity
  8
0
100
AcDbLine
 10
256.672
 20
31.2100829999999
 30
0.0
 11
253.5519999999999
 21
31.2100829999999
 31
0.0
  0
LINE
  5
358
330
1E
100
AcDbEntity
  8
0
100
AcDbLine
 10
257.1474
 20
31.2100829999999
 30
0.0
 11
254.4731
 21
31.2100829999999
 31
0.0
  0
LINE
  5
359
330
1E
100
AcDbEntity
  8
0
100
AcDbLine
 10
257.1474
 20
31.2100829999999
 30
0.0
 11
254.4731
 21
31.2100829999999
 31
0.0
  0
LINE
  5
35A
330
1E
100
AcDbEntity
  8
0
100
AcDbLine
 10
254.8659999999999
 20
31.2100829999999
 30
0.0
 11
253.8659999999999
 21
31.2100829999999
 31
0.0
  0
LINE
  5
35B
330
1E
100
AcDbEntity
  8
0
100
AcDbLine
 10
254.8659999999999
 20
31.2100829999999
 30
0.0
 11
253.8659999999999
 21
31.2100829999999
 31
0.0
  0
LINE
  5
35C
330
1E
100
AcDbEntity
  8
0
100
AcDbLine
 10
250.796
 20
31.2100829999999
 30
0.0
 11
248.716
 21
31.2100829999999
 31
0.0
  0
LINE
  5
35D
330
1E
100
AcDbEntity
  8
0
100
AcDbLine
 10
252.1109
 20
31.2100829999999
 30
0.0
 11
250.328
 21
31.2100829999999
 31
0.0
  0
LINE
  5
35E
330
1E
100
AcDbEntity
  8
0
100
AcDbLine
 10
250.796
 20
31.2100829999999
 30
0.0
 11
248.716
 21
31.2100829999999
 31
0.0
  0
LINE
  5
35F
330
1E
100
AcDbEntity
  8
0
100
AcDbLine
 10
252.1109
 20
31.2100829999999
 30
0.0
 11
250.328
 21
31.2100829999999
 31
0.0
  0
LINE
  5
360
330
1E
100
AcDbEntity
  8
0
100
AcDbLine
 10
253.5519999999999
 20
31.2100829999999
 30
0.0
 11
250.796
 21
31.2100829999999
 31
0.0
  0
LINE
  5
361
330
1E
100
AcDbEntity
  8
0
100
AcDbLine
 10
253.134
 20
31.2100829999999
 30
0.0
 11
252.134
 21
31.2100829999999
 31
0.0
  0
LINE
  5
362
330
1E
100
AcDbEntity
  8
0
100
AcDbLine
 10
253.134
 20
31.2100829999999
 30
0.0
 11
252.134
 21
31.2100829999999
 31
0.0
  0
LINE
  5
363
330
1E
100
AcDbEntity
  8
0
100
AcDbLine
 10
253.5519999999999
 20
31.2100829999999
 30
0.0
 11
250.796
 21
31.2100829999999
 31
0.0
  0
LINE
  5
364
330
1E
100
AcDbEntity
  8
0
100
AcDbLine
 10
249.2583
 20
31.2100829999999
 30
0.0
 11
248.8570999999999
 21
31.2100829999999
 31
0.0
  0
LINE
  5
365
330
1E
100
AcDbEntity
  8
0
100
AcDbLine
 10
250.328
 20
31.2100829999999
 30
0.0
 11
249.2583
 21
31.2100829999999
 31
0.0
  0
LINE
  5
366
330
1E
100
AcDbEntity
  8
0
100
AcDbLine
 10
250.328
 20
31.2100829999999
 30
0.0
 11
249.2583
 21
31.2100829999999
 31
0.0
  0
LINE
  5
367
330
1E
100
AcDbEntity
  8
0
100
AcDbLine
 10
247.468
 20
31.2100829999999
 30
0.0
 11
247.0
 21
31.2100829999999
 31
0.0
  0
LINE
  5
368
330
1E
100
AcDbEntity
  8
0
100
AcDbLine
 10
247.468
 20
31.2100829999999
 30
0.0
 11
247.0
 21
31.2100829999999
 31
0.0
  0
LINE
  5
369
330
1E
100
AcDbEntity
  8
0
100
AcDbLine
 10
246.3999999999999
 20
39.61008299999989
 30
0.0
 11
240.7
 21
43.91008299999989
 31
0.0
  0
LINE
  5
36A
330
1E
100
AcDbEntity
  8
0
100
AcDbLine
 10
253.0
 20
36.9100829999999
 30
0.0
 11
246.3999999999999
 21
39.61008299999989
 31
0.0
  0
LINE
  5
36B
330
1E
100
AcDbEntity
  8
0
100
AcDbLine
 10
289.0
 20
93.2100829999999
 30
0.0
 11
160.0
 21
93.2100829999999
 31
0.0
  0
LINE
  5
36C
330
1E
100
AcDbEntity
  8
0
100
AcDbLine
 10
289.0
 20
93.2100829999999
 30
0.0
 11
160.0
 21
93.2100829999999
 31
0.0
  0
LINE
  5
36D
330
1E
100
AcDbEntity
  8
0
100
AcDbLine
 10
260.0
 20
95.21008299999989
 30
0.0
 11
256.672
 21
95.21008299999989
 31
0.0
  0
LINE
  5
36E
330
1E
100
AcDbEntity
  8
0
100
AcDbLine
 10
289.0
 20
92.9100829999999
 30
0.0
 11
160.0
 21
92.9100829999999
 31
0.0
  0
LINE
  5
36F
330
1E
100
AcDbEntity
  8
0
100
AcDbLine
 10
289.0
 20
92.9100829999999
 30
0.0
 11
160.0
 21
92.9100829999999
 31
0.0
  0
LINE
  5
370
330
1E
100
AcDbEntity
  8
0
100
AcDbLine
 10
260.0
 20
90.5100829999999
 30
0.0
 11
253.0
 21
89.5100829999999
 31
0.0
  0
LINE
  5
371
330
1E
100
AcDbEntity
  8
0
100
AcDbLine
 10
260.0
 20
78.51008299999991
 30
0.0
 11
256.1
 21
77.9100829999999
 31
0.0
  0
LINE
  5
372
330
1E
100
AcDbEntity
  8
0
100
AcDbLine
 10
260.0
 20
73.71008299999989
 30
0.0
 11
257.2999999999999
 21
73.4100829999999
 31
0.0
  0
LINE
  5
373
330
1E
100
AcDbEntity
  8
0
100
AcDbLine
 10
260.0
 20
52.7100829999999
 30
0.0
 11
257.2999999999999
 21
53.01008299999989
 31
0.0
  0
LINE
  5
374
330
1E
100
AcDbEntity
  8
0
100
AcDbLine
 10
260.0
 20
47.91008299999989
 30
0.0
 11
256.1
 21
48.51008299999989
 31
0.0
  0
LINE
  5
375
330
1E
100
AcDbEntity
  8
0
100
AcDbLine
 10
295.0
 20
73.71008299999989
 30
0.0
 11
295.0
 21
87.2100829999999
 31
0.0
  0
LINE
  5
376
330
1E
100
AcDbEntity
  8
0
100
AcDbLine
 10
294.7
 20
87.2100829999999
 30
0.0
 11
294.7
 21
73.71008299999989
 31
0.0
  0
LINE
  5
377
330
1E
100
AcDbEntity
  8
0
100
AcDbLine
 10
283.6
 20
76.81008299999991
 30
0.0
 11
279.3
 21
82.51008299999991
 31
0.0
  0
LINE
  5
378
330
1E
100
AcDbEntity
  8
0
100
AcDbLine
 10
267.6
 20
76.51008299999991
 30
0.0
 11
263.8999999999999
 21
77.9100829999999
 31
0.0
  0
LINE
  5
379
330
1E
100
AcDbEntity
  8
0
100
AcDbLine
 10
294.7
 20
73.71008299999989
 30
0.0
 11
294.7
 21
87.2100829999999
 31
0.0
  0
LINE
  5
37A
330
1E
100
AcDbEntity
  8
0
100
AcDbLine
 10
295.0
 20
87.2100829999999
 30
0.0
 11
295.0
 21
73.71008299999989
 31
0.0
  0
LINE
  5
37B
330
1E
100
AcDbEntity
  8
0
100
AcDbLine
 10
312.1999999999999
 20
73.4100829999999
 30
0.0
 11
309.5
 21
73.71008299999989
 31
0.0
  0
LINE
  5
37C
330
1E
100
AcDbEntity
  8
0
100
AcDbLine
 10
312.1999999999999
 20
53.01008299999989
 30
0.0
 11
309.5
 21
52.7100829999999
 31
0.0
  0
LINE
  5
37D
330
1E
100
AcDbEntity
  8
0
100
AcDbLine
 10
320.0
 20
63.2100829999999
 30
0.0
 11
319.7
 21
60.51008299999989
 31
0.0
  0
LINE
  5
37E
330
1E
100
AcDbEntity
  8
0
100
AcDbLine
 10
317.0
 20
55.7100829999999
 30
0.0
 11
314.6999999999999
 21
54.1100829999999
 31
0.0
  0
LINE
  5
37F
330
1E
100
AcDbEntity
  8
0
100
AcDbLine
 10
314.6999999999999
 20
54.1100829999999
 30
0.0
 11
312.1999999999999
 21
53.01008299999989
 31
0.0
  0
LINE
  5
380
330
1E
100
AcDbEntity
  8
0
100
AcDbLine
 10
319.7
 20
60.51008299999989
 30
0.0
 11
318.6
 21
58.01008299999989
 31
0.0
  0
LINE
  5
381
330
1E
100
AcDbEntity
  8
0
100
AcDbLine
 10
319.7
 20
60.51008299999989
 30
0.0
 11
318.6
 21
58.01008299999989
 31
0.0
  0
LINE
  5
382
330
1E
100
AcDbEntity
  8
0
100
AcDbLine
 10
318.6
 20
58.01008299999989
 30
0.0
 11
317.0
 21
55.7100829999999
 31
0.0
  0
LINE
  5
383
330
1E
100
AcDbEntity
  8
0
100
AcDbLine
 10
318.6
 20
68.4100829999999
 30
0.0
 11
317.0
 21
70.7100829999999
 31
0.0
  0
LINE
  5
384
330
1E
100
AcDbEntity
  8
0
100
AcDbLine
 10
319.7
 20
65.9100829999999
 30
0.0
 11
318.6
 21
68.4100829999999
 31
0.0
  0
LINE
  5
385
330
1E
100
AcDbEntity
  8
0
100
AcDbLine
 10
319.7
 20
65.9100829999999
 30
0.0
 11
318.6
 21
68.4100829999999
 31
0.0
  0
LINE
  5
386
330
1E
100
AcDbEntity
  8
0
100
AcDbLine
 10
320.0
 20
63.2100829999999
 30
0.0
 11
319.7
 21
65.9100829999999
 31
0.0
  0
LINE
  5
387
330
1E
100
AcDbEntity
  8
0
100
AcDbLine
 10
317.0
 20
70.7100829999999
 30
0.0
 11
314.6999999999999
 21
72.31008299999991
 31
0.0
  0
LINE
  5
388
330
1E
100
AcDbEntity
  8
0
100
AcDbLine
 10
314.6999999999999
 20
72.31008299999991
 30
0.0
 11
312.1999999999999
 21
73.4100829999999
 31
0.0
  0
LINE
  5
389
330
1E
100
AcDbEntity
  8
0
100
AcDbLine
 10
309.5
 20
52.7100829999999
 30
0.0
 11
280.0
 21
52.7100829999999
 31
0.0
  0
LINE
  5
38A
330
1E
100
AcDbEntity
  8
0
100
AcDbLine
 10
309.5
 20
52.7100829999999
 30
0.0
 11
260.0
 21
52.7100829999999
 31
0.0
  0
LINE
  5
38B
330
1E
100
AcDbEntity
  8
0
100
AcDbLine
 10
280.0
 20
52.7100829999999
 30
0.0
 11
260.0
 21
52.7100829999999
 31
0.0
  0
LINE
  5
38C
330
1E
100
AcDbEntity
  8
0
100
AcDbLine
 10
273.0
 20
52.7100829999999
 30
0.0
 11
269.0
 21
52.7100829999999
 31
0.0
  0
LINE
  5
38D
330
1E
100
AcDbEntity
  8
0
100
AcDbLine
 10
284.8681818181818
 20
52.7100829999999
 30
0.0
 11
283.6
 21
49.61008299999989
 31
0.0
  0
LINE
  5
38E
330
1E
100
AcDbEntity
  8
0
100
AcDbLine
 10
280.0
 20
52.7100829999999
 30
0.0
 11
276.6999999999999
 21
52.7100829999999
 31
0.0
  0
LINE
  5
38F
330
1E
100
AcDbEntity
  8
0
100
AcDbLine
 10
276.6999999999999
 20
52.7100829999999
 30
0.0
 11
273.0
 21
52.7100829999999
 31
0.0
  0
LINE
  5
390
330
1E
100
AcDbEntity
  8
0
100
AcDbLine
 10
270.8
 20
52.4100829999999
 30
0.0
 11
267.6
 21
49.9100829999999
 31
0.0
  0
LINE
  5
391
330
1E
100
AcDbEntity
  8
0
100
AcDbLine
 10
267.6
 20
49.9100829999999
 30
0.0
 11
263.8999999999999
 21
48.51008299999989
 31
0.0
  0
LINE
  5
392
330
1E
100
AcDbEntity
  8
0
100
AcDbLine
 10
263.8999999999999
 20
48.51008299999989
 30
0.0
 11
260.0
 21
47.91008299999989
 31
0.0
  0
LINE
  5
393
330
1E
100
AcDbEntity
  8
0
100
AcDbLine
 10
269.0
 20
52.7100829999999
 30
0.0
 11
264.6999999999999
 21
52.7100829999999
 31
0.0
  0
LINE
  5
394
330
1E
100
AcDbEntity
  8
0
100
AcDbLine
 10
271.034375
 20
52.7100829999999
 30
0.0
 11
270.8
 21
52.4100829999999
 31
0.0
  0
LINE
  5
395
330
1E
100
AcDbEntity
  8
0
100
AcDbLine
 10
264.6999999999999
 20
52.7100829999999
 30
0.0
 11
261.8999999999999
 21
52.7100829999999
 31
0.0
  0
LINE
  5
396
330
1E
100
AcDbEntity
  8
0
100
AcDbLine
 10
260.3999999999999
 20
52.7100829999999
 30
0.0
 11
260.0
 21
52.7100829999999
 31
0.0
  0
LINE
  5
397
330
1E
100
AcDbEntity
  8
0
100
AcDbLine
 10
309.5
 20
73.71008299999989
 30
0.0
 11
260.0
 21
73.71008299999989
 31
0.0
  0
LINE
  5
398
330
1E
100
AcDbEntity
  8
0
100
AcDbLine
 10
309.5
 20
73.71008299999989
 30
0.0
 11
260.0
 21
73.71008299999989
 31
0.0
  0
LINE
  5
399
330
1E
100
AcDbEntity
  8
0
100
AcDbLine
 10
284.8681818181818
 20
73.71008299999989
 30
0.0
 11
283.6
 21
76.81008299999991
 31
0.0
  0
LINE
  5
39A
330
1E
100
AcDbEntity
  8
0
100
AcDbLine
 10
270.8
 20
74.01008299999991
 30
0.0
 11
267.6
 21
76.51008299999991
 31
0.0
  0
LINE
  5
39B
330
1E
100
AcDbEntity
  8
0
100
AcDbLine
 10
271.034375
 20
73.71008299999989
 30
0.0
 11
270.8
 21
74.01008299999991
 31
0.0
  0
LINE
  5
39C
330
1E
100
AcDbEntity
  8
0
100
AcDbLine
 10
293.2
 20
91.4100829999999
 30
0.0
 11
292.0
 21
92.4100829999999
 31
0.0
  0
LINE
  5
39D
330
1E
100
AcDbEntity
  8
0
100
AcDbLine
 10
291.8
 20
92.1100829999999
 30
0.0
 11
290.5
 21
92.71008299999989
 31
0.0
  0
LINE
  5
39E
330
1E
100
AcDbEntity
  8
0
100
AcDbLine
 10
294.7
 20
87.2100829999999
 30
0.0
 11
294.4999999999999
 21
88.7100829999999
 31
0.0
  0
LINE
  5
39F
330
1E
100
AcDbEntity
  8
0
100
AcDbLine
 10
295.0
 20
87.2100829999999
 30
0.0
 11
294.8
 21
88.7100829999999
 31
0.0
  0
LINE
  5
3A0
330
1E
100
AcDbEntity
  8
0
100
AcDbLine
 10
294.1999999999999
 20
90.21008299999989
 30
0.0
 11
293.2
 21
91.4100829999999
 31
0.0
  0
LINE
  5
3A1
330
1E
100
AcDbEntity
  8
0
100
AcDbLine
 10
293.8999999999999
 20
90.01008299999991
 30
0.0
 11
293.0
 21
91.2100829999999
 31
0.0
  0
LINE
  5
3A2
330
1E
100
AcDbEntity
  8
0
100
AcDbLine
 10
294.8
 20
88.7100829999999
 30
0.0
 11
294.1999999999999
 21
90.21008299999989
 31
0.0
  0
LINE
  5
3A3
330
1E
100
AcDbEntity
  8
0
100
AcDbLine
 10
294.4999999999999
 20
88.7100829999999
 30
0.0
 11
293.8999999999999
 21
90.01008299999991
 31
0.0
  0
LINE
  5
3A4
330
1E
100
AcDbEntity
  8
0
100
AcDbLine
 10
293.0
 20
91.2100829999999
 30
0.0
 11
291.8
 21
92.1100829999999
 31
0.0
  0
LINE
  5
3A5
330
1E
100
AcDbEntity
  8
0
100
AcDbLine
 10
279.3
 20
82.51008299999991
 30
0.0
 11
273.6
 21
86.81008299999991
 31
0.0
  0
LINE
  5
3A6
330
1E
100
AcDbEntity
  8
0
100
AcDbLine
 10
263.8999999999999
 20
77.9100829999999
 30
0.0
 11
260.0
 21
78.51008299999991
 31
0.0
  0
LINE
  5
3A7
330
1E
100
AcDbEntity
  8
0
100
AcDbLine
 10
273.6
 20
86.81008299999991
 30
0.0
 11
267.0
 21
89.5100829999999
 31
0.0
  0
LINE
  5
3A8
330
1E
100
AcDbEntity
  8
0
100
AcDbLine
 10
267.0
 20
89.5100829999999
 30
0.0
 11
260.0
 21
90.5100829999999
 31
0.0
  0
LINE
  5
3A9
330
1E
100
AcDbEntity
  8
0
100
AcDbLine
 10
292.0
 20
92.4100829999999
 30
0.0
 11
290.5
 21
93.0100829999999
 31
0.0
  0
LINE
  5
3AA
330
1E
100
AcDbEntity
  8
0
100
AcDbLine
 10
290.5
 20
93.0100829999999
 30
0.0
 11
289.0
 21
93.2100829999999
 31
0.0
  0
LINE
  5
3AB
330
1E
100
AcDbEntity
  8
0
100
AcDbLine
 10
290.5
 20
92.71008299999989
 30
0.0
 11
289.0
 21
92.9100829999999
 31
0.0
  0
LINE
  5
3AC
330
1E
100
AcDbEntity
  8
0
100
AcDbLine
 10
272.5319999999999
 20
95.21008299999989
 30
0.0
 11
271.2839999999999
 21
95.21008299999989
 31
0.0
  0
LINE
  5
3AD
330
1E
100
AcDbEntity
  8
0
100
AcDbLine
 10
274.0
 20
95.21008299999989
 30
0.0
 11
274.0
 21
93.2100829999999
 31
0.0
  0
LINE
  5
3AE
330
1E
100
AcDbEntity
  8
0
100
AcDbLine
 10
274.0
 20
93.2100829999999
 30
0.0
 11
274.0
 21
95.21008299999989
 31
0.0
  0
LINE
  5
3AF
330
1E
100
AcDbEntity
  8
0
100
AcDbLine
 10
273.0
 20
95.21008299999989
 30
0.0
 11
272.5319999999999
 21
95.21008299999989
 31
0.0
  0
LINE
  5
3B0
330
1E
100
AcDbEntity
  8
0
100
AcDbLine
 10
274.0
 20
95.21008299999989
 30
0.0
 11
273.0
 21
95.21008299999989
 31
0.0
  0
LINE
  5
3B1
330
1E
100
AcDbEntity
  8
0
100
AcDbLine
 10
267.8659999999999
 20
95.21008299999989
 30
0.0
 11
266.134
 21
95.21008299999989
 31
0.0
  0
LINE
  5
3B2
330
1E
100
AcDbEntity
  8
0
100
AcDbLine
 10
267.8659999999999
 20
95.21008299999989
 30
0.0
 11
267.8659999999999
 21
93.2100829999999
 31
0.0
  0
LINE
  5
3B3
330
1E
100
AcDbEntity
  8
0
100
AcDbLine
 10
267.8659999999999
 20
93.2100829999999
 30
0.0
 11
267.8659999999999
 21
95.21008299999989
 31
0.0
  0
LINE
  5
3B4
330
1E
100
AcDbEntity
  8
0
100
AcDbLine
 10
271.2839999999999
 20
95.21008299999989
 30
0.0
 11
269.2039999999999
 21
95.21008299999989
 31
0.0
  0
LINE
  5
3B5
330
1E
100
AcDbEntity
  8
0
100
AcDbLine
 10
269.2039999999999
 20
95.21008299999989
 30
0.0
 11
267.8659999999999
 21
95.21008299999989
 31
0.0
  0
LINE
  5
3B6
330
1E
100
AcDbEntity
  8
0
100
AcDbLine
 10
266.134
 20
95.21008299999989
 30
0.0
 11
266.134
 21
93.2100829999999
 31
0.0
  0
LINE
  5
3B7
330
1E
100
AcDbEntity
  8
0
100
AcDbLine
 10
266.134
 20
93.2100829999999
 30
0.0
 11
266.134
 21
95.21008299999989
 31
0.0
  0
LINE
  5
3B8
330
1E
100
AcDbEntity
  8
0
100
AcDbLine
 10
263.3279999999999
 20
95.21008299999989
 30
0.0
 11
260.0
 21
95.21008299999989
 31
0.0
  0
LINE
  5
3B9
330
1E
100
AcDbEntity
  8
0
100
AcDbLine
 10
265.134
 20
95.21008299999989
 30
0.0
 11
263.3279999999999
 21
95.21008299999989
 31
0.0
  0
LINE
  5
3BA
330
1E
100
AcDbEntity
  8
0
100
AcDbLine
 10
266.134
 20
95.21008299999989
 30
0.0
 11
265.134
 21
95.21008299999989
 31
0.0
  0
LINE
  5
3BB
330
1E
100
AcDbEntity
  8
0
100
AcDbLine
 10
240.7
 20
82.51008299999991
 30
0.0
 11
236.4
 21
76.81008299999991
 31
0.0
  0
LINE
  5
3BC
330
1E
100
AcDbEntity
  8
0
100
AcDbLine
 10
256.1
 20
77.9100829999999
 30
0.0
 11
252.4
 21
76.51008299999991
 31
0.0
  0
LINE
  5
3BD
330
1E
100
AcDbEntity
  8
0
100
AcDbLine
 10
233.6999999999999
 20
56.21008299999989
 30
0.0
 11
232.6999999999999
 21
63.2100829999999
 31
0.0
  0
LINE
  5
3BE
330
1E
100
AcDbEntity
  8
0
100
AcDbLine
 10
245.3
 20
59.31008299999989
 30
0.0
 11
244.7
 21
63.2100829999999
 31
0.0
  0
LINE
  5
3BF
330
1E
100
AcDbEntity
  8
0
100
AcDbLine
 10
249.8
 20
60.51008299999989
 30
0.0
 11
249.5
 21
63.2100829999999
 31
0.0
  0
LINE
  5
3C0
330
1E
100
AcDbEntity
  8
0
100
AcDbLine
 10
236.4
 20
49.61008299999989
 30
0.0
 11
233.6999999999999
 21
56.21008299999989
 31
0.0
  0
LINE
  5
3C1
330
1E
100
AcDbEntity
  8
0
100
AcDbLine
 10
254.8
 20
54.1100829999999
 30
0.0
 11
252.4999999999999
 21
55.7100829999999
 31
0.0
  0
LINE
  5
3C2
330
1E
100
AcDbEntity
  8
0
100
AcDbLine
 10
249.1999999999999
 20
52.4100829999999
 30
0.0
 11
246.7
 21
55.6100829999999
 31
0.0
  0
LINE
  5
3C3
330
1E
100
AcDbEntity
  8
0
100
AcDbLine
 10
252.4
 20
49.9100829999999
 30
0.0
 11
249.1999999999999
 21
52.4100829999999
 31
0.0
  0
LINE
  5
3C4
330
1E
100
AcDbEntity
  8
0
100
AcDbLine
 10
256.1
 20
48.51008299999989
 30
0.0
 11
252.4
 21
49.9100829999999
 31
0.0
  0
LINE
  5
3C5
330
1E
100
AcDbEntity
  8
0
100
AcDbLine
 10
257.2999999999999
 20
53.01008299999989
 30
0.0
 11
254.8
 21
54.1100829999999
 31
0.0
  0
LINE
  5
3C6
330
1E
100
AcDbEntity
  8
0
100
AcDbLine
 10
250.8999999999999
 20
58.01008299999989
 30
0.0
 11
249.8
 21
60.51008299999989
 31
0.0
  0
LINE
  5
3C7
330
1E
100
AcDbEntity
  8
0
100
AcDbLine
 10
252.4999999999999
 20
55.7100829999999
 30
0.0
 11
250.8999999999999
 21
58.01008299999989
 31
0.0
  0
LINE
  5
3C8
330
1E
100
AcDbEntity
  8
0
100
AcDbLine
 10
246.7
 20
55.6100829999999
 30
0.0
 11
245.3
 21
59.31008299999989
 31
0.0
  0
LINE
  5
3C9
330
1E
100
AcDbEntity
  8
0
100
AcDbLine
 10
236.4
 20
76.81008299999991
 30
0.0
 11
233.6999999999999
 21
70.2100829999999
 31
0.0
  0
LINE
  5
3CA
330
1E
100
AcDbEntity
  8
0
100
AcDbLine
 10
246.7
 20
70.8100829999999
 30
0.0
 11
245.3
 21
67.11008299999988
 31
0.0
  0
LINE
  5
3CB
330
1E
100
AcDbEntity
  8
0
100
AcDbLine
 10
252.4999999999999
 20
70.7100829999999
 30
0.0
 11
250.8999999999999
 21
68.4100829999999
 31
0.0
  0
LINE
  5
3CC
330
1E
100
AcDbEntity
  8
0
100
AcDbLine
 10
250.8999999999999
 20
68.4100829999999
 30
0.0
 11
249.8
 21
65.9100829999999
 31
0.0
  0
LINE
  5
3CD
330
1E
100
AcDbEntity
  8
0
100
AcDbLine
 10
249.8
 20
65.9100829999999
 30
0.0
 11
249.5
 21
63.2100829999999
 31
0.0
  0
LINE
  5
3CE
330
1E
100
AcDbEntity
  8
0
100
AcDbLine
 10
245.3
 20
67.11008299999988
 30
0.0
 11
244.7
 21
63.2100829999999
 31
0.0
  0
LINE
  5
3CF
330
1E
100
AcDbEntity
  8
0
100
AcDbLine
 10
249.1999999999999
 20
74.01008299999991
 30
0.0
 11
246.7
 21
70.8100829999999
 31
0.0
  0
LINE
  5
3D0
330
1E
100
AcDbEntity
  8
0
100
AcDbLine
 10
254.8
 20
72.31008299999991
 30
0.0
 11
252.4999999999999
 21
70.7100829999999
 31
0.0
  0
LINE
  5
3D1
330
1E
100
AcDbEntity
  8
0
100
AcDbLine
 10
257.2999999999999
 20
73.4100829999999
 30
0.0
 11
254.8
 21
72.31008299999991
 31
0.0
  0
LINE
  5
3D2
330
1E
100
AcDbEntity
  8
0
100
AcDbLine
 10
252.4
 20
76.51008299999991
 30
0.0
 11
249.1999999999999
 21
74.01008299999991
 31
0.0
  0
LINE
  5
3D3
330
1E
100
AcDbEntity
  8
0
100
AcDbLine
 10
233.6999999999999
 20
70.2100829999999
 30
0.0
 11
232.6999999999999
 21
63.2100829999999
 31
0.0
  0
LINE
  5
3D4
330
1E
100
AcDbEntity
  8
0
100
AcDbLine
 10
246.3999999999999
 20
86.81008299999991
 30
0.0
 11
240.7
 21
82.51008299999991
 31
0.0
  0
LINE
  5
3D5
330
1E
100
AcDbEntity
  8
0
100
AcDbLine
 10
253.0
 20
89.5100829999999
 30
0.0
 11
246.3999999999999
 21
86.81008299999991
 31
0.0
  0
LINE
  5
3D6
330
1E
100
AcDbEntity
  8
0
100
AcDbLine
 10
248.716
 20
95.21008299999989
 30
0.0
 11
247.468
 21
95.21008299999989
 31
0.0
  0
LINE
  5
3D7
330
1E
100
AcDbEntity
  8
0
100
AcDbLine
 10
253.8659999999999
 20
95.21008299999989
 30
0.0
 11
252.134
 21
95.21008299999989
 31
0.0
  0
LINE
  5
3D8
330
1E
100
AcDbEntity
  8
0
100
AcDbLine
 10
253.8659999999999
 20
95.21008299999989
 30
0.0
 11
253.8659999999999
 21
93.2100829999999
 31
0.0
  0
LINE
  5
3D9
330
1E
100
AcDbEntity
  8
0
100
AcDbLine
 10
253.8659999999999
 20
93.2100829999999
 30
0.0
 11
253.8659999999999
 21
95.21008299999989
 31
0.0
  0
LINE
  5
3DA
330
1E
100
AcDbEntity
  8
0
100
AcDbLine
 10
256.672
 20
95.21008299999989
 30
0.0
 11
254.8659999999999
 21
95.21008299999989
 31
0.0
  0
LINE
  5
3DB
330
1E
100
AcDbEntity
  8
0
100
AcDbLine
 10
254.8659999999999
 20
95.21008299999989
 30
0.0
 11
253.8659999999999
 21
95.21008299999989
 31
0.0
  0
LINE
  5
3DC
330
1E
100
AcDbEntity
  8
0
100
AcDbLine
 10
252.134
 20
95.21008299999989
 30
0.0
 11
252.134
 21
93.2100829999999
 31
0.0
  0
LINE
  5
3DD
330
1E
100
AcDbEntity
  8
0
100
AcDbLine
 10
252.134
 20
93.2100829999999
 30
0.0
 11
252.134
 21
95.21008299999989
 31
0.0
  0
LINE
  5
3DE
330
1E
100
AcDbEntity
  8
0
100
AcDbLine
 10
250.796
 20
95.21008299999989
 30
0.0
 11
248.716
 21
95.21008299999989
 31
0.0
  0
LINE
  5
3DF
330
1E
100
AcDbEntity
  8
0
100
AcDbLine
 10
252.134
 20
95.21008299999989
 30
0.0
 11
250.796
 21
95.21008299999989
 31
0.0
  0
LINE
  5
3E0
330
1E
100
AcDbEntity
  8
0
100
AcDbLine
 10
246.0
 20
95.21008299999989
 30
0.0
 11
246.0
 21
93.2100829999999
 31
0.0
  0
LINE
  5
3E1
330
1E
100
AcDbEntity
  8
0
100
AcDbLine
 10
246.0
 20
93.2100829999999
 30
0.0
 11
246.0
 21
95.21008299999989
 31
0.0
  0
LINE
  5
3E2
330
1E
100
AcDbEntity
  8
0
100
AcDbLine
 10
247.468
 20
95.21008299999989
 30
0.0
 11
247.0
 21
95.21008299999989
 31
0.0
  0
LINE
  5
3E3
330
1E
100
AcDbEntity
  8
0
100
AcDbLine
 10
247.0
 20
95.21008299999989
 30
0.0
 11
246.0
 21
95.21008299999989
 31
0.0
  0
ENDSEC
  0
SECTION
  2
OBJECTS
  0
DICTIONARY
  5
C
330
0
100
AcDbDictionary
281
     1
  3
ACAD_GROUP
350
D
  3
ACAD_LAYOUT
350
19
  3
ACAD_MLINESTYLE
350
16
  3
ACAD_PLOTSETTINGS
350
18
  3
ACAD_PLOTSTYLENAME
350
E
  3
AcDbVariableDictionary
350
300
  0
DICTIONARY
  5
D
102
{ACAD_REACTORS
330
C
102
}
330
C
100
AcDbDictionary
281
     1
  0
DICTIONARY
  5
19
102
{ACAD_REACTORS
330
C
102
}
330
C
100
AcDbDictionary
281
     1
  3
Layout1
350
1D
  3
Model
350
21
  0
DICTIONARY
  5
16
102
{ACAD_REACTORS
330
C
102
}
330
C
100
AcDbDictionary
281
     1
  3
Standard
350
17
  0
DICTIONARY
  5
18
102
{ACAD_REACTORS
330
C
102
}
330
C
100
AcDbDictionary
281
     1
  0
ACDBDICTIONARYWDFLT
  5
E
102
{ACAD_REACTORS
330
C
102
}
330
C
100
AcDbDictionary
281
     1
  3
Normal
350
F
100
AcDbDictionaryWithDefault
340
F
  0
DICTIONARY
  5
300
102
{ACAD_REACTORS
330
C
102
}
330
C
100
AcDbDictionary
281
     1
  3
DIMASSOC
350
301
  0
LAYOUT
  5
1D
102
{ACAD_REACTORS
330
19
102
}
330
19
100
AcDbPlotSettings
  1

  2
hp deskjet 980c series
  4

  6

 40
0.0
 41
0.0
 42
0.0
 43
0.0
 44
0.0
 45
0.0
 46
0.0
 47
0.0
 48
0.0
 49
0.0
140
0.0
141
0.0
142
1.0
143
1.0
 70
   688
 72
     0
 73
     0
 74
     5
  7

 75
    16
147
1.0
148
0.0
149
0.0
100
AcDbLayout
  1
Layout1
 70
     1
 71
     1
 10
0.0
 20
0.0
 11
12.0
 21
9.0
 12
0.0
 22
0.0
 32
0.0
 14
1.000000000000000E+20
 24
1.000000000000000E+20
 34
1.000000000000000E+20
 15
-1.000000000000000E+20
 25
-1.000000000000000E+20
 35
-1.000000000000000E+20
146
0.0
 13
0.0
 23
0.0
 33
0.0
 16
1.0
 26
0.0
 36
0.0
 17
0.0
 27
1.0
 37
0.0
 76
     0
330
1A
  0
LAYOUT
  5
21
102
{ACAD_REACTORS
330
19
102
}
330
19
100
AcDbPlotSettings
  1

  2
hp deskjet 980c series
  4

  6

 40
0.0
 41
0.0
 42
0.0
 43
0.0
 44
0.0
 45
0.0
 46
0.0
 47
0.0
 48
0.0
 49
0.0
140
0.0
141
0.0
142
1.0
143
1.0
 70
  1712
 72
     0
 73
     0
 74
     0
  7

 75
     0
147
1.0
148
0.0
149
0.0
100
AcDbLayout
  1
Model
 70
     1
 71
     0
 10
0.0
 20
0.0
 11
12.0
 21
9.0
 12
0.0
 22
0.0
 32
0.0
 14
0.0
 24
0.0
 34
0.0
 15
0.0
 25
0.0
 35
0.0
146
0.0
 13
0.0
 23
0.0
 33
0.0
 16
1.0
 26
0.0
 36
0.0
 17
0.0
 27
1.0
 37
0.0
 76
     0
330
1E
  0
MLINESTYLE
  5
17
102
{ACAD_REACTORS
330
16
102
}
330
16
100
AcDbMlineStyle
  2
STANDARD
 70
     0
  3

 62
   256
 51
90.0
 52
90.0
 71
     2
 49
0.5
 62
   256
  6
BYLAYER
 49
-0.5
 62
   256
  6
BYLAYER
  0
ACDBPLACEHOLDER
  5
F
102
{ACAD_REACTORS
330
E
102
}
330
E
  0
DICTIONARYVAR
  5
301
102
{ACAD_REACTORS
330
300
102
}
330
300
100
DictionaryVariables
280
     0
  1
1
  0
ENDSEC
  0
EOF
