  0
SECTION
  2
HEADER
  9
$ACADVER
  1
AC1014
  9
$ACADMAINTVER
 70
     9
  9
$DWGCODEPAGE
  3
ANSI_1252
  9
$INSBASE
 10
0.0
 20
0.0
 30
0.0
  9
$EXTMIN
 10
-0.0000000000000089
 20
0.0000249999999999
 30
0.0
  9
$EXTMAX
 10
320.0
 20
175.999975
 30
0.0
  9
$LIMMIN
 10
0.0
 20
0.0
  9
$LIMMAX
 10
12.0
 20
9.0
  9
$ORTHOMODE
 70
     0
  9
$REGENMODE
 70
     1
  9
$FILLMODE
 70
     1
  9
$QTEXTMODE
 70
     0
  9
$MIRRTEXT
 70
     1
  9
$DRAGMODE
 70
     2
  9
$LTSCALE
 40
1.0
  9
$OSMODE
 70
    37
  9
$ATTMODE
 70
     1
  9
$TEXTSIZE
 40
0.2
  9
$TRACEWID
 40
0.05
  9
$TEXTSTYLE
  7
STANDARD
  9
$CLAYER
  8
0
  9
$CELTYPE
  6
CONTINUOUS
  9
$CECOLOR
 62
   256
  9
$CELTSCALE
 40
1.0
  9
$DELOBJ
 70
     1
  9
$DISPSILH
 70
     0
  9
$DIMSCALE
 40
1.0
  9
$DIMASZ
 40
0.18
  9
$DIMEXO
 40
0.0625
  9
$DIMDLI
 40
0.38
  9
$DIMRND
 40
0.0
  9
$DIMDLE
 40
0.0
  9
$DIMEXE
 40
0.18
  9
$DIMTP
 40
0.0
  9
$DIMTM
 40
0.0
  9
$DIMTXT
 40
0.18
  9
$DIMCEN
 40
0.09
  9
$DIMTSZ
 40
0.0
  9
$DIMTOL
 70
     0
  9
$DIMLIM
 70
     0
  9
$DIMTIH
 70
     1
  9
$DIMTOH
 70
     1
  9
$DIMSE1
 70
     0
  9
$DIMSE2
 70
     0
  9
$DIMTAD
 70
     0
  9
$DIMZIN
 70
     0
  9
$DIMBLK
  1

  9
$DIMASO
 70
     1
  9
$DIMSHO
 70
     1
  9
$DIMPOST
  1

  9
$DIMAPOST
  1

  9
$DIMALT
 70
     0
  9
$DIMALTD
 70
     2
  9
$DIMALTF
 40
25.4
  9
$DIMLFAC
 40
1.0
  9
$DIMTOFL
 70
     0
  9
$DIMTVP
 40
0.0
  9
$DIMTIX
 70
     0
  9
$DIMSOXD
 70
     0
  9
$DIMSAH
 70
     0
  9
$DIMBLK1
  1

  9
$DIMBLK2
  1

  9
$DIMSTYLE
  2
STANDARD
  9
$DIMCLRD
 70
     0
  9
$DIMCLRE
 70
     0
  9
$DIMCLRT
 70
     0
  9
$DIMTFAC
 40
1.0
  9
$DIMGAP
 40
0.09
  9
$DIMJUST
 70
     0
  9
$DIMSD1
 70
     0
  9
$DIMSD2
 70
     0
  9
$DIMTOLJ
 70
     1
  9
$DIMTZIN
 70
     0
  9
$DIMALTZ
 70
     0
  9
$DIMALTTZ
 70
     0
  9
$DIMFIT
 70
     3
  9
$DIMUPT
 70
     0
  9
$DIMUNIT
 70
     2
  9
$DIMDEC
 70
     4
  9
$DIMTDEC
 70
     4
  9
$DIMALTU
 70
     2
  9
$DIMALTTD
 70
     2
  9
$DIMTXSTY
  7
STANDARD
  9
$DIMAUNIT
 70
     0
  9
$LUNITS
 70
     2
  9
$LUPREC
 70
     4
  9
$SKETCHINC
 40
0.1
  9
$FILLETRAD
 40
0.0
  9
$AUNITS
 70
     0
  9
$AUPREC
 70
     0
  9
$MENU
  1
.
  9
$ELEVATION
 40
0.0
  9
$PELEVATION
 40
0.0
  9
$THICKNESS
 40
0.0
  9
$LIMCHECK
 70
     0
  9
$BLIPMODE
 70
     0
  9
$CHAMFERA
 40
0.0
  9
$CHAMFERB
 40
0.0
  9
$CHAMFERC
 40
0.0
  9
$CHAMFERD
 40
0.0
  9
$SKPOLY
 70
     0
  9
$TDCREATE
 40
2454637.838001817
  9
$TDUPDATE
 40
2454687.531066620
  9
$TDINDWG
 40
0.0652218981
  9
$TDUSRTIMER
 40
0.0652218981
  9
$USRTIMER
 70
     1
  9
$ANGBASE
 50
0.0
  9
$ANGDIR
 70
     0
  9
$PDMODE
 70
     0
  9
$PDSIZE
 40
0.0
  9
$PLINEWID
 40
0.0
  9
$COORDS
 70
     1
  9
$SPLFRAME
 70
     0
  9
$SPLINETYPE
 70
     6
  9
$SPLINESEGS
 70
     8
  9
$ATTDIA
 70
     0
  9
$ATTREQ
 70
     1
  9
$HANDLING
 70
 22529
  9
$HANDSEED
  5
531
  9
$SURFTAB1
 70
     6
  9
$SURFTAB2
 70
     6
  9
$SURFTYPE
 70
     6
  9
$SURFU
 70
     6
  9
$SURFV
 70
     6
  9
$UCSNAME
  2

  9
$UCSORG
 10
0.0
 20
0.0
 30
0.0
  9
$UCSXDIR
 10
1.0
 20
0.0
 30
0.0
  9
$UCSYDIR
 10
0.0
 20
1.0
 30
0.0
  9
$PUCSNAME
  2

  9
$PUCSORG
 10
0.0
 20
0.0
 30
0.0
  9
$PUCSXDIR
 10
1.0
 20
0.0
 30
0.0
  9
$PUCSYDIR
 10
0.0
 20
1.0
 30
0.0
  9
$USERI1
 70
     0
  9
$USERI2
 70
     0
  9
$USERI3
 70
     0
  9
$USERI4
 70
     0
  9
$USERI5
 70
     0
  9
$USERR1
 40
0.0
  9
$USERR2
 40
0.0
  9
$USERR3
 40
0.0
  9
$USERR4
 40
0.0
  9
$USERR5
 40
0.0
  9
$WORLDVIEW
 70
     1
  9
$SHADEDGE
 70
     3
  9
$SHADEDIF
 70
    70
  9
$TILEMODE
 70
     1
  9
$MAXACTVP
 70
    64
  9
$PINSBASE
 10
0.0
 20
0.0
 30
0.0
  9
$PLIMCHECK
 70
     0
  9
$PEXTMIN
 10
1.000000000000000E+20
 20
1.000000000000000E+20
 30
1.000000000000000E+20
  9
$PEXTMAX
 10
-1.000000000000000E+20
 20
-1.000000000000000E+20
 30
-1.000000000000000E+20
  9
$PLIMMIN
 10
0.0
 20
0.0
  9
$PLIMMAX
 10
12.0
 20
9.0
  9
$UNITMODE
 70
     0
  9
$VISRETAIN
 70
     1
  9
$PLINEGEN
 70
     0
  9
$PSLTSCALE
 70
     1
  9
$TREEDEPTH
 70
  3020
  9
$PICKSTYLE
 70
     1
  9
$CMLSTYLE
  2
STANDARD
  9
$CMLJUST
 70
     0
  9
$CMLSCALE
 40
1.0
  9
$PROXYGRAPHICS
 70
     1
  9
$MEASUREMENT
 70
     0
  0
ENDSEC
  0
SECTION
  2
CLASSES
  0
CLASS
  1
ACDBDICTIONARYWDFLT
  2
AcDbDictionaryWithDefault
  3
AutoCAD 2000
 90
        0
280
     0
281
     0
  0
CLASS
  1
ACDBPLACEHOLDER
  2
AcDbPlaceHolder
  3
AutoCAD 2000
 90
        0
280
     0
281
     0
  0
CLASS
  1
LAYOUT
  2
AcDbLayout
  3
AutoCAD 2000
 90
        0
280
     0
281
     0
  0
CLASS
  1
DICTIONARYVAR
  2
AcDbDictionaryVar
  3
AutoCAD 2000
 90
        0
280
     0
281
     0
  0
CLASS
  1
LONG_TRANSACTION
  2
AcDbLongTransaction
  3
AutoCAD 2000
 90
        0
280
     0
281
     0
  0
CLASS
  1
LWPOLYLINE
  2
AcDbPolyline
  3
AutoCAD 2000
 90
        0
280
     0
281
     1
  0
CLASS
  1
HATCH
  2
AcDbHatch
  3
AutoCAD 2000
 90
        0
280
     0
281
     1
  0
CLASS
  1
XRECORD
  2
AcDbXrecord
  3
AutoCAD 2000
 90
        0
280
     0
281
     0
  0
ENDSEC
  0
SECTION
  2
TABLES
  0
TABLE
  2
VPORT
  5
8
330
0
100
AcDbSymbolTable
 70
     2
  0
VPORT
  5
50C
330
8
100
AcDbSymbolTableRecord
100
AcDbViewportTableRecord
  2
*ACTIVE
 70
     0
 10
0.0
 20
0.0
 11
1.0
 21
1.0
 12
160.0
 22
88.0
 13
0.0
 23
0.0
 14
1.0
 24
1.0
 15
0.0
 25
0.0
 16
0.0
 26
0.0
 36
1.0
 17
0.0
 27
0.0
 37
0.0
 40
177.3503332480818
 41
2.043533930857874
 42
50.0
 43
0.0
 44
0.0
 50
0.0
 51
0.0
 71
     0
 72
   100
 73
     1
 74
     3
 75
     0
 76
     0
 77
     0
 78
     0
  0
ENDTAB
  0
TABLE
  2
LTYPE
  5
5
330
0
100
AcDbSymbolTable
 70
     1
  0
LTYPE
  5
13
330
5
100
AcDbSymbolTableRecord
100
AcDbLinetypeTableRecord
  2
BYBLOCK
 70
     0
  3

 72
    65
 73
     0
 40
0.0
  0
LTYPE
  5
14
330
5
100
AcDbSymbolTableRecord
100
AcDbLinetypeTableRecord
  2
BYLAYER
 70
     0
  3

 72
    65
 73
     0
 40
0.0
  0
LTYPE
  5
15
330
5
100
AcDbSymbolTableRecord
100
AcDbLinetypeTableRecord
  2
CONTINUOUS
 70
     0
  3
Solid line
 72
    65
 73
     0
 40
0.0
  0
ENDTAB
  0
TABLE
  2
LAYER
  5
2
330
0
100
AcDbSymbolTable
 70
     1
  0
LAYER
  5
10
330
2
100
AcDbSymbolTableRecord
100
AcDbLayerTableRecord
  2
0
 70
     0
 62
     7
  6
CONTINUOUS
  0
ENDTAB
  0
TABLE
  2
STYLE
  5
3
330
0
100
AcDbSymbolTable
 70
     1
  0
STYLE
  5
11
330
3
100
AcDbSymbolTableRecord
100
AcDbTextStyleTableRecord
  2
STANDARD
 70
     0
 40
0.0
 41
1.0
 50
0.0
 71
     0
 42
0.2
  3
txt
  4

  0
ENDTAB
  0
TABLE
  2
VIEW
  5
6
330
0
100
AcDbSymbolTable
 70
     0
  0
ENDTAB
  0
TABLE
  2
UCS
  5
7
330
0
100
AcDbSymbolTable
 70
     0
  0
ENDTAB
  0
TABLE
  2
APPID
  5
9
330
0
100
AcDbSymbolTable
 70
     1
  0
APPID
  5
12
330
9
100
AcDbSymbolTableRecord
100
AcDbRegAppTableRecord
  2
ACAD
 70
     0
  0
ENDTAB
  0
TABLE
  2
DIMSTYLE
  5
A
330
0
100
AcDbSymbolTable
 70
     1
  0
DIMSTYLE
105
3BA
330
A
100
AcDbSymbolTableRecord
100
AcDbDimStyleTableRecord
  2
STANDARD
 70
     0
  3

  4

  5

  6

  7

 40
1.0
 41
0.18
 42
0.0625
 43
0.38
 44
0.18
 45
0.0
 46
0.0
 47
0.0
 48
0.0
140
0.18
141
0.09
142
0.0
143
25.4
144
1.0
145
0.0
146
1.0
147
0.09
 71
     0
 72
     0
 73
     1
 74
     1
 75
     0
 76
     0
 77
     0
 78
     0
170
     0
171
     2
172
     0
173
     0
174
     0
175
     0
176
     0
177
     0
178
     0
270
     2
271
     4
272
     4
273
     2
274
     2
340
11
275
     0
280
     0
281
     0
282
     0
283
     1
284
     0
285
     0
286
     0
287
     3
288
     0
  0
ENDTAB
  0
TABLE
  2
BLOCK_RECORD
  5
1
330
0
100
AcDbSymbolTable
 70
     0
  0
BLOCK_RECORD
  5
1E
102
{ACAD_XDICTIONARY
360
52F
102
}
330
1
100
AcDbSymbolTableRecord
100
AcDbBlockTableRecord
  2
*MODEL_SPACE
  0
BLOCK_RECORD
  5
1A
102
{ACAD_XDICTIONARY
360
52D
102
}
330
1
100
AcDbSymbolTableRecord
100
AcDbBlockTableRecord
  2
*PAPER_SPACE
  0
ENDTAB
  0
ENDSEC
  0
SECTION
  2
BLOCKS
  0
BLOCK
  5
1F
330
1E
100
AcDbEntity
  8
0
100
AcDbBlockBegin
  2
*MODEL_SPACE
 70
     0
 10
0.0
 20
0.0
 30
0.0
  3
*MODEL_SPACE
  1

  0
ENDBLK
  5
20
330
1E
100
AcDbEntity
  8
0
100
AcDbBlockEnd
  0
BLOCK
  5
1B
330
1A
100
AcDbEntity
 67
     1
  8
0
100
AcDbBlockBegin
  2
*PAPER_SPACE
 70
     0
 10
0.0
 20
0.0
 30
0.0
  3
*PAPER_SPACE
  1

  0
ENDBLK
  5
1C
330
1A
100
AcDbEntity
 67
     1
  8
0
100
AcDbBlockEnd
  0
ENDSEC
  0
SECTION
  2
ENTITIES
  0
LINE
  5
22
330
1E
100
AcDbEntity
  8
0
100
AcDbLine
 10
-0.0000000000000089
 20
126.9999749999999
 30
0.0
 11
0.299999999999991
 21
127.299975
 31
0.0
  0
LINE
  5
23
330
1E
100
AcDbEntity
  8
0
100
AcDbLine
 10
-0.0000000000000089
 20
126.9999749999999
 30
0.0
 11
-0.0000000000000089
 21
125.499975
 31
0.0
  0
LINE
  5
24
330
1E
100
AcDbEntity
  8
0
100
AcDbLine
 10
0.8999999999999909
 20
124.999975
 30
0.0
 11
1.799999999999988
 21
124.999975
 31
0.0
  0
LINE
  5
25
330
1E
100
AcDbEntity
  8
0
100
AcDbLine
 10
0.4999999999999912
 20
124.999975
 30
0.0
 11
0.8999999999999909
 21
124.999975
 31
0.0
  0
LINE
  5
26
330
1E
100
AcDbEntity
  8
0
100
AcDbLine
 10
1.799999999999988
 20
124.999975
 30
0.0
 11
3.39999999999999
 21
124.999975
 31
0.0
  0
LINE
  5
27
330
1E
100
AcDbEntity
  8
0
100
AcDbLine
 10
0.199999999999991
 20
125.1999749999999
 30
0.0
 11
0.4999999999999912
 21
124.999975
 31
0.0
  0
LINE
  5
28
330
1E
100
AcDbEntity
  8
0
100
AcDbLine
 10
7.89999999999999
 20
124.999975
 30
0.0
 11
10.5
 21
124.999975
 31
0.0
  0
LINE
  5
29
330
1E
100
AcDbEntity
  8
0
100
AcDbLine
 10
5.49999999999999
 20
124.999975
 30
0.0
 11
7.89999999999999
 21
124.999975
 31
0.0
  0
LINE
  5
2A
330
1E
100
AcDbEntity
  8
0
100
AcDbLine
 10
10.5
 20
124.999975
 30
0.0
 11
60.0
 21
124.999975
 31
0.0
  0
LINE
  5
2B
330
1E
100
AcDbEntity
  8
0
100
AcDbLine
 10
10.5
 20
124.999975
 30
0.0
 11
60.0
 21
124.999975
 31
0.0
  0
LINE
  5
2C
330
1E
100
AcDbEntity
  8
0
100
AcDbLine
 10
3.39999999999999
 20
124.999975
 30
0.0
 11
5.49999999999999
 21
124.999975
 31
0.0
  0
LINE
  5
33
330
1E
100
AcDbEntity
  8
0
100
AcDbLine
 10
-0.0000000000000089
 20
125.499975
 30
0.0
 11
-0.0000000000000089
 21
126.9999749999999
 31
0.0
  0
LINE
  5
34
330
1E
100
AcDbEntity
  8
0
100
AcDbLine
 10
-0.0000000000000089
 20
125.499975
 30
0.0
 11
0.199999999999991
 21
125.1999749999999
 31
0.0
  0
LINE
  5
35
330
1E
100
AcDbEntity
  8
0
100
AcDbLine
 10
0.299999999999991
 20
127.299975
 30
0.0
 11
1.399999999999989
 21
127.5999749999999
 31
0.0
  0
LINE
  5
36
330
1E
100
AcDbEntity
  8
0
100
AcDbLine
 10
10.5
 20
128.2999749999999
 30
0.0
 11
39.8
 21
129.999975
 31
0.0
  0
LINE
  5
37
330
1E
100
AcDbEntity
  8
0
100
AcDbLine
 10
30.0
 20
169.999975
 30
0.0
 11
30.0
 21
175.999975
 31
0.0
  0
LINE
  5
38
330
1E
100
AcDbEntity
  8
0
100
AcDbLine
 10
30.0
 20
169.999975
 30
0.0
 11
30.3
 21
169.299975
 31
0.0
  0
LINE
  5
39
330
1E
100
AcDbEntity
  8
0
100
AcDbLine
 10
10.5
 20
128.2999749999999
 30
0.0
 11
39.8
 21
129.999975
 31
0.0
  0
LINE
  5
3A
330
1E
100
AcDbEntity
  8
0
100
AcDbLine
 10
7.83504999999999
 20
128.149975
 30
0.0
 11
10.5
 21
128.2999749999999
 31
0.0
  0
LINE
  5
3B
330
1E
100
AcDbEntity
  8
0
100
AcDbLine
 10
5.32223999999999
 20
127.984975
 30
0.0
 11
7.83504999999999
 21
128.149975
 31
0.0
  0
LINE
  5
3C
330
1E
100
AcDbEntity
  8
0
100
AcDbLine
 10
2.99999999999999
 20
127.7999749999999
 30
0.0
 11
5.32223999999999
 21
127.984975
 31
0.0
  0
LINE
  5
3D
330
1E
100
AcDbEntity
  8
0
100
AcDbLine
 10
1.399999999999989
 20
127.5999749999999
 30
0.0
 11
2.99999999999999
 21
127.7999749999999
 31
0.0
  0
LINE
  5
3F
330
1E
100
AcDbEntity
  8
0
100
AcDbLine
 10
0.299999999999991
 20
127.299975
 30
0.0
 11
1.399999999999989
 21
127.5999749999999
 31
0.0
  0
LINE
  5
42
330
1E
100
AcDbEntity
  8
0
100
AcDbLine
 10
30.3
 20
169.299975
 30
0.0
 11
31.0
 21
168.999975
 31
0.0
  0
LINE
  5
43
330
1E
100
AcDbEntity
  8
0
100
AcDbLine
 10
31.0
 20
168.999975
 30
0.0
 11
31.2
 21
168.999975
 31
0.0
  0
LINE
  5
44
330
1E
100
AcDbEntity
  8
0
100
AcDbLine
 10
31.69999999999999
 20
168.999975
 30
0.0
 11
32.5
 21
168.999975
 31
0.0
  0
LINE
  5
45
330
1E
100
AcDbEntity
  8
0
100
AcDbLine
 10
31.2
 20
168.999975
 30
0.0
 11
31.69999999999999
 21
168.999975
 31
0.0
  0
LINE
  5
46
330
1E
100
AcDbEntity
  8
0
100
AcDbLine
 10
31.1
 20
169.299975
 30
0.0
 11
32.0
 21
169.299975
 31
0.0
  0
LINE
  5
47
330
1E
100
AcDbEntity
  8
0
100
AcDbLine
 10
30.5
 20
169.299975
 30
0.0
 11
31.1
 21
169.299975
 31
0.0
  0
LINE
  5
48
330
1E
100
AcDbEntity
  8
0
100
AcDbLine
 10
30.3
 20
169.299975
 30
0.0
 11
30.5
 21
169.299975
 31
0.0
  0
LINE
  5
49
330
1E
100
AcDbEntity
  8
0
100
AcDbLine
 10
30.8
 20
175.999975
 30
0.0
 11
31.8
 21
175.999975
 31
0.0
  0
LINE
  5
4A
330
1E
100
AcDbEntity
  8
0
100
AcDbLine
 10
30.2
 20
175.999975
 30
0.0
 11
30.8
 21
175.999975
 31
0.0
  0
LINE
  5
4B
330
1E
100
AcDbEntity
  8
0
100
AcDbLine
 10
30.0
 20
175.999975
 30
0.0
 11
30.2
 21
175.999975
 31
0.0
  0
LINE
  5
4C
330
1E
100
AcDbEntity
  8
0
100
AcDbLine
 10
30.0
 20
175.999975
 30
0.0
 11
30.0
 21
169.999975
 31
0.0
  0
LINE
  5
4D
330
1E
100
AcDbEntity
  8
0
100
AcDbLine
 10
32.5
 20
168.999975
 30
0.0
 11
33.5
 21
168.999975
 31
0.0
  0
LINE
  5
4E
330
1E
100
AcDbEntity
  8
0
100
AcDbLine
 10
33.0
 20
168.999975
 30
0.0
 11
35.7
 21
168.999975
 31
0.0
  0
LINE
  5
4F
330
1E
100
AcDbEntity
  8
0
100
AcDbLine
 10
32.0
 20
168.999975
 30
0.0
 11
33.0
 21
168.999975
 31
0.0
  0
LINE
  5
50
330
1E
100
AcDbEntity
  8
0
100
AcDbLine
 10
32.0
 20
169.299975
 30
0.0
 11
33.2
 21
169.299975
 31
0.0
  0
LINE
  5
51
330
1E
100
AcDbEntity
  8
0
100
AcDbLine
 10
33.5
 20
168.999975
 30
0.0
 11
34.7
 21
168.999975
 31
0.0
  0
LINE
  5
52
330
1E
100
AcDbEntity
  8
0
100
AcDbLine
 10
34.39999999999999
 20
168.999975
 30
0.0
 11
37.0
 21
168.999975
 31
0.0
  0
LINE
  5
53
330
1E
100
AcDbEntity
  8
0
100
AcDbLine
 10
33.39999999999999
 20
168.999975
 30
0.0
 11
34.39999999999999
 21
168.999975
 31
0.0
  0
LINE
  5
54
330
1E
100
AcDbEntity
  8
0
100
AcDbLine
 10
33.2
 20
169.299975
 30
0.0
 11
34.5
 21
169.299975
 31
0.0
  0
LINE
  5
55
330
1E
100
AcDbEntity
  8
0
100
AcDbLine
 10
34.5
 20
169.299975
 30
0.0
 11
36.0
 21
169.299975
 31
0.0
  0
LINE
  5
56
330
1E
100
AcDbEntity
  8
0
100
AcDbLine
 10
31.8
 20
175.999975
 30
0.0
 11
33.0
 21
175.999975
 31
0.0
  0
LINE
  5
57
330
1E
100
AcDbEntity
  8
0
100
AcDbLine
 10
33.0
 20
175.999975
 30
0.0
 11
34.5
 21
175.999975
 31
0.0
  0
LINE
  5
58
330
1E
100
AcDbEntity
  8
0
100
AcDbLine
 10
34.7
 20
168.999975
 30
0.0
 11
36.0
 21
168.999975
 31
0.0
  0
LINE
  5
5A
330
1E
100
AcDbEntity
  8
0
100
AcDbLine
 10
36.0
 20
168.999975
 30
0.0
 11
46.5
 21
168.999975
 31
0.0
  0
LINE
  5
5B
330
1E
100
AcDbEntity
  8
0
100
AcDbLine
 10
37.0
 20
168.999975
 30
0.0
 11
41.2
 21
168.999975
 31
0.0
  0
LINE
  5
5C
330
1E
100
AcDbEntity
  8
0
100
AcDbLine
 10
39.8
 20
129.999975
 30
0.0
 11
42.2
 21
130.399975
 31
0.0
  0
LINE
  5
5D
330
1E
100
AcDbEntity
  8
0
100
AcDbLine
 10
41.2
 20
168.999975
 30
0.0
 11
46.5
 21
168.999975
 31
0.0
  0
LINE
  5
5E
330
1E
100
AcDbEntity
  8
0
100
AcDbLine
 10
44.59999999999999
 20
131.2999749999999
 30
0.0
 11
46.7
 21
132.999975
 31
0.0
  0
LINE
  5
5F
330
1E
100
AcDbEntity
  8
0
100
AcDbLine
 10
42.2
 20
130.399975
 30
0.0
 11
44.59999999999999
 21
131.2999749999999
 31
0.0
  0
LINE
  5
62
330
1E
100
AcDbEntity
  8
0
100
AcDbLine
 10
40.2
 20
168.999975
 30
0.0
 11
46.1
 21
168.999975
 31
0.0
  0
LINE
  5
63
330
1E
100
AcDbEntity
  8
0
100
AcDbLine
 10
45.89999999999998
 20
168.999975
 30
0.0
 11
46.5
 21
168.999975
 31
0.0
  0
LINE
  5
64
330
1E
100
AcDbEntity
  8
0
100
AcDbLine
 10
45.4
 20
168.999975
 30
0.0
 11
45.89999999999998
 21
168.999975
 31
0.0
  0
LINE
  5
65
330
1E
100
AcDbEntity
  8
0
100
AcDbLine
 10
47.8
 20
168.599975
 30
0.0
 11
48.79999999999999
 21
167.7999749999998
 31
0.0
  0
LINE
  5
66
330
1E
100
AcDbEntity
  8
0
100
AcDbLine
 10
46.5
 20
168.999975
 30
0.0
 11
47.8
 21
168.599975
 31
0.0
  0
LINE
  5
67
330
1E
100
AcDbEntity
  8
0
100
AcDbLine
 10
48.2
 20
135.0999749999999
 30
0.0
 11
49.0
 21
137.0999749999999
 31
0.0
  0
LINE
  5
68
330
1E
100
AcDbEntity
  8
0
100
AcDbLine
 10
46.7
 20
132.999975
 30
0.0
 11
48.2
 21
135.0999749999999
 31
0.0
  0
LINE
  5
69
330
1E
100
AcDbEntity
  8
0
100
AcDbLine
 10
49.29999999999999
 20
166.7999749999999
 30
0.0
 11
49.5
 21
165.999975
 31
0.0
  0
LINE
  5
6A
330
1E
100
AcDbEntity
  8
0
100
AcDbLine
 10
48.79999999999999
 20
167.7999749999998
 30
0.0
 11
49.29999999999999
 21
166.7999749999999
 31
0.0
  0
LINE
  5
6B
330
1E
100
AcDbEntity
  8
0
100
AcDbLine
 10
49.5
 20
139.999975
 30
0.0
 11
49.5
 21
162.999975
 31
0.0
  0
LINE
  5
6C
330
1E
100
AcDbEntity
  8
0
100
AcDbLine
 10
49.5
 20
162.999975
 30
0.0
 11
49.7
 21
163.399975
 31
0.0
  0
LINE
  5
6D
330
1E
100
AcDbEntity
  8
0
100
AcDbLine
 10
49.5
 20
162.999975
 30
0.0
 11
49.5
 21
139.999975
 31
0.0
  0
LINE
  5
6E
330
1E
100
AcDbEntity
  8
0
100
AcDbLine
 10
49.7
 20
163.599975
 30
0.0
 11
50.1
 21
163.599975
 31
0.0
  0
LINE
  5
6F
330
1E
100
AcDbEntity
  8
0
100
AcDbLine
 10
49.7
 20
163.599975
 30
0.0
 11
49.7
 21
164.899975
 31
0.0
  0
LINE
  5
70
330
1E
100
AcDbEntity
  8
0
100
AcDbLine
 10
49.7
 20
163.599975
 30
0.0
 11
50.0
 21
163.599975
 31
0.0
  0
LINE
  5
71
330
1E
100
AcDbEntity
  8
0
100
AcDbLine
 10
49.7
 20
164.899975
 30
0.0
 11
50.1
 21
164.899975
 31
0.0
  0
LINE
  5
72
330
1E
100
AcDbEntity
  8
0
100
AcDbLine
 10
49.7
 20
164.899975
 30
0.0
 11
49.7
 21
163.599975
 31
0.0
  0
LINE
  5
73
330
1E
100
AcDbEntity
  8
0
100
AcDbLine
 10
49.7
 20
163.399975
 30
0.0
 11
50.0
 21
163.599975
 31
0.0
  0
LINE
  5
74
330
1E
100
AcDbEntity
  8
0
100
AcDbLine
 10
50.1
 20
163.599975
 30
0.0
 11
51.1
 21
163.599975
 31
0.0
  0
LINE
  5
75
330
1E
100
AcDbEntity
  8
0
100
AcDbLine
 10
52.7
 20
163.599975
 30
0.0
 11
54.9
 21
163.599975
 31
0.0
  0
LINE
  5
76
330
1E
100
AcDbEntity
  8
0
100
AcDbLine
 10
51.1
 20
163.599975
 30
0.0
 11
52.7
 21
163.599975
 31
0.0
  0
LINE
  5
77
330
1E
100
AcDbEntity
  8
0
100
AcDbLine
 10
51.29999999999999
 20
163.599975
 30
0.0
 11
52.9
 21
163.599975
 31
0.0
  0
LINE
  5
78
330
1E
100
AcDbEntity
  8
0
100
AcDbLine
 10
50.4
 20
163.599975
 30
0.0
 11
51.29999999999999
 21
163.599975
 31
0.0
  0
LINE
  5
79
330
1E
100
AcDbEntity
  8
0
100
AcDbLine
 10
52.7
 20
164.899975
 30
0.0
 11
54.9
 21
164.899975
 31
0.0
  0
LINE
  5
7A
330
1E
100
AcDbEntity
  8
0
100
AcDbLine
 10
51.1
 20
164.899975
 30
0.0
 11
52.7
 21
164.899975
 31
0.0
  0
LINE
  5
7B
330
1E
100
AcDbEntity
  8
0
100
AcDbLine
 10
50.1
 20
164.899975
 30
0.0
 11
51.1
 21
164.899975
 31
0.0
  0
LINE
  5
7C
330
1E
100
AcDbEntity
  8
0
100
AcDbLine
 10
50.0
 20
163.599975
 30
0.0
 11
50.4
 21
163.599975
 31
0.0
  0
LINE
  5
7D
330
1E
100
AcDbEntity
  8
0
100
AcDbLine
 10
49.7
 20
165.0999749999999
 30
0.0
 11
50.0
 21
164.899975
 31
0.0
  0
LINE
  5
7E
330
1E
100
AcDbEntity
  8
0
100
AcDbLine
 10
49.5
 20
165.999975
 30
0.0
 11
49.5
 21
165.4999749999998
 31
0.0
  0
LINE
  5
7F
330
1E
100
AcDbEntity
  8
0
100
AcDbLine
 10
49.5
 20
165.4999749999998
 30
0.0
 11
49.7
 21
165.0999749999999
 31
0.0
  0
LINE
  5
80
330
1E
100
AcDbEntity
  8
0
100
AcDbLine
 10
49.5
 20
165.4999749999998
 30
0.0
 11
49.5
 21
165.999975
 31
0.0
  0
LINE
  5
81
330
1E
100
AcDbEntity
  8
0
100
AcDbLine
 10
49.4
 20
138.999975
 30
0.0
 11
49.5
 21
139.999975
 31
0.0
  0
LINE
  5
82
330
1E
100
AcDbEntity
  8
0
100
AcDbLine
 10
49.0
 20
137.0999749999999
 30
0.0
 11
49.4
 21
138.999975
 31
0.0
  0
LINE
  5
83
330
1E
100
AcDbEntity
  8
0
100
AcDbLine
 10
48.7
 20
168.999975
 30
0.0
 11
52.0
 21
168.999975
 31
0.0
  0
LINE
  5
84
330
1E
100
AcDbEntity
  8
0
100
AcDbLine
 10
52.0
 20
168.999975
 30
0.0
 11
55.89999999999999
 21
168.999975
 31
0.0
  0
LINE
  5
85
330
1E
100
AcDbEntity
  8
0
100
AcDbLine
 10
60.0
 20
124.999975
 30
0.0
 11
62.6
 21
124.999975
 31
0.0
  0
LINE
  5
86
330
1E
100
AcDbEntity
  8
0
100
AcDbLine
 10
62.6
 20
124.999975
 30
0.0
 11
65.0
 21
124.999975
 31
0.0
  0
LINE
  5
87
330
1E
100
AcDbEntity
  8
0
100
AcDbLine
 10
65.0
 20
124.999975
 30
0.0
 11
67.09999999999999
 21
124.999975
 31
0.0
  0
LINE
  5
88
330
1E
100
AcDbEntity
  8
0
100
AcDbLine
 10
68.7
 20
124.999975
 30
0.0
 11
69.59999999999999
 21
124.999975
 31
0.0
  0
LINE
  5
89
330
1E
100
AcDbEntity
  8
0
100
AcDbLine
 10
69.59999999999999
 20
124.999975
 30
0.0
 11
70.0
 21
124.999975
 31
0.0
  0
LINE
  5
8A
330
1E
100
AcDbEntity
  8
0
100
AcDbLine
 10
67.09999999999999
 20
124.999975
 30
0.0
 11
68.7
 21
124.999975
 31
0.0
  0
LINE
  5
8B
330
1E
100
AcDbEntity
  8
0
100
AcDbLine
 10
70.0
 20
124.999975
 30
0.0
 11
70.3
 21
125.1999749999999
 31
0.0
  0
LINE
  5
8C
330
1E
100
AcDbEntity
  8
0
100
AcDbLine
 10
70.5
 20
125.499975
 30
0.0
 11
70.5
 21
126.9999749999999
 31
0.0
  0
LINE
  5
8D
330
1E
100
AcDbEntity
  8
0
100
AcDbLine
 10
70.3
 20
125.1999749999999
 30
0.0
 11
70.5
 21
125.499975
 31
0.0
  0
LINE
  5
8F
330
1E
100
AcDbEntity
  8
0
100
AcDbLine
 10
54.9
 20
163.599975
 30
0.0
 11
57.4
 21
163.599975
 31
0.0
  0
LINE
  5
90
330
1E
100
AcDbEntity
  8
0
100
AcDbLine
 10
52.9
 20
163.599975
 30
0.0
 11
55.0
 21
163.599975
 31
0.0
  0
LINE
  5
91
330
1E
100
AcDbEntity
  8
0
100
AcDbLine
 10
65.09999999999999
 20
163.599975
 30
0.0
 11
67.3
 21
163.599975
 31
0.0
  0
LINE
  5
92
330
1E
100
AcDbEntity
  8
0
100
AcDbLine
 10
65.0
 20
163.599975
 30
0.0
 11
67.09999999999999
 21
163.599975
 31
0.0
  0
LINE
  5
93
330
1E
100
AcDbEntity
  8
0
100
AcDbLine
 10
62.6
 20
163.599975
 30
0.0
 11
65.0
 21
163.599975
 31
0.0
  0
LINE
  5
94
330
1E
100
AcDbEntity
  8
0
100
AcDbLine
 10
62.6
 20
163.599975
 30
0.0
 11
65.09999999999999
 21
163.599975
 31
0.0
  0
LINE
  5
95
330
1E
100
AcDbEntity
  8
0
100
AcDbLine
 10
60.0
 20
163.599975
 30
0.0
 11
62.6
 21
163.599975
 31
0.0
  0
LINE
  5
96
330
1E
100
AcDbEntity
  8
0
100
AcDbLine
 10
55.0
 20
163.599975
 30
0.0
 11
57.4
 21
163.599975
 31
0.0
  0
LINE
  5
97
330
1E
100
AcDbEntity
  8
0
100
AcDbLine
 10
57.4
 20
163.599975
 30
0.0
 11
60.0
 21
163.599975
 31
0.0
  0
LINE
  5
98
330
1E
100
AcDbEntity
  8
0
100
AcDbLine
 10
67.3
 20
163.599975
 30
0.0
 11
68.9
 21
163.599975
 31
0.0
  0
LINE
  5
99
330
1E
100
AcDbEntity
  8
0
100
AcDbLine
 10
68.9
 20
163.599975
 30
0.0
 11
69.90000000000001
 21
163.599975
 31
0.0
  0
LINE
  5
9A
330
1E
100
AcDbEntity
  8
0
100
AcDbLine
 10
67.09999999999999
 20
163.599975
 30
0.0
 11
68.7
 21
163.599975
 31
0.0
  0
LINE
  5
9B
330
1E
100
AcDbEntity
  8
0
100
AcDbLine
 10
60.0
 20
164.899975
 30
0.0
 11
62.6
 21
164.899975
 31
0.0
  0
LINE
  5
9C
330
1E
100
AcDbEntity
  8
0
100
AcDbLine
 10
62.6
 20
164.899975
 30
0.0
 11
65.09999999999999
 21
164.899975
 31
0.0
  0
LINE
  5
9D
330
1E
100
AcDbEntity
  8
0
100
AcDbLine
 10
65.09999999999999
 20
164.899975
 30
0.0
 11
67.3
 21
164.899975
 31
0.0
  0
LINE
  5
9E
330
1E
100
AcDbEntity
  8
0
100
AcDbLine
 10
67.3
 20
164.899975
 30
0.0
 11
68.9
 21
164.899975
 31
0.0
  0
LINE
  5
9F
330
1E
100
AcDbEntity
  8
0
100
AcDbLine
 10
68.9
 20
164.899975
 30
0.0
 11
69.90000000000001
 21
164.899975
 31
0.0
  0
LINE
  5
A0
330
1E
100
AcDbEntity
  8
0
100
AcDbLine
 10
57.4
 20
164.899975
 30
0.0
 11
60.0
 21
164.899975
 31
0.0
  0
LINE
  5
A1
330
1E
100
AcDbEntity
  8
0
100
AcDbLine
 10
54.9
 20
164.899975
 30
0.0
 11
57.4
 21
164.899975
 31
0.0
  0
LINE
  5
A2
330
1E
100
AcDbEntity
  8
0
100
AcDbLine
 10
68.7
 20
163.599975
 30
0.0
 11
69.59999999999999
 21
163.599975
 31
0.0
  0
LINE
  5
A3
330
1E
100
AcDbEntity
  8
0
100
AcDbLine
 10
69.90000000000001
 20
163.599975
 30
0.0
 11
70.3
 21
163.599975
 31
0.0
  0
LINE
  5
A4
330
1E
100
AcDbEntity
  8
0
100
AcDbLine
 10
70.3
 20
163.599975
 30
0.0
 11
70.3
 21
164.899975
 31
0.0
  0
LINE
  5
A5
330
1E
100
AcDbEntity
  8
0
100
AcDbLine
 10
70.3
 20
163.399975
 30
0.0
 11
70.5
 21
162.999975
 31
0.0
  0
LINE
  5
A6
330
1E
100
AcDbEntity
  8
0
100
AcDbLine
 10
70.3
 20
164.899975
 30
0.0
 11
70.3
 21
163.599975
 31
0.0
  0
LINE
  5
A7
330
1E
100
AcDbEntity
  8
0
100
AcDbLine
 10
69.90000000000001
 20
164.899975
 30
0.0
 11
70.3
 21
164.899975
 31
0.0
  0
LINE
  5
A8
330
1E
100
AcDbEntity
  8
0
100
AcDbLine
 10
70.0
 20
163.599975
 30
0.0
 11
70.3
 21
163.399975
 31
0.0
  0
LINE
  5
A9
330
1E
100
AcDbEntity
  8
0
100
AcDbLine
 10
70.0
 20
163.599975
 30
0.0
 11
70.3
 21
163.599975
 31
0.0
  0
LINE
  5
AA
330
1E
100
AcDbEntity
  8
0
100
AcDbLine
 10
69.59999999999999
 20
163.599975
 30
0.0
 11
70.0
 21
163.599975
 31
0.0
  0
LINE
  5
AB
330
1E
100
AcDbEntity
  8
0
100
AcDbLine
 10
64.1
 20
168.999975
 30
0.0
 11
68.0
 21
168.999975
 31
0.0
  0
LINE
  5
AC
330
1E
100
AcDbEntity
  8
0
100
AcDbLine
 10
60.0
 20
168.999975
 30
0.0
 11
67.2
 21
168.999975
 31
0.0
  0
LINE
  5
AD
330
1E
100
AcDbEntity
  8
0
100
AcDbLine
 10
60.0
 20
168.999975
 30
0.0
 11
64.1
 21
168.999975
 31
0.0
  0
LINE
  5
AE
330
1E
100
AcDbEntity
  8
0
100
AcDbLine
 10
68.0
 20
168.999975
 30
0.0
 11
71.29999999999999
 21
168.999975
 31
0.0
  0
LINE
  5
AF
330
1E
100
AcDbEntity
  8
0
100
AcDbLine
 10
67.2
 20
168.999975
 30
0.0
 11
73.9
 21
168.999975
 31
0.0
  0
LINE
  5
B0
330
1E
100
AcDbEntity
  8
0
100
AcDbLine
 10
70.0
 20
164.899975
 30
0.0
 11
70.3
 21
165.0999749999999
 31
0.0
  0
LINE
  5
B1
330
1E
100
AcDbEntity
  8
0
100
AcDbLine
 10
70.5
 20
165.4999749999998
 30
0.0
 11
70.5
 21
165.999975
 31
0.0
  0
LINE
  5
B2
330
1E
100
AcDbEntity
  8
0
100
AcDbLine
 10
70.5
 20
162.999975
 30
0.0
 11
70.5
 21
126.9999749999999
 31
0.0
  0
LINE
  5
B3
330
1E
100
AcDbEntity
  8
0
100
AcDbLine
 10
70.5
 20
165.999975
 30
0.0
 11
70.7
 21
166.7999749999999
 31
0.0
  0
LINE
  5
B4
330
1E
100
AcDbEntity
  8
0
100
AcDbLine
 10
70.5
 20
165.999975
 30
0.0
 11
70.5
 21
165.4999749999998
 31
0.0
  0
LINE
  5
B5
330
1E
100
AcDbEntity
  8
0
100
AcDbLine
 10
70.3
 20
165.0999749999999
 30
0.0
 11
70.5
 21
165.4999749999998
 31
0.0
  0
LINE
  5
B7
330
1E
100
AcDbEntity
  8
0
100
AcDbLine
 10
70.7
 20
166.7999749999999
 30
0.0
 11
71.2
 21
167.7999749999998
 31
0.0
  0
LINE
  5
B8
330
1E
100
AcDbEntity
  8
0
100
AcDbLine
 10
71.2
 20
167.7999749999998
 30
0.0
 11
72.2
 21
168.599975
 31
0.0
  0
LINE
  5
B9
330
1E
100
AcDbEntity
  8
0
100
AcDbLine
 10
73.5
 20
168.999975
 30
0.0
 11
84.0
 21
168.999975
 31
0.0
  0
LINE
  5
BA
330
1E
100
AcDbEntity
  8
0
100
AcDbLine
 10
73.5
 20
168.999975
 30
0.0
 11
74.1
 21
168.999975
 31
0.0
  0
LINE
  5
BB
330
1E
100
AcDbEntity
  8
0
100
AcDbLine
 10
73.5
 20
168.999975
 30
0.0
 11
78.79999999999999
 21
168.999975
 31
0.0
  0
LINE
  5
BC
330
1E
100
AcDbEntity
  8
0
100
AcDbLine
 10
71.29999999999999
 20
168.999975
 30
0.0
 11
73.9
 21
168.999975
 31
0.0
  0
LINE
  5
BD
330
1E
100
AcDbEntity
  8
0
100
AcDbLine
 10
74.1
 20
168.999975
 30
0.0
 11
74.59999999999998
 21
168.999975
 31
0.0
  0
LINE
  5
BE
330
1E
100
AcDbEntity
  8
0
100
AcDbLine
 10
78.79999999999999
 20
168.999975
 30
0.0
 11
83.0
 21
168.999975
 31
0.0
  0
LINE
  5
BF
330
1E
100
AcDbEntity
  8
0
100
AcDbLine
 10
73.9
 20
168.999975
 30
0.0
 11
75.4
 21
168.999975
 31
0.0
  0
LINE
  5
C0
330
1E
100
AcDbEntity
  8
0
100
AcDbLine
 10
73.9
 20
168.999975
 30
0.0
 11
79.8
 21
168.999975
 31
0.0
  0
LINE
  5
C1
330
1E
100
AcDbEntity
  8
0
100
AcDbLine
 10
75.4
 20
168.999975
 30
0.0
 11
76.0
 21
168.999975
 31
0.0
  0
LINE
  5
C2
330
1E
100
AcDbEntity
  8
0
100
AcDbLine
 10
83.0
 20
168.999975
 30
0.0
 11
85.6
 21
168.999975
 31
0.0
  0
LINE
  5
C3
330
1E
100
AcDbEntity
  8
0
100
AcDbLine
 10
84.0
 20
168.999975
 30
0.0
 11
85.29999999999999
 21
168.999975
 31
0.0
  0
LINE
  5
C4
330
1E
100
AcDbEntity
  8
0
100
AcDbLine
 10
85.6
 20
168.999975
 30
0.0
 11
86.6
 21
168.999975
 31
0.0
  0
LINE
  5
C5
330
1E
100
AcDbEntity
  8
0
100
AcDbLine
 10
85.29999999999999
 20
168.999975
 30
0.0
 11
86.5
 21
168.999975
 31
0.0
  0
LINE
  5
C6
330
1E
100
AcDbEntity
  8
0
100
AcDbLine
 10
86.5
 20
168.999975
 30
0.0
 11
87.5
 21
168.999975
 31
0.0
  0
LINE
  5
C7
330
1E
100
AcDbEntity
  8
0
100
AcDbLine
 10
79.8
 20
168.999975
 30
0.0
 11
84.29999999999997
 21
168.999975
 31
0.0
  0
LINE
  5
C8
330
1E
100
AcDbEntity
  8
0
100
AcDbLine
 10
84.29999999999997
 20
168.999975
 30
0.0
 11
87.0
 21
168.999975
 31
0.0
  0
LINE
  5
C9
330
1E
100
AcDbEntity
  8
0
100
AcDbLine
 10
87.5
 20
168.999975
 30
0.0
 11
88.3
 21
168.999975
 31
0.0
  0
LINE
  5
CA
330
1E
100
AcDbEntity
  8
0
100
AcDbLine
 10
88.3
 20
168.999975
 30
0.0
 11
88.8
 21
168.999975
 31
0.0
  0
LINE
  5
CB
330
1E
100
AcDbEntity
  8
0
100
AcDbLine
 10
131.6999999999999
 20
168.999975
 30
0.0
 11
132.4999999999999
 21
168.999975
 31
0.0
  0
LINE
  5
CC
330
1E
100
AcDbEntity
  8
0
100
AcDbLine
 10
131.1999999999999
 20
168.999975
 30
0.0
 11
131.6999999999999
 21
168.999975
 31
0.0
  0
LINE
  5
CD
330
1E
100
AcDbEntity
  8
0
100
AcDbLine
 10
132.4999999999999
 20
168.999975
 30
0.0
 11
133.4999999999999
 21
168.999975
 31
0.0
  0
LINE
  5
CE
330
1E
100
AcDbEntity
  8
0
100
AcDbLine
 10
131.0
 20
168.999975
 30
0.0
 11
131.1999999999999
 21
168.999975
 31
0.0
  0
LINE
  5
CF
330
1E
100
AcDbEntity
  8
0
100
AcDbLine
 10
133.4999999999999
 20
168.999975
 30
0.0
 11
134.6999999999999
 21
168.999975
 31
0.0
  0
LINE
  5
D0
330
1E
100
AcDbEntity
  8
0
100
AcDbLine
 10
134.6999999999999
 20
168.999975
 30
0.0
 11
136.0
 21
168.999975
 31
0.0
  0
LINE
  5
D1
330
1E
100
AcDbEntity
  8
0
100
AcDbLine
 10
136.0
 20
168.999975
 30
0.0
 11
146.5
 21
168.999975
 31
0.0
  0
LINE
  5
D2
330
1E
100
AcDbEntity
  8
0
100
AcDbLine
 10
137.0
 20
168.999975
 30
0.0
 11
141.1999999999999
 21
168.999975
 31
0.0
  0
LINE
  5
D3
330
1E
100
AcDbEntity
  8
0
100
AcDbLine
 10
134.4
 20
168.999975
 30
0.0
 11
137.0
 21
168.999975
 31
0.0
  0
LINE
  5
D4
330
1E
100
AcDbEntity
  8
0
100
AcDbLine
 10
133.4
 20
168.999975
 30
0.0
 11
134.4
 21
168.999975
 31
0.0
  0
LINE
  5
D5
330
1E
100
AcDbEntity
  8
0
100
AcDbLine
 10
141.1999999999999
 20
168.999975
 30
0.0
 11
146.5
 21
168.999975
 31
0.0
  0
LINE
  5
D6
330
1E
100
AcDbEntity
  8
0
100
AcDbLine
 10
140.1999999999999
 20
168.999975
 30
0.0
 11
146.1
 21
168.999975
 31
0.0
  0
LINE
  5
D7
330
1E
100
AcDbEntity
  8
0
100
AcDbLine
 10
145.9
 20
168.999975
 30
0.0
 11
146.5
 21
168.999975
 31
0.0
  0
LINE
  5
D8
330
1E
100
AcDbEntity
  8
0
100
AcDbLine
 10
145.4
 20
168.999975
 30
0.0
 11
145.9
 21
168.999975
 31
0.0
  0
LINE
  5
D9
330
1E
100
AcDbEntity
  8
0
100
AcDbLine
 10
146.1
 20
168.999975
 30
0.0
 11
148.6999999999999
 21
168.999975
 31
0.0
  0
LINE
  5
DA
330
1E
100
AcDbEntity
  8
0
100
AcDbLine
 10
146.1
 20
168.999975
 30
0.0
 11
152.8
 21
168.999975
 31
0.0
  0
LINE
  5
DB
330
1E
100
AcDbEntity
  8
0
100
AcDbLine
 10
144.5999999999999
 20
168.999975
 30
0.0
 11
146.1
 21
168.999975
 31
0.0
  0
LINE
  5
DC
330
1E
100
AcDbEntity
  8
0
100
AcDbLine
 10
144.0
 20
168.999975
 30
0.0
 11
144.5999999999999
 21
168.999975
 31
0.0
  0
LINE
  5
DD
330
1E
100
AcDbEntity
  8
0
100
AcDbLine
 10
135.6999999999999
 20
168.999975
 30
0.0
 11
140.1999999999999
 21
168.999975
 31
0.0
  0
LINE
  5
DE
330
1E
100
AcDbEntity
  8
0
100
AcDbLine
 10
133.0
 20
168.999975
 30
0.0
 11
135.6999999999999
 21
168.999975
 31
0.0
  0
LINE
  5
DF
330
1E
100
AcDbEntity
  8
0
100
AcDbLine
 10
132.0
 20
168.999975
 30
0.0
 11
133.0
 21
168.999975
 31
0.0
  0
LINE
  5
E0
330
1E
100
AcDbEntity
  8
0
100
AcDbLine
 10
88.8
 20
168.999975
 30
0.0
 11
89.0
 21
168.999975
 31
0.0
  0
LINE
  5
E1
330
1E
100
AcDbEntity
  8
0
100
AcDbLine
 10
89.0
 20
168.999975
 30
0.0
 11
89.7
 21
169.299975
 31
0.0
  0
LINE
  5
E2
330
1E
100
AcDbEntity
  8
0
100
AcDbLine
 10
87.0
 20
168.999975
 30
0.0
 11
88.0
 21
168.999975
 31
0.0
  0
LINE
  5
E3
330
1E
100
AcDbEntity
  8
0
100
AcDbLine
 10
72.2
 20
168.599975
 30
0.0
 11
73.5
 21
168.999975
 31
0.0
  0
LINE
  5
E4
330
1E
100
AcDbEntity
  8
0
100
AcDbLine
 10
70.5
 20
126.9999749999999
 30
0.0
 11
70.5
 21
125.499975
 31
0.0
  0
LINE
  5
E5
330
1E
100
AcDbEntity
  8
0
100
AcDbLine
 10
70.5
 20
126.9999749999999
 30
0.0
 11
70.5
 21
162.999975
 31
0.0
  0
LINE
  5
E6
330
1E
100
AcDbEntity
  8
0
100
AcDbLine
 10
55.89999999999999
 20
168.999975
 30
0.0
 11
60.0
 21
168.999975
 31
0.0
  0
LINE
  5
E7
330
1E
100
AcDbEntity
  8
0
100
AcDbLine
 10
52.8
 20
168.999975
 30
0.0
 11
60.0
 21
168.999975
 31
0.0
  0
LINE
  5
E8
330
1E
100
AcDbEntity
  8
0
100
AcDbLine
 10
46.1
 20
168.999975
 30
0.0
 11
48.7
 21
168.999975
 31
0.0
  0
LINE
  5
E9
330
1E
100
AcDbEntity
  8
0
100
AcDbLine
 10
46.1
 20
168.999975
 30
0.0
 11
52.8
 21
168.999975
 31
0.0
  0
LINE
  5
EA
330
1E
100
AcDbEntity
  8
0
100
AcDbLine
 10
44.59999999999999
 20
168.999975
 30
0.0
 11
46.1
 21
168.999975
 31
0.0
  0
LINE
  5
EB
330
1E
100
AcDbEntity
  8
0
100
AcDbLine
 10
88.0
 20
169.299975
 30
0.0
 11
88.9
 21
169.299975
 31
0.0
  0
LINE
  5
EC
330
1E
100
AcDbEntity
  8
0
100
AcDbLine
 10
88.9
 20
169.299975
 30
0.0
 11
89.50000000000001
 21
169.299975
 31
0.0
  0
LINE
  5
ED
330
1E
100
AcDbEntity
  8
0
100
AcDbLine
 10
131.0999999999999
 20
169.299975
 30
0.0
 11
132.0
 21
169.299975
 31
0.0
  0
LINE
  5
EE
330
1E
100
AcDbEntity
  8
0
100
AcDbLine
 10
130.4999999999999
 20
169.299975
 30
0.0
 11
131.0999999999999
 21
169.299975
 31
0.0
  0
LINE
  5
EF
330
1E
100
AcDbEntity
  8
0
100
AcDbLine
 10
130.3
 20
169.299975
 30
0.0
 11
130.4999999999999
 21
169.299975
 31
0.0
  0
LINE
  5
F0
330
1E
100
AcDbEntity
  8
0
100
AcDbLine
 10
130.3
 20
169.299975
 30
0.0
 11
131.0
 21
168.999975
 31
0.0
  0
LINE
  5
F1
330
1E
100
AcDbEntity
  8
0
100
AcDbLine
 10
132.0
 20
169.299975
 30
0.0
 11
133.1999999999998
 21
169.299975
 31
0.0
  0
LINE
  5
F2
330
1E
100
AcDbEntity
  8
0
100
AcDbLine
 10
133.1999999999998
 20
169.299975
 30
0.0
 11
134.4999999999999
 21
169.299975
 31
0.0
  0
LINE
  5
F3
330
1E
100
AcDbEntity
  8
0
100
AcDbLine
 10
134.4999999999999
 20
169.299975
 30
0.0
 11
136.0
 21
169.299975
 31
0.0
  0
LINE
  5
F4
330
1E
100
AcDbEntity
  8
0
100
AcDbLine
 10
136.0
 20
169.299975
 30
0.0
 11
160.0
 21
169.299975
 31
0.0
  0
LINE
  5
F5
330
1E
100
AcDbEntity
  8
0
100
AcDbLine
 10
89.50000000000001
 20
169.299975
 30
0.0
 11
89.7
 21
169.299975
 31
0.0
  0
LINE
  5
F6
330
1E
100
AcDbEntity
  8
0
100
AcDbLine
 10
86.79999999999997
 20
169.299975
 30
0.0
 11
88.0
 21
169.299975
 31
0.0
  0
LINE
  5
F7
330
1E
100
AcDbEntity
  8
0
100
AcDbLine
 10
85.5
 20
169.299975
 30
0.0
 11
86.79999999999997
 21
169.299975
 31
0.0
  0
LINE
  5
F8
330
1E
100
AcDbEntity
  8
0
100
AcDbLine
 10
84.0
 20
169.299975
 30
0.0
 11
85.5
 21
169.299975
 31
0.0
  0
LINE
  5
F9
330
1E
100
AcDbEntity
  8
0
100
AcDbLine
 10
60.0
 20
169.299975
 30
0.0
 11
84.0
 21
169.299975
 31
0.0
  0
LINE
  5
FA
330
1E
100
AcDbEntity
  8
0
100
AcDbLine
 10
44.0
 20
168.999975
 30
0.0
 11
44.59999999999999
 21
168.999975
 31
0.0
  0
LINE
  5
FB
330
1E
100
AcDbEntity
  8
0
100
AcDbLine
 10
35.7
 20
168.999975
 30
0.0
 11
40.2
 21
168.999975
 31
0.0
  0
LINE
  5
FE
330
1E
100
AcDbEntity
  8
0
100
AcDbLine
 10
88.2
 20
175.999975
 30
0.0
 11
89.19999999999998
 21
175.999975
 31
0.0
  0
LINE
  5
FF
330
1E
100
AcDbEntity
  8
0
100
AcDbLine
 10
89.19999999999998
 20
175.999975
 30
0.0
 11
89.8
 21
175.999975
 31
0.0
  0
LINE
  5
100
330
1E
100
AcDbEntity
  8
0
100
AcDbLine
 10
130.0
 20
169.999975
 30
0.0
 11
130.0
 21
175.999975
 31
0.0
  0
LINE
  5
101
330
1E
100
AcDbEntity
  8
0
100
AcDbLine
 10
130.0
 20
169.999975
 30
0.0
 11
130.3
 21
169.299975
 31
0.0
  0
LINE
  5
102
330
1E
100
AcDbEntity
  8
0
100
AcDbLine
 10
130.8
 20
175.999975
 30
0.0
 11
131.8
 21
175.999975
 31
0.0
  0
LINE
  5
103
330
1E
100
AcDbEntity
  8
0
100
AcDbLine
 10
130.1999999999999
 20
175.999975
 30
0.0
 11
130.8
 21
175.999975
 31
0.0
  0
LINE
  5
104
330
1E
100
AcDbEntity
  8
0
100
AcDbLine
 10
130.0
 20
175.999975
 30
0.0
 11
130.1999999999999
 21
175.999975
 31
0.0
  0
LINE
  5
105
330
1E
100
AcDbEntity
  8
0
100
AcDbLine
 10
130.0
 20
175.999975
 30
0.0
 11
130.0
 21
169.999975
 31
0.0
  0
LINE
  5
106
330
1E
100
AcDbEntity
  8
0
100
AcDbLine
 10
131.8
 20
175.999975
 30
0.0
 11
133.0
 21
175.999975
 31
0.0
  0
LINE
  5
107
330
1E
100
AcDbEntity
  8
0
100
AcDbLine
 10
133.0
 20
175.999975
 30
0.0
 11
134.4999999999999
 21
175.999975
 31
0.0
  0
LINE
  5
108
330
1E
100
AcDbEntity
  8
0
100
AcDbLine
 10
134.4999999999999
 20
175.999975
 30
0.0
 11
136.0
 21
175.999975
 31
0.0
  0
LINE
  5
109
330
1E
100
AcDbEntity
  8
0
100
AcDbLine
 10
136.0
 20
175.999975
 30
0.0
 11
160.0
 21
175.999975
 31
0.0
  0
LINE
  5
10A
330
1E
100
AcDbEntity
  8
0
100
AcDbLine
 10
89.8
 20
175.999975
 30
0.0
 11
90.0
 21
175.999975
 31
0.0
  0
LINE
  5
10B
330
1E
100
AcDbEntity
  8
0
100
AcDbLine
 10
87.0
 20
175.999975
 30
0.0
 11
88.2
 21
175.999975
 31
0.0
  0
LINE
  5
10C
330
1E
100
AcDbEntity
  8
0
100
AcDbLine
 10
85.5
 20
175.999975
 30
0.0
 11
87.0
 21
175.999975
 31
0.0
  0
LINE
  5
10D
330
1E
100
AcDbEntity
  8
0
100
AcDbLine
 10
84.0
 20
175.999975
 30
0.0
 11
85.5
 21
175.999975
 31
0.0
  0
LINE
  5
10E
330
1E
100
AcDbEntity
  8
0
100
AcDbLine
 10
60.0
 20
175.999975
 30
0.0
 11
84.0
 21
175.999975
 31
0.0
  0
LINE
  5
10F
330
1E
100
AcDbEntity
  8
0
100
AcDbLine
 10
36.0
 20
169.299975
 30
0.0
 11
60.0
 21
169.299975
 31
0.0
  0
LINE
  5
110
330
1E
100
AcDbEntity
  8
0
100
AcDbLine
 10
34.5
 20
175.999975
 30
0.0
 11
36.0
 21
175.999975
 31
0.0
  0
LINE
  5
1C3
330
1E
100
AcDbEntity
  8
0
100
AcDbLine
 10
36.0
 20
175.999975
 30
0.0
 11
60.0
 21
175.999975
 31
0.0
  0
LINE
  5
1C4
330
1E
100
AcDbEntity
  8
0
100
AcDbLine
 10
149.5
 20
28.319275
 30
0.0
 11
149.5
 21
31.165475
 31
0.0
  0
LINE
  5
1C5
330
1E
100
AcDbEntity
  8
0
100
AcDbLine
 10
149.5
 20
28.319275
 30
0.0
 11
149.5
 21
25.921175
 31
0.0
  0
LINE
  5
1C6
330
1E
100
AcDbEntity
  8
0
100
AcDbLine
 10
149.5
 20
25.921175
 30
0.0
 11
149.5
 21
28.319275
 31
0.0
  0
LINE
  5
1C7
330
1E
100
AcDbEntity
  8
0
100
AcDbLine
 10
149.5
 20
25.921175
 30
0.0
 11
149.5
 21
24.011975
 31
0.0
  0
LINE
  5
1C8
330
1E
100
AcDbEntity
  8
0
100
AcDbLine
 10
149.5
 20
31.165475
 30
0.0
 11
149.5
 21
34.410875
 31
0.0
  0
LINE
  5
1C9
330
1E
100
AcDbEntity
  8
0
100
AcDbLine
 10
149.5
 20
31.165475
 30
0.0
 11
149.5
 21
28.319275
 31
0.0
  0
LINE
  5
1CA
330
1E
100
AcDbEntity
  8
0
100
AcDbLine
 10
149.5
 20
41.871375
 30
0.0
 11
149.5
 21
45.958975
 31
0.0
  0
LINE
  5
1CB
330
1E
100
AcDbEntity
  8
0
100
AcDbLine
 10
149.5
 20
41.871375
 30
0.0
 11
149.5
 21
37.99997499999999
 31
0.0
  0
LINE
  5
1CC
330
1E
100
AcDbEntity
  8
0
100
AcDbLine
 10
149.5
 20
45.958975
 30
0.0
 11
149.5
 21
50.192575
 31
0.0
  0
LINE
  5
1CD
330
1E
100
AcDbEntity
  8
0
100
AcDbLine
 10
149.5
 20
45.958975
 30
0.0
 11
149.5
 21
41.871375
 31
0.0
  0
LINE
  5
1CE
330
1E
100
AcDbEntity
  8
0
100
AcDbLine
 10
149.5
 20
50.192575
 30
0.0
 11
149.5
 21
45.958975
 31
0.0
  0
LINE
  5
1CF
330
1E
100
AcDbEntity
  8
0
100
AcDbLine
 10
149.5
 20
50.192575
 30
0.0
 11
149.5
 21
54.499975
 31
0.0
  0
LINE
  5
1D0
330
1E
100
AcDbEntity
  8
0
100
AcDbLine
 10
149.5
 20
37.99997499999999
 30
0.0
 11
149.5
 21
34.410875
 31
0.0
  0
LINE
  5
1D1
330
1E
100
AcDbEntity
  8
0
100
AcDbLine
 10
149.5
 20
37.99997499999999
 30
0.0
 11
149.5
 21
41.871375
 31
0.0
  0
LINE
  5
1D2
330
1E
100
AcDbEntity
  8
0
100
AcDbLine
 10
149.5
 20
34.410875
 30
0.0
 11
149.5
 21
31.165475
 31
0.0
  0
LINE
  5
1D3
330
1E
100
AcDbEntity
  8
0
100
AcDbLine
 10
149.5
 20
34.410875
 30
0.0
 11
149.5
 21
37.99997499999999
 31
0.0
  0
LINE
  5
1D4
330
1E
100
AcDbEntity
  8
0
100
AcDbLine
 10
149.5
 20
24.011975
 30
0.0
 11
149.5
 21
9.866794999999999
 31
0.0
  0
LINE
  5
1D5
330
1E
100
AcDbEntity
  8
0
100
AcDbLine
 10
149.5
 20
24.011975
 30
0.0
 11
149.5
 21
25.921175
 31
0.0
  0
LINE
  5
1D6
330
1E
100
AcDbEntity
  8
0
100
AcDbLine
 10
149.5
 20
9.866794999999999
 30
0.0
 11
149.5
 21
24.011975
 31
0.0
  0
LINE
  5
1D7
330
1E
100
AcDbEntity
  8
0
100
AcDbLine
 10
149.5
 20
9.866794999999999
 30
0.0
 11
149.9
 21
7.329625
 31
0.0
  0
LINE
  5
1D8
330
1E
100
AcDbEntity
  8
0
100
AcDbLine
 10
149.5
 20
54.499975
 30
0.0
 11
149.5
 21
165.4999749999998
 31
0.0
  0
LINE
  5
1D9
330
1E
100
AcDbEntity
  8
0
100
AcDbLine
 10
149.5
 20
54.499975
 30
0.0
 11
149.5
 21
50.192575
 31
0.0
  0
LINE
  5
1DA
330
1E
100
AcDbEntity
  8
0
100
AcDbLine
 10
149.5
 20
165.999975
 30
0.0
 11
149.5
 21
165.4999749999998
 31
0.0
  0
LINE
  5
1DB
330
1E
100
AcDbEntity
  8
0
100
AcDbLine
 10
160.0
 20
0.0000249999999999
 30
0.0
 11
162.6999999999999
 21
0.375902
 31
0.0
  0
LINE
  5
1DC
330
1E
100
AcDbEntity
  8
0
100
AcDbLine
 10
162.6999999999999
 20
0.375902
 30
0.0
 11
165.1999999999999
 21
1.315595
 31
0.0
  0
LINE
  5
1DD
330
1E
100
AcDbEntity
  8
0
100
AcDbLine
 10
162.6999999999999
 20
0.375902
 30
0.0
 11
165.1999999999999
 21
1.315595
 31
0.0
  0
LINE
  5
1DE
330
1E
100
AcDbEntity
  8
0
100
AcDbLine
 10
160.0
 20
0.0000249999999999
 30
0.0
 11
162.6999999999999
 21
0.375902
 31
0.0
  0
LINE
  5
1DF
330
1E
100
AcDbEntity
  8
0
100
AcDbLine
 10
149.9
 20
7.329625
 30
0.0
 11
150.9
 21
4.980394999999998
 31
0.0
  0
LINE
  5
1E0
330
1E
100
AcDbEntity
  8
0
100
AcDbLine
 10
150.9
 20
4.980394999999998
 30
0.0
 11
152.5999999999999
 21
2.913075
 31
0.0
  0
LINE
  5
1E1
330
1E
100
AcDbEntity
  8
0
100
AcDbLine
 10
152.5999999999999
 20
2.913075
 30
0.0
 11
154.8
 21
1.315595
 31
0.0
  0
LINE
  5
1E2
330
1E
100
AcDbEntity
  8
0
100
AcDbLine
 10
170.5
 20
9.866794999999999
 30
0.0
 11
170.5
 21
24.011975
 31
0.0
  0
LINE
  5
1E3
330
1E
100
AcDbEntity
  8
0
100
AcDbLine
 10
170.1
 20
7.329625
 30
0.0
 11
170.5
 21
9.866794999999999
 31
0.0
  0
LINE
  5
1E4
330
1E
100
AcDbEntity
  8
0
100
AcDbLine
 10
169.1
 20
4.980394999999998
 30
0.0
 11
170.1
 21
7.329625
 31
0.0
  0
LINE
  5
1E5
330
1E
100
AcDbEntity
  8
0
100
AcDbLine
 10
167.4
 20
2.913075
 30
0.0
 11
169.1
 21
4.980394999999998
 31
0.0
  0
LINE
  5
1E6
330
1E
100
AcDbEntity
  8
0
100
AcDbLine
 10
165.1999999999999
 20
1.315595
 30
0.0
 11
167.4
 21
2.913075
 31
0.0
  0
LINE
  5
1E7
330
1E
100
AcDbEntity
  8
0
100
AcDbLine
 10
170.5
 20
28.319275
 30
0.0
 11
170.5
 21
25.921175
 31
0.0
  0
LINE
  5
1E8
330
1E
100
AcDbEntity
  8
0
100
AcDbLine
 10
170.5
 20
28.319275
 30
0.0
 11
170.5
 21
31.165475
 31
0.0
  0
LINE
  5
1E9
330
1E
100
AcDbEntity
  8
0
100
AcDbLine
 10
170.5
 20
25.921175
 30
0.0
 11
170.5
 21
24.011975
 31
0.0
  0
LINE
  5
1EA
330
1E
100
AcDbEntity
  8
0
100
AcDbLine
 10
170.5
 20
25.921175
 30
0.0
 11
170.5
 21
28.319275
 31
0.0
  0
LINE
  5
1EB
330
1E
100
AcDbEntity
  8
0
100
AcDbLine
 10
170.5
 20
50.192575
 30
0.0
 11
170.5
 21
45.958975
 31
0.0
  0
LINE
  5
1EC
330
1E
100
AcDbEntity
  8
0
100
AcDbLine
 10
170.5
 20
50.192575
 30
0.0
 11
170.5
 21
54.499975
 31
0.0
  0
LINE
  5
1ED
330
1E
100
AcDbEntity
  8
0
100
AcDbLine
 10
170.5
 20
45.958975
 30
0.0
 11
170.5
 21
41.871375
 31
0.0
  0
LINE
  5
1EE
330
1E
100
AcDbEntity
  8
0
100
AcDbLine
 10
170.5
 20
45.958975
 30
0.0
 11
170.5
 21
50.192575
 31
0.0
  0
LINE
  5
1EF
330
1E
100
AcDbEntity
  8
0
100
AcDbLine
 10
170.5
 20
41.871375
 30
0.0
 11
170.5
 21
37.99997499999999
 31
0.0
  0
LINE
  5
1F0
330
1E
100
AcDbEntity
  8
0
100
AcDbLine
 10
170.5
 20
41.871375
 30
0.0
 11
170.5
 21
45.958975
 31
0.0
  0
LINE
  5
1F1
330
1E
100
AcDbEntity
  8
0
100
AcDbLine
 10
170.5
 20
37.99997499999999
 30
0.0
 11
170.5
 21
41.871375
 31
0.0
  0
LINE
  5
1F2
330
1E
100
AcDbEntity
  8
0
100
AcDbLine
 10
170.5
 20
37.99997499999999
 30
0.0
 11
170.5
 21
34.410875
 31
0.0
  0
LINE
  5
1F3
330
1E
100
AcDbEntity
  8
0
100
AcDbLine
 10
170.5
 20
34.410875
 30
0.0
 11
170.5
 21
37.99997499999999
 31
0.0
  0
LINE
  5
1F4
330
1E
100
AcDbEntity
  8
0
100
AcDbLine
 10
170.5
 20
34.410875
 30
0.0
 11
170.5
 21
31.165475
 31
0.0
  0
LINE
  5
1F5
330
1E
100
AcDbEntity
  8
0
100
AcDbLine
 10
170.5
 20
31.165475
 30
0.0
 11
170.5
 21
34.410875
 31
0.0
  0
LINE
  5
1F6
330
1E
100
AcDbEntity
  8
0
100
AcDbLine
 10
170.5
 20
31.165475
 30
0.0
 11
170.5
 21
28.319275
 31
0.0
  0
LINE
  5
1F7
330
1E
100
AcDbEntity
  8
0
100
AcDbLine
 10
170.5
 20
24.011975
 30
0.0
 11
170.5
 21
9.866794999999999
 31
0.0
  0
LINE
  5
1F8
330
1E
100
AcDbEntity
  8
0
100
AcDbLine
 10
170.5
 20
24.011975
 30
0.0
 11
170.5
 21
25.921175
 31
0.0
  0
LINE
  5
25F
330
1E
100
AcDbEntity
  8
0
100
AcDbLine
 10
170.5
 20
54.499975
 30
0.0
 11
170.5
 21
165.4999749999998
 31
0.0
  0
LINE
  5
260
330
1E
100
AcDbEntity
  8
0
100
AcDbLine
 10
170.5
 20
54.499975
 30
0.0
 11
170.5
 21
50.192575
 31
0.0
  0
LINE
  5
261
330
1E
100
AcDbEntity
  8
0
100
AcDbLine
 10
170.5
 20
165.999975
 30
0.0
 11
170.6999999999998
 21
166.7999749999999
 31
0.0
  0
LINE
  5
262
330
1E
100
AcDbEntity
  8
0
100
AcDbLine
 10
170.5
 20
165.999975
 30
0.0
 11
170.5
 21
165.4999749999998
 31
0.0
  0
LINE
  5
268
330
1E
100
AcDbEntity
  8
0
100
AcDbLine
 10
170.6999999999998
 20
166.7999749999999
 30
0.0
 11
171.1999999999999
 21
167.7999749999998
 31
0.0
  0
LINE
  5
269
330
1E
100
AcDbEntity
  8
0
100
AcDbLine
 10
170.5
 20
165.4999749999998
 30
0.0
 11
170.5
 21
54.499975
 31
0.0
  0
LINE
  5
26A
330
1E
100
AcDbEntity
  8
0
100
AcDbLine
 10
170.5
 20
165.4999749999998
 30
0.0
 11
170.5
 21
165.999975
 31
0.0
  0
LINE
  5
26B
330
1E
100
AcDbEntity
  8
0
100
AcDbLine
 10
154.8
 20
1.315595
 30
0.0
 11
157.3
 21
0.375902
 31
0.0
  0
LINE
  5
26C
330
1E
100
AcDbEntity
  8
0
100
AcDbLine
 10
154.8
 20
1.315595
 30
0.0
 11
157.3
 21
0.375902
 31
0.0
  0
LINE
  5
26D
330
1E
100
AcDbEntity
  8
0
100
AcDbLine
 10
157.3
 20
0.375902
 30
0.0
 11
160.0
 21
0.0000249999999999
 31
0.0
  0
LINE
  5
26E
330
1E
100
AcDbEntity
  8
0
100
AcDbLine
 10
157.3
 20
0.375902
 30
0.0
 11
160.0
 21
0.0000249999999999
 31
0.0
  0
LINE
  5
26F
330
1E
100
AcDbEntity
  8
0
100
AcDbLine
 10
149.5
 20
165.4999749999998
 30
0.0
 11
149.5
 21
165.999975
 31
0.0
  0
LINE
  5
270
330
1E
100
AcDbEntity
  8
0
100
AcDbLine
 10
149.5
 20
165.4999749999998
 30
0.0
 11
149.5
 21
54.499975
 31
0.0
  0
LINE
  5
271
330
1E
100
AcDbEntity
  8
0
100
AcDbLine
 10
171.1999999999999
 20
167.7999749999998
 30
0.0
 11
172.1999999999999
 21
168.599975
 31
0.0
  0
LINE
  5
276
330
1E
100
AcDbEntity
  8
0
100
AcDbLine
 10
172.1999999999999
 20
168.599975
 30
0.0
 11
173.5
 21
168.999975
 31
0.0
  0
LINE
  5
277
330
1E
100
AcDbEntity
  8
0
100
AcDbLine
 10
149.3
 20
166.7999749999999
 30
0.0
 11
149.5
 21
165.999975
 31
0.0
  0
LINE
  5
278
330
1E
100
AcDbEntity
  8
0
100
AcDbLine
 10
148.8
 20
167.7999749999998
 30
0.0
 11
149.3
 21
166.7999749999999
 31
0.0
  0
LINE
  5
279
330
1E
100
AcDbEntity
  8
0
100
AcDbLine
 10
148.6999999999999
 20
168.999975
 30
0.0
 11
152.0
 21
168.999975
 31
0.0
  0
LINE
  5
27C
330
1E
100
AcDbEntity
  8
0
100
AcDbLine
 10
152.0
 20
168.999975
 30
0.0
 11
155.9
 21
168.999975
 31
0.0
  0
LINE
  5
27D
330
1E
100
AcDbEntity
  8
0
100
AcDbLine
 10
164.1
 20
168.999975
 30
0.0
 11
168.0
 21
168.999975
 31
0.0
  0
LINE
  5
27E
330
1E
100
AcDbEntity
  8
0
100
AcDbLine
 10
160.0
 20
168.999975
 30
0.0
 11
167.1999999999998
 21
168.999975
 31
0.0
  0
LINE
  5
27F
330
1E
100
AcDbEntity
  8
0
100
AcDbLine
 10
160.0
 20
168.999975
 30
0.0
 11
164.1
 21
168.999975
 31
0.0
  0
LINE
  5
280
330
1E
100
AcDbEntity
  8
0
100
AcDbLine
 10
173.5
 20
168.999975
 30
0.0
 11
184.0
 21
168.999975
 31
0.0
  0
LINE
  5
281
330
1E
100
AcDbEntity
  8
0
100
AcDbLine
 10
173.5
 20
168.999975
 30
0.0
 11
174.0999999999999
 21
168.999975
 31
0.0
  0
LINE
  5
282
330
1E
100
AcDbEntity
  8
0
100
AcDbLine
 10
173.5
 20
168.999975
 30
0.0
 11
178.8
 21
168.999975
 31
0.0
  0
LINE
  5
283
330
1E
100
AcDbEntity
  8
0
100
AcDbLine
 10
168.0
 20
168.999975
 30
0.0
 11
171.3
 21
168.999975
 31
0.0
  0
LINE
  5
284
330
1E
100
AcDbEntity
  8
0
100
AcDbLine
 10
167.1999999999998
 20
168.999975
 30
0.0
 11
173.9
 21
168.999975
 31
0.0
  0
LINE
  5
285
330
1E
100
AcDbEntity
  8
0
100
AcDbLine
 10
171.3
 20
168.999975
 30
0.0
 11
173.9
 21
168.999975
 31
0.0
  0
LINE
  5
286
330
1E
100
AcDbEntity
  8
0
100
AcDbLine
 10
174.0999999999999
 20
168.999975
 30
0.0
 11
174.5999999999999
 21
168.999975
 31
0.0
  0
LINE
  5
287
330
1E
100
AcDbEntity
  8
0
100
AcDbLine
 10
178.8
 20
168.999975
 30
0.0
 11
183.0
 21
168.999975
 31
0.0
  0
LINE
  5
288
330
1E
100
AcDbEntity
  8
0
100
AcDbLine
 10
173.9
 20
168.999975
 30
0.0
 11
175.4
 21
168.999975
 31
0.0
  0
LINE
  5
289
330
1E
100
AcDbEntity
  8
0
100
AcDbLine
 10
173.9
 20
168.999975
 30
0.0
 11
179.8
 21
168.999975
 31
0.0
  0
LINE
  5
28A
330
1E
100
AcDbEntity
  8
0
100
AcDbLine
 10
175.4
 20
168.999975
 30
0.0
 11
176.0
 21
168.999975
 31
0.0
  0
LINE
  5
28B
330
1E
100
AcDbEntity
  8
0
100
AcDbLine
 10
183.0
 20
168.999975
 30
0.0
 11
185.5999999999999
 21
168.999975
 31
0.0
  0
LINE
  5
28C
330
1E
100
AcDbEntity
  8
0
100
AcDbLine
 10
184.0
 20
168.999975
 30
0.0
 11
185.3
 21
168.999975
 31
0.0
  0
LINE
  5
28D
330
1E
100
AcDbEntity
  8
0
100
AcDbLine
 10
185.5999999999999
 20
168.999975
 30
0.0
 11
186.5999999999999
 21
168.999975
 31
0.0
  0
LINE
  5
28E
330
1E
100
AcDbEntity
  8
0
100
AcDbLine
 10
185.3
 20
168.999975
 30
0.0
 11
186.5
 21
168.999975
 31
0.0
  0
LINE
  5
28F
330
1E
100
AcDbEntity
  8
0
100
AcDbLine
 10
186.5
 20
168.999975
 30
0.0
 11
187.5
 21
168.999975
 31
0.0
  0
LINE
  5
290
330
1E
100
AcDbEntity
  8
0
100
AcDbLine
 10
179.8
 20
168.999975
 30
0.0
 11
184.3
 21
168.999975
 31
0.0
  0
LINE
  5
291
330
1E
100
AcDbEntity
  8
0
100
AcDbLine
 10
184.3
 20
168.999975
 30
0.0
 11
187.0
 21
168.999975
 31
0.0
  0
LINE
  5
292
330
1E
100
AcDbEntity
  8
0
100
AcDbLine
 10
187.5
 20
168.999975
 30
0.0
 11
188.3
 21
168.999975
 31
0.0
  0
LINE
  5
293
330
1E
100
AcDbEntity
  8
0
100
AcDbLine
 10
188.3
 20
168.999975
 30
0.0
 11
188.8
 21
168.999975
 31
0.0
  0
LINE
  5
2C8
330
1E
100
AcDbEntity
  8
0
100
AcDbLine
 10
188.8
 20
168.999975
 30
0.0
 11
189.0
 21
168.999975
 31
0.0
  0
LINE
  5
2C9
330
1E
100
AcDbEntity
  8
0
100
AcDbLine
 10
189.0
 20
168.999975
 30
0.0
 11
189.7
 21
169.299975
 31
0.0
  0
LINE
  5
2CA
330
1E
100
AcDbEntity
  8
0
100
AcDbLine
 10
187.0
 20
168.999975
 30
0.0
 11
188.0
 21
168.999975
 31
0.0
  0
LINE
  5
2CB
330
1E
100
AcDbEntity
  8
0
100
AcDbLine
 10
160.0
 20
169.299975
 30
0.0
 11
184.0
 21
169.299975
 31
0.0
  0
LINE
  5
2CC
330
1E
100
AcDbEntity
  8
0
100
AcDbLine
 10
185.5
 20
169.299975
 30
0.0
 11
186.8
 21
169.299975
 31
0.0
  0
LINE
  5
2CE
330
1E
100
AcDbEntity
  8
0
100
AcDbLine
 10
184.0
 20
169.299975
 30
0.0
 11
185.5
 21
169.299975
 31
0.0
  0
LINE
  5
2CF
330
1E
100
AcDbEntity
  8
0
100
AcDbLine
 10
188.0
 20
169.299975
 30
0.0
 11
188.9
 21
169.299975
 31
0.0
  0
LINE
  5
2D0
330
1E
100
AcDbEntity
  8
0
100
AcDbLine
 10
188.9
 20
169.299975
 30
0.0
 11
189.4999999999999
 21
169.299975
 31
0.0
  0
LINE
  5
2D1
330
1E
100
AcDbEntity
  8
0
100
AcDbLine
 10
188.1999999999999
 20
175.999975
 30
0.0
 11
189.1999999999999
 21
175.999975
 31
0.0
  0
LINE
  5
2D2
330
1E
100
AcDbEntity
  8
0
100
AcDbLine
 10
189.4999999999999
 20
169.299975
 30
0.0
 11
189.7
 21
169.299975
 31
0.0
  0
LINE
  5
2F7
330
1E
100
AcDbEntity
  8
0
100
AcDbLine
 10
190.0
 20
169.999975
 30
0.0
 11
190.0
 21
175.999975
 31
0.0
  0
LINE
  5
2F8
330
1E
100
AcDbEntity
  8
0
100
AcDbLine
 10
190.0
 20
175.999975
 30
0.0
 11
190.0
 21
169.999975
 31
0.0
  0
LINE
  5
2F9
330
1E
100
AcDbEntity
  8
0
100
AcDbLine
 10
189.1999999999999
 20
175.999975
 30
0.0
 11
189.8
 21
175.999975
 31
0.0
  0
LINE
  5
2FA
330
1E
100
AcDbEntity
  8
0
100
AcDbLine
 10
189.8
 20
175.999975
 30
0.0
 11
190.0
 21
175.999975
 31
0.0
  0
LINE
  5
2FB
330
1E
100
AcDbEntity
  8
0
100
AcDbLine
 10
186.8
 20
169.299975
 30
0.0
 11
188.0
 21
169.299975
 31
0.0
  0
LINE
  5
2FC
330
1E
100
AcDbEntity
  8
0
100
AcDbLine
 10
187.0
 20
175.999975
 30
0.0
 11
188.1999999999999
 21
175.999975
 31
0.0
  0
LINE
  5
2FD
330
1E
100
AcDbEntity
  8
0
100
AcDbLine
 10
185.5
 20
175.999975
 30
0.0
 11
187.0
 21
175.999975
 31
0.0
  0
LINE
  5
3B4
330
1E
100
AcDbEntity
  8
0
100
AcDbLine
 10
184.0
 20
175.999975
 30
0.0
 11
185.5
 21
175.999975
 31
0.0
  0
LINE
  5
3B5
330
1E
100
AcDbEntity
  8
0
100
AcDbLine
 10
160.0
 20
175.999975
 30
0.0
 11
184.0
 21
175.999975
 31
0.0
  0
LINE
  5
3B6
330
1E
100
AcDbEntity
  8
0
100
AcDbLine
 10
155.9
 20
168.999975
 30
0.0
 11
160.0
 21
168.999975
 31
0.0
  0
LINE
  5
3B7
330
1E
100
AcDbEntity
  8
0
100
AcDbLine
 10
152.8
 20
168.999975
 30
0.0
 11
160.0
 21
168.999975
 31
0.0
  0
LINE
  5
3B8
330
1E
100
AcDbEntity
  8
0
100
AcDbLine
 10
147.8
 20
168.599975
 30
0.0
 11
148.8
 21
167.7999749999998
 31
0.0
  0
LINE
  5
3B9
330
1E
100
AcDbEntity
  8
0
100
AcDbLine
 10
146.5
 20
168.999975
 30
0.0
 11
147.8
 21
168.599975
 31
0.0
  0
LINE
  5
3BE
330
1E
100
AcDbEntity
  8
0
100
AcDbLine
 10
189.7
 20
169.299975
 30
0.0
 11
190.0
 21
169.999975
 31
0.0
  0
LINE
  5
3BF
330
1E
100
AcDbEntity
  8
0
100
AcDbLine
 10
90.0
 20
175.999975
 30
0.0
 11
89.97561546811869
 21
170.0480851315148
 31
0.0
  0
LINE
  5
3C0
330
1E
100
AcDbEntity
  8
0
100
AcDbLine
 10
89.97561546811869
 20
170.0480851315148
 30
0.0
 11
89.7
 21
169.299975
 31
0.0
  0
LINE
  5
3C5
330
1E
100
AcDbEntity
  8
0
100
AcDbLine
 10
285.5
 20
175.999975
 30
0.0
 11
284.0
 21
175.999975
 31
0.0
  0
LINE
  5
3C6
330
1E
100
AcDbEntity
  8
0
100
AcDbLine
 10
285.3
 20
168.999975
 30
0.0
 11
284.0
 21
168.999975
 31
0.0
  0
LINE
  5
3C7
330
1E
100
AcDbEntity
  8
0
100
AcDbLine
 10
285.5
 20
169.299975
 30
0.0
 11
284.0
 21
169.299975
 31
0.0
  0
LINE
  5
3C8
330
1E
100
AcDbEntity
  8
0
100
AcDbLine
 10
285.6
 20
168.999975
 30
0.0
 11
283.0
 21
168.999975
 31
0.0
  0
LINE
  5
3C9
330
1E
100
AcDbEntity
  8
0
100
AcDbLine
 10
287.0
 20
168.999975
 30
0.0
 11
284.2999999999999
 21
168.999975
 31
0.0
  0
LINE
  5
3CA
330
1E
100
AcDbEntity
  8
0
100
AcDbLine
 10
309.5
 20
128.2999749999999
 30
0.0
 11
280.1999999999999
 21
129.999975
 31
0.0
  0
LINE
  5
3CB
330
1E
100
AcDbEntity
  8
0
100
AcDbLine
 10
309.5
 20
128.2999749999999
 30
0.0
 11
280.1999999999999
 21
129.999975
 31
0.0
  0
LINE
  5
3CC
330
1E
100
AcDbEntity
  8
0
100
AcDbLine
 10
309.5
 20
124.999975
 30
0.0
 11
260.0
 21
124.999975
 31
0.0
  0
LINE
  5
3CD
330
1E
100
AcDbEntity
  8
0
100
AcDbLine
 10
309.5
 20
124.999975
 30
0.0
 11
260.0
 21
124.999975
 31
0.0
  0
LINE
  5
3CE
330
1E
100
AcDbEntity
  8
0
100
AcDbLine
 10
290.0
 20
175.999975
 30
0.0
 11
290.0
 21
169.999975
 31
0.0
  0
LINE
  5
3CF
330
1E
100
AcDbEntity
  8
0
100
AcDbLine
 10
290.0
 20
169.999975
 30
0.0
 11
290.0
 21
175.999975
 31
0.0
  0
LINE
  5
3D0
330
1E
100
AcDbEntity
  8
0
100
AcDbLine
 10
314.67776
 20
127.984975
 30
0.0
 11
312.1649499999999
 21
128.149975
 31
0.0
  0
LINE
  5
3D1
330
1E
100
AcDbEntity
  8
0
100
AcDbLine
 10
314.5
 20
124.999975
 30
0.0
 11
312.1
 21
124.999975
 31
0.0
  0
LINE
  5
3D2
330
1E
100
AcDbEntity
  8
0
100
AcDbLine
 10
318.6
 20
127.5999749999999
 30
0.0
 11
317.0
 21
127.7999749999999
 31
0.0
  0
LINE
  5
3D3
330
1E
100
AcDbEntity
  8
0
100
AcDbLine
 10
318.1999999999998
 20
124.999975
 30
0.0
 11
316.6
 21
124.999975
 31
0.0
  0
LINE
  5
3D4
330
1E
100
AcDbEntity
  8
0
100
AcDbLine
 10
319.8
 20
125.1999749999999
 30
0.0
 11
319.5
 21
124.999975
 31
0.0
  0
LINE
  5
3D5
330
1E
100
AcDbEntity
  8
0
100
AcDbLine
 10
319.7
 20
127.299975
 30
0.0
 11
318.6
 21
127.5999749999999
 31
0.0
  0
LINE
  5
3D6
330
1E
100
AcDbEntity
  8
0
100
AcDbLine
 10
319.7
 20
127.299975
 30
0.0
 11
318.6
 21
127.5999749999999
 31
0.0
  0
LINE
  5
3D7
330
1E
100
AcDbEntity
  8
0
100
AcDbLine
 10
320.0
 20
125.499975
 30
0.0
 11
319.8
 21
125.1999749999999
 31
0.0
  0
LINE
  5
3D8
330
1E
100
AcDbEntity
  8
0
100
AcDbLine
 10
320.0
 20
125.499975
 30
0.0
 11
320.0
 21
126.9999749999999
 31
0.0
  0
LINE
  5
3D9
330
1E
100
AcDbEntity
  8
0
100
AcDbLine
 10
320.0
 20
126.9999749999999
 30
0.0
 11
320.0
 21
125.499975
 31
0.0
  0
LINE
  5
3DA
330
1E
100
AcDbEntity
  8
0
100
AcDbLine
 10
320.0
 20
126.9999749999999
 30
0.0
 11
319.7
 21
127.299975
 31
0.0
  0
LINE
  5
3DB
330
1E
100
AcDbEntity
  8
0
100
AcDbLine
 10
319.1
 20
124.999975
 30
0.0
 11
318.1999999999998
 21
124.999975
 31
0.0
  0
LINE
  5
3DC
330
1E
100
AcDbEntity
  8
0
100
AcDbLine
 10
319.5
 20
124.999975
 30
0.0
 11
319.1
 21
124.999975
 31
0.0
  0
LINE
  5
3DD
330
1E
100
AcDbEntity
  8
0
100
AcDbLine
 10
317.0
 20
127.7999749999999
 30
0.0
 11
314.67776
 21
127.984975
 31
0.0
  0
LINE
  5
3DE
330
1E
100
AcDbEntity
  8
0
100
AcDbLine
 10
316.6
 20
124.999975
 30
0.0
 11
314.5
 21
124.999975
 31
0.0
  0
LINE
  5
3DF
330
1E
100
AcDbEntity
  8
0
100
AcDbLine
 10
312.1649499999999
 20
128.149975
 30
0.0
 11
309.5
 21
128.2999749999999
 31
0.0
  0
LINE
  5
3E0
330
1E
100
AcDbEntity
  8
0
100
AcDbLine
 10
312.1
 20
124.999975
 30
0.0
 11
309.5
 21
124.999975
 31
0.0
  0
LINE
  5
3E1
330
1E
100
AcDbEntity
  8
0
100
AcDbLine
 10
288.8999999999998
 20
169.299975
 30
0.0
 11
288.0
 21
169.299975
 31
0.0
  0
LINE
  5
3E2
330
1E
100
AcDbEntity
  8
0
100
AcDbLine
 10
288.3
 20
168.999975
 30
0.0
 11
287.5
 21
168.999975
 31
0.0
  0
LINE
  5
3E3
330
1E
100
AcDbEntity
  8
0
100
AcDbLine
 10
290.0
 20
169.999975
 30
0.0
 11
289.6999999999998
 21
169.299975
 31
0.0
  0
LINE
  5
3E4
330
1E
100
AcDbEntity
  8
0
100
AcDbLine
 10
289.6999999999998
 20
169.299975
 30
0.0
 11
289.4999999999999
 21
169.299975
 31
0.0
  0
LINE
  5
3E5
330
1E
100
AcDbEntity
  8
0
100
AcDbLine
 10
289.4999999999999
 20
169.299975
 30
0.0
 11
288.8999999999998
 21
169.299975
 31
0.0
  0
LINE
  5
3E6
330
1E
100
AcDbEntity
  8
0
100
AcDbLine
 10
288.8
 20
168.999975
 30
0.0
 11
288.3
 21
168.999975
 31
0.0
  0
LINE
  5
3E7
330
1E
100
AcDbEntity
  8
0
100
AcDbLine
 10
289.0
 20
168.999975
 30
0.0
 11
288.8
 21
168.999975
 31
0.0
  0
LINE
  5
3E8
330
1E
100
AcDbEntity
  8
0
100
AcDbLine
 10
289.6999999999998
 20
169.299975
 30
0.0
 11
289.0
 21
168.999975
 31
0.0
  0
LINE
  5
3E9
330
1E
100
AcDbEntity
  8
0
100
AcDbLine
 10
286.8
 20
169.299975
 30
0.0
 11
285.5
 21
169.299975
 31
0.0
  0
LINE
  5
3EA
330
1E
100
AcDbEntity
  8
0
100
AcDbLine
 10
286.6
 20
168.999975
 30
0.0
 11
285.6
 21
168.999975
 31
0.0
  0
LINE
  5
3EB
330
1E
100
AcDbEntity
  8
0
100
AcDbLine
 10
286.5
 20
168.999975
 30
0.0
 11
285.3
 21
168.999975
 31
0.0
  0
LINE
  5
3EC
330
1E
100
AcDbEntity
  8
0
100
AcDbLine
 10
288.0
 20
169.299975
 30
0.0
 11
286.8
 21
169.299975
 31
0.0
  0
LINE
  5
3ED
330
1E
100
AcDbEntity
  8
0
100
AcDbLine
 10
288.0
 20
168.999975
 30
0.0
 11
287.0
 21
168.999975
 31
0.0
  0
LINE
  5
3EE
330
1E
100
AcDbEntity
  8
0
100
AcDbLine
 10
287.5
 20
168.999975
 30
0.0
 11
286.5
 21
168.999975
 31
0.0
  0
LINE
  5
3EF
330
1E
100
AcDbEntity
  8
0
100
AcDbLine
 10
288.2
 20
175.999975
 30
0.0
 11
287.0
 21
175.999975
 31
0.0
  0
LINE
  5
3F0
330
1E
100
AcDbEntity
  8
0
100
AcDbLine
 10
290.0
 20
175.999975
 30
0.0
 11
289.8
 21
175.999975
 31
0.0
  0
LINE
  5
3F1
330
1E
100
AcDbEntity
  8
0
100
AcDbLine
 10
289.8
 20
175.999975
 30
0.0
 11
289.1999999999999
 21
175.999975
 31
0.0
  0
LINE
  5
3F2
330
1E
100
AcDbEntity
  8
0
100
AcDbLine
 10
289.1999999999999
 20
175.999975
 30
0.0
 11
288.2
 21
175.999975
 31
0.0
  0
LINE
  5
3F3
330
1E
100
AcDbEntity
  8
0
100
AcDbLine
 10
287.0
 20
175.999975
 30
0.0
 11
285.5
 21
175.999975
 31
0.0
  0
LINE
  5
3F8
330
1E
100
AcDbEntity
  8
0
100
AcDbLine
 10
230.0
 20
175.999975
 30
0.0
 11
230.0243845318812
 21
170.0480851315148
 31
0.0
  0
LINE
  5
3F9
330
1E
100
AcDbEntity
  8
0
100
AcDbLine
 10
255.9
 20
168.999975
 30
0.0
 11
252.0
 21
168.999975
 31
0.0
  0
LINE
  5
3FA
330
1E
100
AcDbEntity
  8
0
100
AcDbLine
 10
254.8999999999999
 20
164.899975
 30
0.0
 11
252.7
 21
164.899975
 31
0.0
  0
LINE
  5
3FB
330
1E
100
AcDbEntity
  8
0
100
AcDbLine
 10
255.0
 20
163.599975
 30
0.0
 11
252.8999999999999
 21
163.599975
 31
0.0
  0
LINE
  5
3FC
330
1E
100
AcDbEntity
  8
0
100
AcDbLine
 10
254.8999999999999
 20
163.599975
 30
0.0
 11
252.7
 21
163.599975
 31
0.0
  0
LINE
  5
3FD
330
1E
100
AcDbEntity
  8
0
100
AcDbLine
 10
255.0
 20
124.999975
 30
0.0
 11
252.8999999999999
 21
124.999975
 31
0.0
  0
LINE
  5
3FE
330
1E
100
AcDbEntity
  8
0
100
AcDbLine
 10
260.0
 20
169.299975
 30
0.0
 11
236.0
 21
169.299975
 31
0.0
  0
LINE
  5
3FF
330
1E
100
AcDbEntity
  8
0
100
AcDbLine
 10
260.0
 20
168.999975
 30
0.0
 11
252.8
 21
168.999975
 31
0.0
  0
LINE
  5
400
330
1E
100
AcDbEntity
  8
0
100
AcDbLine
 10
270.5
 20
162.999975
 30
0.0
 11
270.5
 21
139.999975
 31
0.0
  0
LINE
  5
401
330
1E
100
AcDbEntity
  8
0
100
AcDbLine
 10
270.5
 20
139.999975
 30
0.0
 11
270.5
 21
162.999975
 31
0.0
  0
LINE
  5
402
330
1E
100
AcDbEntity
  8
0
100
AcDbLine
 10
277.8
 20
130.399975
 30
0.0
 11
275.4
 21
131.2999749999999
 31
0.0
  0
LINE
  5
403
330
1E
100
AcDbEntity
  8
0
100
AcDbLine
 10
280.1999999999999
 20
129.999975
 30
0.0
 11
277.8
 21
130.399975
 31
0.0
  0
LINE
  5
404
330
1E
100
AcDbEntity
  8
0
100
AcDbLine
 10
273.3
 20
132.999975
 30
0.0
 11
271.7999999999999
 21
135.0999749999999
 31
0.0
  0
LINE
  5
405
330
1E
100
AcDbEntity
  8
0
100
AcDbLine
 10
275.4
 20
131.2999749999999
 30
0.0
 11
273.3
 21
132.999975
 31
0.0
  0
LINE
  5
406
330
1E
100
AcDbEntity
  8
0
100
AcDbLine
 10
271.0
 20
137.0999749999999
 30
0.0
 11
270.6
 21
138.999975
 31
0.0
  0
LINE
  5
407
330
1E
100
AcDbEntity
  8
0
100
AcDbLine
 10
271.7999999999999
 20
135.0999749999999
 30
0.0
 11
271.0
 21
137.0999749999999
 31
0.0
  0
LINE
  5
408
330
1E
100
AcDbEntity
  8
0
100
AcDbLine
 10
270.6
 20
138.999975
 30
0.0
 11
270.5
 21
139.999975
 31
0.0
  0
LINE
  5
409
330
1E
100
AcDbEntity
  8
0
100
AcDbLine
 10
260.0
 20
124.999975
 30
0.0
 11
257.3999999999999
 21
124.999975
 31
0.0
  0
LINE
  5
40A
330
1E
100
AcDbEntity
  8
0
100
AcDbLine
 10
257.3999999999999
 20
124.999975
 30
0.0
 11
255.0
 21
124.999975
 31
0.0
  0
LINE
  5
40B
330
1E
100
AcDbEntity
  8
0
100
AcDbLine
 10
271.3
 20
168.999975
 30
0.0
 11
268.0
 21
168.999975
 31
0.0
  0
LINE
  5
40C
330
1E
100
AcDbEntity
  8
0
100
AcDbLine
 10
269.8999999999999
 20
164.899975
 30
0.0
 11
268.8999999999999
 21
164.899975
 31
0.0
  0
LINE
  5
40D
330
1E
100
AcDbEntity
  8
0
100
AcDbLine
 10
269.6
 20
163.599975
 30
0.0
 11
268.6999999999999
 21
163.599975
 31
0.0
  0
LINE
  5
40E
330
1E
100
AcDbEntity
  8
0
100
AcDbLine
 10
269.8999999999999
 20
163.599975
 30
0.0
 11
268.8999999999999
 21
163.599975
 31
0.0
  0
LINE
  5
40F
330
1E
100
AcDbEntity
  8
0
100
AcDbLine
 10
284.0
 20
169.299975
 30
0.0
 11
260.0
 21
169.299975
 31
0.0
  0
LINE
  5
410
330
1E
100
AcDbEntity
  8
0
100
AcDbLine
 10
273.8999999999999
 20
168.999975
 30
0.0
 11
267.2
 21
168.999975
 31
0.0
  0
LINE
  5
411
330
1E
100
AcDbEntity
  8
0
100
AcDbLine
 10
279.8
 20
168.999975
 30
0.0
 11
273.8999999999999
 21
168.999975
 31
0.0
  0
LINE
  5
412
330
1E
100
AcDbEntity
  8
0
100
AcDbLine
 10
278.8
 20
168.999975
 30
0.0
 11
273.4999999999999
 21
168.999975
 31
0.0
  0
LINE
  5
413
330
1E
100
AcDbEntity
  8
0
100
AcDbLine
 10
284.0
 20
168.999975
 30
0.0
 11
273.4999999999999
 21
168.999975
 31
0.0
  0
LINE
  5
414
330
1E
100
AcDbEntity
  8
0
100
AcDbLine
 10
284.2999999999999
 20
168.999975
 30
0.0
 11
279.8
 21
168.999975
 31
0.0
  0
LINE
  5
415
330
1E
100
AcDbEntity
  8
0
100
AcDbLine
 10
283.0
 20
168.999975
 30
0.0
 11
278.8
 21
168.999975
 31
0.0
  0
LINE
  5
416
330
1E
100
AcDbEntity
  8
0
100
AcDbLine
 10
271.1999999999999
 20
167.7999749999998
 30
0.0
 11
270.6999999999999
 21
166.7999749999999
 31
0.0
  0
LINE
  5
417
330
1E
100
AcDbEntity
  8
0
100
AcDbLine
 10
270.5
 20
165.4999749999998
 30
0.0
 11
270.5
 21
165.999975
 31
0.0
  0
LINE
  5
418
330
1E
100
AcDbEntity
  8
0
100
AcDbLine
 10
270.5
 20
165.4999749999998
 30
0.0
 11
270.3
 21
165.0999749999999
 31
0.0
  0
LINE
  5
419
330
1E
100
AcDbEntity
  8
0
100
AcDbLine
 10
270.5
 20
165.999975
 30
0.0
 11
270.5
 21
165.4999749999998
 31
0.0
  0
LINE
  5
41A
330
1E
100
AcDbEntity
  8
0
100
AcDbLine
 10
270.3
 20
165.0999749999999
 30
0.0
 11
270.0
 21
164.899975
 31
0.0
  0
LINE
  5
41B
330
1E
100
AcDbEntity
  8
0
100
AcDbLine
 10
270.0
 20
163.599975
 30
0.0
 11
269.6
 21
163.599975
 31
0.0
  0
LINE
  5
41C
330
1E
100
AcDbEntity
  8
0
100
AcDbLine
 10
270.3
 20
163.399975
 30
0.0
 11
270.0
 21
163.599975
 31
0.0
  0
LINE
  5
41D
330
1E
100
AcDbEntity
  8
0
100
AcDbLine
 10
270.3
 20
164.899975
 30
0.0
 11
270.3
 21
163.599975
 31
0.0
  0
LINE
  5
41E
330
1E
100
AcDbEntity
  8
0
100
AcDbLine
 10
270.3
 20
164.899975
 30
0.0
 11
269.8999999999999
 21
164.899975
 31
0.0
  0
LINE
  5
41F
330
1E
100
AcDbEntity
  8
0
100
AcDbLine
 10
270.3
 20
163.599975
 30
0.0
 11
270.0
 21
163.599975
 31
0.0
  0
LINE
  5
420
330
1E
100
AcDbEntity
  8
0
100
AcDbLine
 10
270.3
 20
163.599975
 30
0.0
 11
270.3
 21
164.899975
 31
0.0
  0
LINE
  5
421
330
1E
100
AcDbEntity
  8
0
100
AcDbLine
 10
270.3
 20
163.599975
 30
0.0
 11
269.8999999999999
 21
163.599975
 31
0.0
  0
LINE
  5
422
330
1E
100
AcDbEntity
  8
0
100
AcDbLine
 10
270.5
 20
162.999975
 30
0.0
 11
270.3
 21
163.399975
 31
0.0
  0
LINE
  5
423
330
1E
100
AcDbEntity
  8
0
100
AcDbLine
 10
270.6999999999999
 20
166.7999749999999
 30
0.0
 11
270.5
 21
165.999975
 31
0.0
  0
LINE
  5
424
330
1E
100
AcDbEntity
  8
0
100
AcDbLine
 10
273.8999999999999
 20
168.999975
 30
0.0
 11
271.3
 21
168.999975
 31
0.0
  0
LINE
  5
425
330
1E
100
AcDbEntity
  8
0
100
AcDbLine
 10
273.4999999999999
 20
168.999975
 30
0.0
 11
272.1999999999999
 21
168.599975
 31
0.0
  0
LINE
  5
426
330
1E
100
AcDbEntity
  8
0
100
AcDbLine
 10
275.4
 20
168.999975
 30
0.0
 11
273.8999999999999
 21
168.999975
 31
0.0
  0
LINE
  5
427
330
1E
100
AcDbEntity
  8
0
100
AcDbLine
 10
276.0
 20
168.999975
 30
0.0
 11
275.4
 21
168.999975
 31
0.0
  0
LINE
  5
428
330
1E
100
AcDbEntity
  8
0
100
AcDbLine
 10
274.6
 20
168.999975
 30
0.0
 11
274.1
 21
168.999975
 31
0.0
  0
LINE
  5
429
330
1E
100
AcDbEntity
  8
0
100
AcDbLine
 10
274.1
 20
168.999975
 30
0.0
 11
273.4999999999999
 21
168.999975
 31
0.0
  0
LINE
  5
42A
330
1E
100
AcDbEntity
  8
0
100
AcDbLine
 10
272.1999999999999
 20
168.599975
 30
0.0
 11
271.1999999999999
 21
167.7999749999998
 31
0.0
  0
LINE
  5
42B
330
1E
100
AcDbEntity
  8
0
100
AcDbLine
 10
264.1
 20
168.999975
 30
0.0
 11
260.0
 21
168.999975
 31
0.0
  0
LINE
  5
42C
330
1E
100
AcDbEntity
  8
0
100
AcDbLine
 10
267.2
 20
168.999975
 30
0.0
 11
260.0
 21
168.999975
 31
0.0
  0
LINE
  5
42D
330
1E
100
AcDbEntity
  8
0
100
AcDbLine
 10
262.6
 20
164.899975
 30
0.0
 11
260.0
 21
164.899975
 31
0.0
  0
LINE
  5
42E
330
1E
100
AcDbEntity
  8
0
100
AcDbLine
 10
262.6
 20
163.599975
 30
0.0
 11
260.0
 21
163.599975
 31
0.0
  0
LINE
  5
42F
330
1E
100
AcDbEntity
  8
0
100
AcDbLine
 10
267.1
 20
163.599975
 30
0.0
 11
265.0
 21
163.599975
 31
0.0
  0
LINE
  5
430
330
1E
100
AcDbEntity
  8
0
100
AcDbLine
 10
267.3
 20
164.899975
 30
0.0
 11
265.1
 21
164.899975
 31
0.0
  0
LINE
  5
431
330
1E
100
AcDbEntity
  8
0
100
AcDbLine
 10
267.3
 20
163.599975
 30
0.0
 11
265.1
 21
163.599975
 31
0.0
  0
LINE
  5
432
330
1E
100
AcDbEntity
  8
0
100
AcDbLine
 10
268.8999999999999
 20
164.899975
 30
0.0
 11
267.3
 21
164.899975
 31
0.0
  0
LINE
  5
433
330
1E
100
AcDbEntity
  8
0
100
AcDbLine
 10
268.6999999999999
 20
163.599975
 30
0.0
 11
267.1
 21
163.599975
 31
0.0
  0
LINE
  5
434
330
1E
100
AcDbEntity
  8
0
100
AcDbLine
 10
268.8999999999999
 20
163.599975
 30
0.0
 11
267.3
 21
163.599975
 31
0.0
  0
LINE
  5
435
330
1E
100
AcDbEntity
  8
0
100
AcDbLine
 10
265.1
 20
164.899975
 30
0.0
 11
262.6
 21
164.899975
 31
0.0
  0
LINE
  5
436
330
1E
100
AcDbEntity
  8
0
100
AcDbLine
 10
265.0
 20
163.599975
 30
0.0
 11
262.6
 21
163.599975
 31
0.0
  0
LINE
  5
437
330
1E
100
AcDbEntity
  8
0
100
AcDbLine
 10
265.1
 20
163.599975
 30
0.0
 11
262.6
 21
163.599975
 31
0.0
  0
LINE
  5
438
330
1E
100
AcDbEntity
  8
0
100
AcDbLine
 10
268.0
 20
168.999975
 30
0.0
 11
264.1
 21
168.999975
 31
0.0
  0
LINE
  5
439
330
1E
100
AcDbEntity
  8
0
100
AcDbLine
 10
260.0
 20
164.899975
 30
0.0
 11
257.3999999999999
 21
164.899975
 31
0.0
  0
LINE
  5
43A
330
1E
100
AcDbEntity
  8
0
100
AcDbLine
 10
260.0
 20
163.599975
 30
0.0
 11
257.3999999999999
 21
163.599975
 31
0.0
  0
LINE
  5
43B
330
1E
100
AcDbEntity
  8
0
100
AcDbLine
 10
257.3999999999999
 20
164.899975
 30
0.0
 11
254.8999999999999
 21
164.899975
 31
0.0
  0
LINE
  5
43C
330
1E
100
AcDbEntity
  8
0
100
AcDbLine
 10
257.3999999999999
 20
163.599975
 30
0.0
 11
254.8999999999999
 21
163.599975
 31
0.0
  0
LINE
  5
43D
330
1E
100
AcDbEntity
  8
0
100
AcDbLine
 10
257.3999999999999
 20
163.599975
 30
0.0
 11
255.0
 21
163.599975
 31
0.0
  0
LINE
  5
43E
330
1E
100
AcDbEntity
  8
0
100
AcDbLine
 10
260.0
 20
168.999975
 30
0.0
 11
255.9
 21
168.999975
 31
0.0
  0
LINE
  5
43F
330
1E
100
AcDbEntity
  8
0
100
AcDbLine
 10
249.5
 20
126.9999749999999
 30
0.0
 11
249.5
 21
162.999975
 31
0.0
  0
LINE
  5
440
330
1E
100
AcDbEntity
  8
0
100
AcDbLine
 10
249.5
 20
162.999975
 30
0.0
 11
249.5
 21
126.9999749999999
 31
0.0
  0
LINE
  5
441
330
1E
100
AcDbEntity
  8
0
100
AcDbLine
 10
251.3
 20
124.999975
 30
0.0
 11
250.4
 21
124.999975
 31
0.0
  0
LINE
  5
442
330
1E
100
AcDbEntity
  8
0
100
AcDbLine
 10
252.8999999999999
 20
124.999975
 30
0.0
 11
251.3
 21
124.999975
 31
0.0
  0
LINE
  5
443
330
1E
100
AcDbEntity
  8
0
100
AcDbLine
 10
249.5
 20
126.9999749999999
 30
0.0
 11
249.5
 21
125.499975
 31
0.0
  0
LINE
  5
444
330
1E
100
AcDbEntity
  8
0
100
AcDbLine
 10
249.6999999999999
 20
125.1999749999999
 30
0.0
 11
249.5
 21
125.499975
 31
0.0
  0
LINE
  5
445
330
1E
100
AcDbEntity
  8
0
100
AcDbLine
 10
249.5
 20
125.499975
 30
0.0
 11
249.5
 21
126.9999749999999
 31
0.0
  0
LINE
  5
446
330
1E
100
AcDbEntity
  8
0
100
AcDbLine
 10
250.0
 20
124.999975
 30
0.0
 11
249.6999999999999
 21
125.1999749999999
 31
0.0
  0
LINE
  5
447
330
1E
100
AcDbEntity
  8
0
100
AcDbLine
 10
250.4
 20
124.999975
 30
0.0
 11
250.0
 21
124.999975
 31
0.0
  0
LINE
  5
448
330
1E
100
AcDbEntity
  8
0
100
AcDbLine
 10
240.2
 20
168.999975
 30
0.0
 11
235.6999999999999
 21
168.999975
 31
0.0
  0
LINE
  5
449
330
1E
100
AcDbEntity
  8
0
100
AcDbLine
 10
241.1999999999999
 20
168.999975
 30
0.0
 11
237.0
 21
168.999975
 31
0.0
  0
LINE
  5
44A
330
1E
100
AcDbEntity
  8
0
100
AcDbLine
 10
246.4999999999999
 20
168.999975
 30
0.0
 11
236.0
 21
168.999975
 31
0.0
  0
LINE
  5
44B
330
1E
100
AcDbEntity
  8
0
100
AcDbLine
 10
247.8
 20
168.599975
 30
0.0
 11
246.4999999999999
 21
168.999975
 31
0.0
  0
LINE
  5
44C
330
1E
100
AcDbEntity
  8
0
100
AcDbLine
 10
248.7
 20
168.999975
 30
0.0
 11
246.0999999999999
 21
168.999975
 31
0.0
  0
LINE
  5
44D
330
1E
100
AcDbEntity
  8
0
100
AcDbLine
 10
252.8
 20
168.999975
 30
0.0
 11
246.0999999999999
 21
168.999975
 31
0.0
  0
LINE
  5
44E
330
1E
100
AcDbEntity
  8
0
100
AcDbLine
 10
249.3
 20
166.7999749999999
 30
0.0
 11
248.7999999999999
 21
167.7999749999998
 31
0.0
  0
LINE
  5
44F
330
1E
100
AcDbEntity
  8
0
100
AcDbLine
 10
251.3
 20
163.599975
 30
0.0
 11
250.4
 21
163.599975
 31
0.0
  0
LINE
  5
450
330
1E
100
AcDbEntity
  8
0
100
AcDbLine
 10
251.1
 20
164.899975
 30
0.0
 11
250.0999999999999
 21
164.899975
 31
0.0
  0
LINE
  5
451
330
1E
100
AcDbEntity
  8
0
100
AcDbLine
 10
251.1
 20
163.599975
 30
0.0
 11
250.0999999999999
 21
163.599975
 31
0.0
  0
LINE
  5
452
330
1E
100
AcDbEntity
  8
0
100
AcDbLine
 10
252.8999999999999
 20
163.599975
 30
0.0
 11
251.3
 21
163.599975
 31
0.0
  0
LINE
  5
453
330
1E
100
AcDbEntity
  8
0
100
AcDbLine
 10
252.7
 20
164.899975
 30
0.0
 11
251.1
 21
164.899975
 31
0.0
  0
LINE
  5
454
330
1E
100
AcDbEntity
  8
0
100
AcDbLine
 10
252.7
 20
163.599975
 30
0.0
 11
251.1
 21
163.599975
 31
0.0
  0
LINE
  5
455
330
1E
100
AcDbEntity
  8
0
100
AcDbLine
 10
249.6999999999999
 20
165.0999749999999
 30
0.0
 11
249.5
 21
165.4999749999998
 31
0.0
  0
LINE
  5
456
330
1E
100
AcDbEntity
  8
0
100
AcDbLine
 10
249.5
 20
165.999975
 30
0.0
 11
249.5
 21
165.4999749999998
 31
0.0
  0
LINE
  5
457
330
1E
100
AcDbEntity
  8
0
100
AcDbLine
 10
249.5
 20
165.999975
 30
0.0
 11
249.3
 21
166.7999749999999
 31
0.0
  0
LINE
  5
458
330
1E
100
AcDbEntity
  8
0
100
AcDbLine
 10
249.5
 20
165.4999749999998
 30
0.0
 11
249.5
 21
165.999975
 31
0.0
  0
LINE
  5
459
330
1E
100
AcDbEntity
  8
0
100
AcDbLine
 10
250.0
 20
164.899975
 30
0.0
 11
249.6999999999999
 21
165.0999749999999
 31
0.0
  0
LINE
  5
45A
330
1E
100
AcDbEntity
  8
0
100
AcDbLine
 10
250.4
 20
163.599975
 30
0.0
 11
250.0
 21
163.599975
 31
0.0
  0
LINE
  5
45B
330
1E
100
AcDbEntity
  8
0
100
AcDbLine
 10
250.0
 20
163.599975
 30
0.0
 11
249.6999999999999
 21
163.599975
 31
0.0
  0
LINE
  5
45C
330
1E
100
AcDbEntity
  8
0
100
AcDbLine
 10
250.0
 20
163.599975
 30
0.0
 11
249.6999999999999
 21
163.399975
 31
0.0
  0
LINE
  5
45D
330
1E
100
AcDbEntity
  8
0
100
AcDbLine
 10
250.0999999999999
 20
164.899975
 30
0.0
 11
249.6999999999999
 21
164.899975
 31
0.0
  0
LINE
  5
45E
330
1E
100
AcDbEntity
  8
0
100
AcDbLine
 10
249.6999999999999
 20
164.899975
 30
0.0
 11
249.6999999999999
 21
163.599975
 31
0.0
  0
LINE
  5
45F
330
1E
100
AcDbEntity
  8
0
100
AcDbLine
 10
249.6999999999999
 20
163.399975
 30
0.0
 11
249.5
 21
162.999975
 31
0.0
  0
LINE
  5
460
330
1E
100
AcDbEntity
  8
0
100
AcDbLine
 10
249.6999999999999
 20
163.599975
 30
0.0
 11
249.6999999999999
 21
164.899975
 31
0.0
  0
LINE
  5
461
330
1E
100
AcDbEntity
  8
0
100
AcDbLine
 10
250.0999999999999
 20
163.599975
 30
0.0
 11
249.6999999999999
 21
163.599975
 31
0.0
  0
LINE
  5
462
330
1E
100
AcDbEntity
  8
0
100
AcDbLine
 10
252.0
 20
168.999975
 30
0.0
 11
248.7
 21
168.999975
 31
0.0
  0
LINE
  5
463
330
1E
100
AcDbEntity
  8
0
100
AcDbLine
 10
248.7999999999999
 20
167.7999749999998
 30
0.0
 11
247.8
 21
168.599975
 31
0.0
  0
LINE
  5
464
330
1E
100
AcDbEntity
  8
0
100
AcDbLine
 10
246.0999999999999
 20
168.999975
 30
0.0
 11
240.2
 21
168.999975
 31
0.0
  0
LINE
  5
465
330
1E
100
AcDbEntity
  8
0
100
AcDbLine
 10
246.4999999999999
 20
168.999975
 30
0.0
 11
241.1999999999999
 21
168.999975
 31
0.0
  0
LINE
  5
466
330
1E
100
AcDbEntity
  8
0
100
AcDbLine
 10
246.0999999999999
 20
168.999975
 30
0.0
 11
244.6
 21
168.999975
 31
0.0
  0
LINE
  5
467
330
1E
100
AcDbEntity
  8
0
100
AcDbLine
 10
245.9
 20
168.999975
 30
0.0
 11
245.4
 21
168.999975
 31
0.0
  0
LINE
  5
468
330
1E
100
AcDbEntity
  8
0
100
AcDbLine
 10
246.4999999999999
 20
168.999975
 30
0.0
 11
245.9
 21
168.999975
 31
0.0
  0
LINE
  5
469
330
1E
100
AcDbEntity
  8
0
100
AcDbLine
 10
244.6
 20
168.999975
 30
0.0
 11
244.0
 21
168.999975
 31
0.0
  0
LINE
  5
46A
330
1E
100
AcDbEntity
  8
0
100
AcDbLine
 10
233.1999999999999
 20
169.299975
 30
0.0
 11
232.0
 21
169.299975
 31
0.0
  0
LINE
  5
46B
330
1E
100
AcDbEntity
  8
0
100
AcDbLine
 10
233.0
 20
168.999975
 30
0.0
 11
232.0
 21
168.999975
 31
0.0
  0
LINE
  5
46C
330
1E
100
AcDbEntity
  8
0
100
AcDbLine
 10
232.5
 20
168.999975
 30
0.0
 11
231.6999999999999
 21
168.999975
 31
0.0
  0
LINE
  5
46D
330
1E
100
AcDbEntity
  8
0
100
AcDbLine
 10
237.0
 20
168.999975
 30
0.0
 11
234.4
 21
168.999975
 31
0.0
  0
LINE
  5
46E
330
1E
100
AcDbEntity
  8
0
100
AcDbLine
 10
234.5
 20
169.299975
 30
0.0
 11
233.1999999999999
 21
169.299975
 31
0.0
  0
LINE
  5
46F
330
1E
100
AcDbEntity
  8
0
100
AcDbLine
 10
234.6999999999999
 20
168.999975
 30
0.0
 11
233.4999999999999
 21
168.999975
 31
0.0
  0
LINE
  5
470
330
1E
100
AcDbEntity
  8
0
100
AcDbLine
 10
234.4
 20
168.999975
 30
0.0
 11
233.4
 21
168.999975
 31
0.0
  0
LINE
  5
471
330
1E
100
AcDbEntity
  8
0
100
AcDbLine
 10
235.6999999999999
 20
168.999975
 30
0.0
 11
233.0
 21
168.999975
 31
0.0
  0
LINE
  5
472
330
1E
100
AcDbEntity
  8
0
100
AcDbLine
 10
236.0
 20
169.299975
 30
0.0
 11
234.5
 21
169.299975
 31
0.0
  0
LINE
  5
473
330
1E
100
AcDbEntity
  8
0
100
AcDbLine
 10
236.0
 20
168.999975
 30
0.0
 11
234.6999999999999
 21
168.999975
 31
0.0
  0
LINE
  5
474
330
1E
100
AcDbEntity
  8
0
100
AcDbLine
 10
233.4999999999999
 20
168.999975
 30
0.0
 11
232.5
 21
168.999975
 31
0.0
  0
LINE
  5
475
330
1E
100
AcDbEntity
  8
0
100
AcDbLine
 10
231.0999999999999
 20
169.299975
 30
0.0
 11
230.5
 21
169.299975
 31
0.0
  0
LINE
  5
476
330
1E
100
AcDbEntity
  8
0
100
AcDbLine
 10
231.0
 20
168.999975
 30
0.0
 11
230.3
 21
169.299975
 31
0.0
  0
LINE
  5
477
330
1E
100
AcDbEntity
  8
0
100
AcDbLine
 10
231.1999999999999
 20
168.999975
 30
0.0
 11
231.0
 21
168.999975
 31
0.0
  0
LINE
  5
478
330
1E
100
AcDbEntity
  8
0
100
AcDbLine
 10
231.6999999999999
 20
168.999975
 30
0.0
 11
231.1999999999999
 21
168.999975
 31
0.0
  0
LINE
  5
479
330
1E
100
AcDbEntity
  8
0
100
AcDbLine
 10
232.0
 20
169.299975
 30
0.0
 11
231.0999999999999
 21
169.299975
 31
0.0
  0
LINE
  5
47A
330
1E
100
AcDbEntity
  8
0
100
AcDbLine
 10
230.0243845318812
 20
170.0480851315148
 30
0.0
 11
230.3
 21
169.299975
 31
0.0
  0
LINE
  5
47B
330
1E
100
AcDbEntity
  8
0
100
AcDbLine
 10
230.5
 20
169.299975
 30
0.0
 11
230.3
 21
169.299975
 31
0.0
  0
LINE
  5
487
330
1E
100
AcDbEntity
  8
0
100
AcDbLine
 10
260.0
 20
175.999975
 30
0.0
 11
236.0
 21
175.999975
 31
0.0
  0
LINE
  5
48C
330
1E
100
AcDbEntity
  8
0
100
AcDbLine
 10
284.0
 20
175.999975
 30
0.0
 11
260.0
 21
175.999975
 31
0.0
  0
LINE
  5
4E4
330
1E
100
AcDbEntity
  8
0
100
AcDbLine
 10
233.0
 20
175.999975
 30
0.0
 11
231.8
 21
175.999975
 31
0.0
  0
LINE
  5
4E5
330
1E
100
AcDbEntity
  8
0
100
AcDbLine
 10
234.5
 20
175.999975
 30
0.0
 11
233.0
 21
175.999975
 31
0.0
  0
LINE
  5
4E6
330
1E
100
AcDbEntity
  8
0
100
AcDbLine
 10
236.0
 20
175.999975
 30
0.0
 11
234.5
 21
175.999975
 31
0.0
  0
LINE
  5
4E7
330
1E
100
AcDbEntity
  8
0
100
AcDbLine
 10
230.8
 20
175.999975
 30
0.0
 11
230.2
 21
175.999975
 31
0.0
  0
LINE
  5
4E8
330
1E
100
AcDbEntity
  8
0
100
AcDbLine
 10
231.8
 20
175.999975
 30
0.0
 11
230.8
 21
175.999975
 31
0.0
  0
LINE
  5
4E9
330
1E
100
AcDbEntity
  8
0
100
AcDbLine
 10
230.2
 20
175.999975
 30
0.0
 11
230.0
 21
175.999975
 31
0.0
  0
ENDSEC
  0
SECTION
  2
OBJECTS
  0
DICTIONARY
  5
C
330
0
100
AcDbDictionary
  3
ACAD_GROUP
350
D
  3
ACAD_LAYOUT
350
19
  3
ACAD_MLINESTYLE
350
16
  3
ACAD_PLOTSETTINGS
350
18
  3
ACAD_PLOTSTYLENAME
350
E
  3
ACDBHEADERROUNDTRIPXREC
350
50D
  3
ACDBVARIABLEDICTIONARY
350
504
  0
DICTIONARY
  5
52F
330
1E
100
AcDbDictionary
280
     1
  3
ACAD_LAYOUTSELFREF
360
530
  0
DICTIONARY
  5
52D
330
1A
100
AcDbDictionary
280
     1
  3
ACAD_LAYOUTSELFREF
360
52E
  0
DICTIONARY
  5
D
102
{ACAD_REACTORS
330
C
102
}
330
C
100
AcDbDictionary
  0
DICTIONARY
  5
19
102
{ACAD_REACTORS
330
C
102
}
330
C
100
AcDbDictionary
  0
DICTIONARY
  5
16
102
{ACAD_REACTORS
330
C
102
}
330
C
100
AcDbDictionary
  3
STANDARD
350
17
  0
DICTIONARY
  5
18
102
{ACAD_REACTORS
330
C
102
}
330
C
100
AcDbDictionary
  0
ACDBDICTIONARYWDFLT
  5
E
102
{ACAD_REACTORS
330
C
102
}
330
C
100
AcDbDictionary
281
     1
  3
Normal
350
F
100
AcDbDictionaryWithDefault
340
F
  0
DICTIONARY
  5
50D
102
{ACAD_REACTORS
330
C
102
}
330
C
100
AcDbDictionary
  3
CEPSNTYPE
350
517
  3
FINGERPRINTGUID
350
518
  3
HYPERLINKBASE
350
510
  3
INSUNITS
350
516
  3
LAYOUTDICT
350
512
  3
LWETCUNION
350
515
  3
PLOTSETDICT
350
513
  3
PLOTSTYLNAMDICT
350
514
  3
PSVPSCALE
350
51A
  3
PUCSBASE
350
51D
  3
PUCSORGBACK
350
523
  3
PUCSORGBOTTOM
350
51F
  3
PUCSORGFRONT
350
522
  3
PUCSORGLEFT
350
520
  3
PUCSORGRIGHT
350
521
  3
PUCSORGTOP
350
51E
  3
PUCSORTHOREF
350
51B
  3
PUCSORTHOVIEW
350
51C
  3
STYLESHEET
350
511
  3
TSTACKALIGN
350
50E
  3
TSTACKSIZE
350
50F
  3
UCSBASE
350
526
  3
UCSORGBACK
350
52C
  3
UCSORGBOTTOM
350
528
  3
UCSORGFRONT
350
52B
  3
UCSORGLEFT
350
529
  3
UCSORGRIGHT
350
52A
  3
UCSORGTOP
350
527
  3
UCSORTHOREF
350
524
  3
UCSORTHOVIEW
350
525
  3
VERSIONGUID
350
519
  0
DICTIONARY
  5
504
102
{ACAD_REACTORS
330
C
102
}
330
C
100
AcDbDictionary
  3
DIMASSOC
350
505
  0
XRECORD
  5
530
102
{ACAD_REACTORS
330
52F
102
}
330
52F
100
AcDbXrecord
340
1E
  0
XRECORD
  5
52E
102
{ACAD_REACTORS
330
52D
102
}
330
52D
100
AcDbXrecord
340
1A
  0
MLINESTYLE
  5
17
102
{ACAD_REACTORS
330
16
102
}
330
16
100
AcDbMlineStyle
  2
STANDARD
 70
     0
  3

 62
   256
 51
90.0
 52
90.0
 71
     2
 49
0.5
 62
   256
  6
BYLAYER
 49
-0.5
 62
   256
  6
BYLAYER
  0
ACDBPLACEHOLDER
  5
F
102
{ACAD_REACTORS
330
E
102
}
330
E
100
AcDbPlaceHolder
280
     0
  0
XRECORD
  5
517
102
{ACAD_REACTORS
330
50D
102
}
330
50D
100
AcDbXrecord
 90
        0
  0
XRECORD
  5
518
102
{ACAD_REACTORS
330
50D
102
}
330
50D
100
AcDbXrecord
  1
{C26D4ED1-AF5C-477B-B282-ECF6F3FE1B8E}
  0
XRECORD
  5
510
102
{ACAD_REACTORS
330
50D
102
}
330
50D
100
AcDbXrecord
  1

  0
XRECORD
  5
516
102
{ACAD_REACTORS
330
50D
102
}
330
50D
100
AcDbXrecord
 90
        0
  0
XRECORD
  5
512
102
{ACAD_REACTORS
330
50D
102
}
330
50D
100
AcDbXrecord
340
19
  0
XRECORD
  5
515
102
{ACAD_REACTORS
330
50D
102
}
330
50D
100
AcDbXrecord
 90
    10781
  0
XRECORD
  5
513
102
{ACAD_REACTORS
330
50D
102
}
330
50D
100
AcDbXrecord
340
18
  0
XRECORD
  5
514
102
{ACAD_REACTORS
330
50D
102
}
330
50D
100
AcDbXrecord
340
E
  0
XRECORD
  5
51A
102
{ACAD_REACTORS
330
50D
102
}
330
50D
100
AcDbXrecord
 40
0.0
  0
XRECORD
  5
51D
102
{ACAD_REACTORS
330
50D
102
}
330
50D
100
AcDbXrecord
340
0
  0
XRECORD
  5
523
102
{ACAD_REACTORS
330
50D
102
}
330
50D
100
AcDbXrecord
 10
0.0
 20
0.0
 30
0.0
  0
XRECORD
  5
51F
102
{ACAD_REACTORS
330
50D
102
}
330
50D
100
AcDbXrecord
 10
0.0
 20
0.0
 30
0.0
  0
XRECORD
  5
522
102
{ACAD_REACTORS
330
50D
102
}
330
50D
100
AcDbXrecord
 10
0.0
 20
0.0
 30
0.0
  0
XRECORD
  5
520
102
{ACAD_REACTORS
330
50D
102
}
330
50D
100
AcDbXrecord
 10
0.0
 20
0.0
 30
0.0
  0
XRECORD
  5
521
102
{ACAD_REACTORS
330
50D
102
}
330
50D
100
AcDbXrecord
 10
0.0
 20
0.0
 30
0.0
  0
XRECORD
  5
51E
102
{ACAD_REACTORS
330
50D
102
}
330
50D
100
AcDbXrecord
 10
0.0
 20
0.0
 30
0.0
  0
XRECORD
  5
51B
102
{ACAD_REACTORS
330
50D
102
}
330
50D
100
AcDbXrecord
340
0
  0
XRECORD
  5
51C
102
{ACAD_REACTORS
330
50D
102
}
330
50D
100
AcDbXrecord
 70
     0
  0
XRECORD
  5
511
102
{ACAD_REACTORS
330
50D
102
}
330
50D
100
AcDbXrecord
  1

  0
XRECORD
  5
50E
102
{ACAD_REACTORS
330
50D
102
}
330
50D
100
AcDbXrecord
 90
        1
  0
XRECORD
  5
50F
102
{ACAD_REACTORS
330
50D
102
}
330
50D
100
AcDbXrecord
 90
       70
  0
XRECORD
  5
526
102
{ACAD_REACTORS
330
50D
102
}
330
50D
100
AcDbXrecord
340
0
  0
XRECORD
  5
52C
102
{ACAD_REACTORS
330
50D
102
}
330
50D
100
AcDbXrecord
 10
0.0
 20
0.0
 30
0.0
  0
XRECORD
  5
528
102
{ACAD_REACTORS
330
50D
102
}
330
50D
100
AcDbXrecord
 10
0.0
 20
0.0
 30
0.0
  0
XRECORD
  5
52B
102
{ACAD_REACTORS
330
50D
102
}
330
50D
100
AcDbXrecord
 10
0.0
 20
0.0
 30
0.0
  0
XRECORD
  5
529
102
{ACAD_REACTORS
330
50D
102
}
330
50D
100
AcDbXrecord
 10
0.0
 20
0.0
 30
0.0
  0
XRECORD
  5
52A
102
{ACAD_REACTORS
330
50D
102
}
330
50D
100
AcDbXrecord
 10
0.0
 20
0.0
 30
0.0
  0
XRECORD
  5
527
102
{ACAD_REACTORS
330
50D
102
}
330
50D
100
AcDbXrecord
 10
0.0
 20
0.0
 30
0.0
  0
XRECORD
  5
524
102
{ACAD_REACTORS
330
50D
102
}
330
50D
100
AcDbXrecord
340
0
  0
XRECORD
  5
525
102
{ACAD_REACTORS
330
50D
102
}
330
50D
100
AcDbXrecord
 70
     1
  0
XRECORD
  5
519
102
{ACAD_REACTORS
330
50D
102
}
330
50D
100
AcDbXrecord
  1
{4944E5FA-824E-4020-9D63-A3FC268B604C}
  0
DICTIONARYVAR
  5
505
102
{ACAD_REACTORS
330
504
102
}
330
504
100
DictionaryVariables
280
     0
  1
1
  0
ENDSEC
  0
EOF
