  0
SECTION
  2
HEADER
  9
$ACADVER
  1
AC1015
  9
$ACADMAINTVER
 70
    13
  9
$DWGCODEPAGE
  3
ANSI_1252
  9
$INSBASE
 10
0.0
 20
0.0
 30
0.0
  9
$EXTMIN
 10
0.0000249999999999
 20
-0.210083000000134
 30
0.0
  9
$EXTMAX
 10
215.999975
 20
95.21008299999989
 30
0.0
  9
$LIMMIN
 10
0.0
 20
0.0
  9
$LIMMAX
 10
12.0
 20
9.0
  9
$ORTHOMODE
 70
     0
  9
$REGENMODE
 70
     1
  9
$FILLMODE
 70
     1
  9
$QTEXTMODE
 70
     0
  9
$MIRRTEXT
 70
     1
  9
$LTSCALE
 40
1.0
  9
$ATTMODE
 70
     1
  9
$TEXTSIZE
 40
0.2
  9
$TRACEWID
 40
0.05
  9
$TEXTSTYLE
  7
Standard
  9
$CLAYER
  8
0
  9
$CELTYPE
  6
Continuous
  9
$CECOLOR
 62
   256
  9
$CELTSCALE
 40
1.0
  9
$DISPSILH
 70
     0
  9
$DIMSCALE
 40
1.0
  9
$DIMASZ
 40
0.18
  9
$DIMEXO
 40
0.0625
  9
$DIMDLI
 40
0.38
  9
$DIMRND
 40
0.0
  9
$DIMDLE
 40
0.0
  9
$DIMEXE
 40
0.18
  9
$DIMTP
 40
0.0
  9
$DIMTM
 40
0.0
  9
$DIMTXT
 40
0.18
  9
$DIMCEN
 40
0.09
  9
$DIMTSZ
 40
0.0
  9
$DIMTOL
 70
     0
  9
$DIMLIM
 70
     0
  9
$DIMTIH
 70
     1
  9
$DIMTOH
 70
     1
  9
$DIMSE1
 70
     0
  9
$DIMSE2
 70
     0
  9
$DIMTAD
 70
     0
  9
$DIMZIN
 70
     0
  9
$DIMBLK
  1

  9
$DIMASO
 70
     1
  9
$DIMSHO
 70
     1
  9
$DIMPOST
  1

  9
$DIMAPOST
  1

  9
$DIMALT
 70
     0
  9
$DIMALTD
 70
     2
  9
$DIMALTF
 40
25.4
  9
$DIMLFAC
 40
1.0
  9
$DIMTOFL
 70
     0
  9
$DIMTVP
 40
0.0
  9
$DIMTIX
 70
     0
  9
$DIMSOXD
 70
     0
  9
$DIMSAH
 70
     0
  9
$DIMBLK1
  1

  9
$DIMBLK2
  1

  9
$DIMSTYLE
  2
Standard
  9
$DIMCLRD
 70
     0
  9
$DIMCLRE
 70
     0
  9
$DIMCLRT
 70
     0
  9
$DIMTFAC
 40
1.0
  9
$DIMGAP
 40
0.09
  9
$DIMJUST
 70
     0
  9
$DIMSD1
 70
     0
  9
$DIMSD2
 70
     0
  9
$DIMTOLJ
 70
     1
  9
$DIMTZIN
 70
     0
  9
$DIMALTZ
 70
     0
  9
$DIMALTTZ
 70
     0
  9
$DIMUPT
 70
     0
  9
$DIMDEC
 70
     4
  9
$DIMTDEC
 70
     4
  9
$DIMALTU
 70
     2
  9
$DIMALTTD
 70
     2
  9
$DIMTXSTY
  7
Standard
  9
$DIMAUNIT
 70
     0
  9
$DIMADEC
 70
     0
  9
$DIMALTRND
 40
0.0
  9
$DIMAZIN
 70
     0
  9
$DIMDSEP
 70
    46
  9
$DIMATFIT
 70
     3
  9
$DIMFRAC
 70
     0
  9
$DIMLDRBLK
  1

  9
$DIMLUNIT
 70
     2
  9
$DIMLWD
 70
    -2
  9
$DIMLWE
 70
    -2
  9
$DIMTMOVE
 70
     0
  9
$LUNITS
 70
     2
  9
$LUPREC
 70
     4
  9
$SKETCHINC
 40
0.1
  9
$FILLETRAD
 40
0.0
  9
$AUNITS
 70
     0
  9
$AUPREC
 70
     0
  9
$MENU
  1
.
  9
$ELEVATION
 40
0.0
  9
$PELEVATION
 40
0.0
  9
$THICKNESS
 40
0.0
  9
$LIMCHECK
 70
     0
  9
$CHAMFERA
 40
0.0
  9
$CHAMFERB
 40
0.0
  9
$CHAMFERC
 40
0.0
  9
$CHAMFERD
 40
0.0
  9
$SKPOLY
 70
     0
  9
$TDCREATE
 40
2454637.838013206
  9
$TDUCREATE
 40
2454637.754679872
  9
$TDUPDATE
 40
2454637.838714699
  9
$TDUUPDATE
 40
2454637.755381365
  9
$TDINDWG
 40
0.0007016782
  9
$TDUSRTIMER
 40
0.0007016782
  9
$USRTIMER
 70
     1
  9
$ANGBASE
 50
0.0
  9
$ANGDIR
 70
     0
  9
$PDMODE
 70
     0
  9
$PDSIZE
 40
0.0
  9
$PLINEWID
 40
0.0
  9
$SPLFRAME
 70
     0
  9
$SPLINETYPE
 70
     6
  9
$SPLINESEGS
 70
     8
  9
$HANDSEED
  5
269
  9
$SURFTAB1
 70
     6
  9
$SURFTAB2
 70
     6
  9
$SURFTYPE
 70
     6
  9
$SURFU
 70
     6
  9
$SURFV
 70
     6
  9
$UCSBASE
  2

  9
$UCSNAME
  2

  9
$UCSORG
 10
0.0
 20
0.0
 30
0.0
  9
$UCSXDIR
 10
1.0
 20
0.0
 30
0.0
  9
$UCSYDIR
 10
0.0
 20
1.0
 30
0.0
  9
$UCSORTHOREF
  2

  9
$UCSORTHOVIEW
 70
     1
  9
$UCSORGTOP
 10
0.0
 20
0.0
 30
0.0
  9
$UCSORGBOTTOM
 10
0.0
 20
0.0
 30
0.0
  9
$UCSORGLEFT
 10
0.0
 20
0.0
 30
0.0
  9
$UCSORGRIGHT
 10
0.0
 20
0.0
 30
0.0
  9
$UCSORGFRONT
 10
0.0
 20
0.0
 30
0.0
  9
$UCSORGBACK
 10
0.0
 20
0.0
 30
0.0
  9
$PUCSBASE
  2

  9
$PUCSNAME
  2

  9
$PUCSORG
 10
0.0
 20
0.0
 30
0.0
  9
$PUCSXDIR
 10
1.0
 20
0.0
 30
0.0
  9
$PUCSYDIR
 10
0.0
 20
1.0
 30
0.0
  9
$PUCSORTHOREF
  2

  9
$PUCSORTHOVIEW
 70
     0
  9
$PUCSORGTOP
 10
0.0
 20
0.0
 30
0.0
  9
$PUCSORGBOTTOM
 10
0.0
 20
0.0
 30
0.0
  9
$PUCSORGLEFT
 10
0.0
 20
0.0
 30
0.0
  9
$PUCSORGRIGHT
 10
0.0
 20
0.0
 30
0.0
  9
$PUCSORGFRONT
 10
0.0
 20
0.0
 30
0.0
  9
$PUCSORGBACK
 10
0.0
 20
0.0
 30
0.0
  9
$USERI1
 70
     0
  9
$USERI2
 70
     0
  9
$USERI3
 70
     0
  9
$USERI4
 70
     0
  9
$USERI5
 70
     0
  9
$USERR1
 40
0.0
  9
$USERR2
 40
0.0
  9
$USERR3
 40
0.0
  9
$USERR4
 40
0.0
  9
$USERR5
 40
0.0
  9
$WORLDVIEW
 70
     1
  9
$SHADEDGE
 70
     3
  9
$SHADEDIF
 70
    70
  9
$TILEMODE
 70
     1
  9
$MAXACTVP
 70
    64
  9
$PINSBASE
 10
0.0
 20
0.0
 30
0.0
  9
$PLIMCHECK
 70
     0
  9
$PEXTMIN
 10
1.000000000000000E+20
 20
1.000000000000000E+20
 30
1.000000000000000E+20
  9
$PEXTMAX
 10
-1.000000000000000E+20
 20
-1.000000000000000E+20
 30
-1.000000000000000E+20
  9
$PLIMMIN
 10
0.0
 20
0.0
  9
$PLIMMAX
 10
12.0
 20
9.0
  9
$UNITMODE
 70
     0
  9
$VISRETAIN
 70
     1
  9
$PLINEGEN
 70
     0
  9
$PSLTSCALE
 70
     1
  9
$TREEDEPTH
 70
  3020
  9
$CMLSTYLE
  2
Standard
  9
$CMLJUST
 70
     0
  9
$CMLSCALE
 40
1.0
  9
$PROXYGRAPHICS
 70
     1
  9
$MEASUREMENT
 70
     0
  9
$CELWEIGHT
370
    -1
  9
$ENDCAPS
280
     0
  9
$JOINSTYLE
280
     0
  9
$LWDISPLAY
290
     0
  9
$INSUNITS
 70
     0
  9
$HYPERLINKBASE
  1

  9
$STYLESHEET
  1

  9
$XEDIT
290
     1
  9
$CEPSNTYPE
380
     0
  9
$PSTYLEMODE
290
     1
  9
$FINGERPRINTGUID
  2
{20214230-610C-467D-9FE1-5208997CEA61}
  9
$VERSIONGUID
  2
{29C90638-90BA-4D49-8B0C-5B5EE7FF94B9}
  9
$EXTNAMES
290
     1
  9
$PSVPSCALE
 40
0.0
  9
$OLESTARTUP
290
     0
  0
ENDSEC
  0
SECTION
  2
CLASSES
  0
CLASS
  1
ACDBDICTIONARYWDFLT
  2
AcDbDictionaryWithDefault
  3
AutoCAD 2000
 90
        0
280
     0
281
     0
  0
CLASS
  1
ACDBPLACEHOLDER
  2
AcDbPlaceHolder
  3
AutoCAD 2000
 90
        0
280
     0
281
     0
  0
CLASS
  1
LAYOUT
  2
AcDbLayout
  3
AutoCAD 2000
 90
        0
280
     0
281
     0
  0
CLASS
  1
DICTIONARYVAR
  2
AcDbDictionaryVar
  3
AutoCAD 2000
 90
        0
280
     0
281
     0
  0
ENDSEC
  0
SECTION
  2
TABLES
  0
TABLE
  2
VPORT
  5
8
330
0
100
AcDbSymbolTable
 70
     2
  0
VPORT
  5
268
330
8
100
AcDbSymbolTableRecord
100
AcDbViewportTableRecord
  2
*Active
 70
     0
 10
0.0
 20
0.0
 11
1.0
 21
1.0
 12
108.0
 22
47.49999999999988
 13
0.0
 23
0.0
 14
1.0
 24
1.0
 15
0.0
 25
0.0
 16
0.0
 26
0.0
 36
1.0
 17
0.0
 27
0.0
 37
0.0
 40
106.0963403353601
 41
2.043533930857874
 42
50.0
 43
0.0
 44
0.0
 50
0.0
 51
0.0
 71
     0
 72
   100
 73
     1
 74
     3
 75
     0
 76
     0
 77
     0
 78
     0
281
     0
 65
     1
110
0.0
120
0.0
130
0.0
111
1.0
121
0.0
131
0.0
112
0.0
122
1.0
132
0.0
 79
     1
146
0.0
  0
ENDTAB
  0
TABLE
  2
LTYPE
  5
5
330
0
100
AcDbSymbolTable
 70
     1
  0
LTYPE
  5
13
330
5
100
AcDbSymbolTableRecord
100
AcDbLinetypeTableRecord
  2
ByBlock
 70
     0
  3

 72
    65
 73
     0
 40
0.0
  0
LTYPE
  5
14
330
5
100
AcDbSymbolTableRecord
100
AcDbLinetypeTableRecord
  2
ByLayer
 70
     0
  3

 72
    65
 73
     0
 40
0.0
  0
LTYPE
  5
15
330
5
100
AcDbSymbolTableRecord
100
AcDbLinetypeTableRecord
  2
Continuous
 70
     0
  3
Solid line
 72
    65
 73
     0
 40
0.0
  0
ENDTAB
  0
TABLE
  2
LAYER
  5
2
330
0
100
AcDbSymbolTable
 70
     1
  0
LAYER
  5
10
330
2
100
AcDbSymbolTableRecord
100
AcDbLayerTableRecord
  2
0
 70
     0
 62
     7
  6
Continuous
370
    -3
390
F
  0
ENDTAB
  0
TABLE
  2
STYLE
  5
3
330
0
100
AcDbSymbolTable
 70
     1
  0
STYLE
  5
11
330
3
100
AcDbSymbolTableRecord
100
AcDbTextStyleTableRecord
  2
Standard
 70
     0
 40
0.0
 41
1.0
 50
0.0
 71
     0
 42
0.2
  3
txt
  4

  0
ENDTAB
  0
TABLE
  2
VIEW
  5
6
330
0
100
AcDbSymbolTable
 70
     0
  0
ENDTAB
  0
TABLE
  2
UCS
  5
7
330
0
100
AcDbSymbolTable
 70
     0
  0
ENDTAB
  0
TABLE
  2
APPID
  5
9
330
0
100
AcDbSymbolTable
 70
     1
  0
APPID
  5
12
330
9
100
AcDbSymbolTableRecord
100
AcDbRegAppTableRecord
  2
ACAD
 70
     0
  0
ENDTAB
  0
TABLE
  2
DIMSTYLE
  5
A
330
0
100
AcDbSymbolTable
 70
     1
100
AcDbDimStyleTable
 71
     0
  0
DIMSTYLE
105
262
330
A
100
AcDbSymbolTableRecord
100
AcDbDimStyleTableRecord
  2
Standard
 70
     0
340
11
  0
ENDTAB
  0
TABLE
  2
BLOCK_RECORD
  5
1
330
0
100
AcDbSymbolTable
 70
     0
  0
BLOCK_RECORD
  5
1E
330
1
100
AcDbSymbolTableRecord
100
AcDbBlockTableRecord
  2
*Model_Space
340
21
  0
BLOCK_RECORD
  5
1A
330
1
100
AcDbSymbolTableRecord
100
AcDbBlockTableRecord
  2
*Paper_Space
340
1D
  0
ENDTAB
  0
ENDSEC
  0
SECTION
  2
BLOCKS
  0
BLOCK
  5
1F
330
1E
100
AcDbEntity
  8
0
100
AcDbBlockBegin
  2
*Model_Space
 70
     0
 10
0.0
 20
0.0
 30
0.0
  3
*Model_Space
  1

  0
ENDBLK
  5
20
330
1E
100
AcDbEntity
  8
0
100
AcDbBlockEnd
  0
BLOCK
  5
1B
330
1A
100
AcDbEntity
 67
     1
  8
0
100
AcDbBlockBegin
  2
*Paper_Space
 70
     0
 10
0.0
 20
0.0
 30
0.0
  3
*Paper_Space
  1

  0
ENDBLK
  5
1C
330
1A
100
AcDbEntity
 67
     1
  8
0
100
AcDbBlockEnd
  0
ENDSEC
  0
SECTION
  2
ENTITIES
  0
LINE
  5
22
330
1E
100
AcDbEntity
  8
0
100
AcDbLine
 10
18.716875
 20
-0.0732750000001335
 30
0.0
 11
19.092675
 21
-0.210083000000134
 31
0.0
  0
LINE
  5
23
330
1E
100
AcDbEntity
  8
0
100
AcDbLine
 10
19.73357499999999
 20
0.0887529999998665
 30
0.0
 11
33.712675
 21
38.82048299999989
 31
0.0
  0
LINE
  5
24
330
1E
100
AcDbEntity
  8
0
100
AcDbLine
 10
19.092675
 20
-0.210083000000134
 30
0.0
 11
19.73357499999999
 21
0.0887529999998665
 31
0.0
  0
LINE
  5
25
330
1E
100
AcDbEntity
  8
0
100
AcDbLine
 10
19.092675
 20
-0.210083000000134
 30
0.0
 11
19.73357499999999
 21
0.0887529999998665
 31
0.0
  0
LINE
  5
26
330
1E
100
AcDbEntity
  8
0
100
AcDbLine
 10
18.716875
 20
-0.0732750000001335
 30
0.0
 11
19.092675
 21
-0.210083000000134
 31
0.0
  0
LINE
  5
27
330
1E
100
AcDbEntity
  8
0
100
AcDbLine
 10
13.92437499999999
 20
1.67102299999987
 30
0.0
 11
15.709775
 21
1.02119299999987
 31
0.0
  0
LINE
  5
28
330
1E
100
AcDbEntity
  8
0
100
AcDbLine
 10
14.394275
 20
1.500022999999869
 30
0.0
 11
16.36757499999999
 21
0.7817729999998661
 31
0.0
  0
LINE
  5
29
330
1E
100
AcDbEntity
  8
0
100
AcDbLine
 10
14.753175
 20
1.90146299999987
 30
0.0
 11
16.82047499999999
 21
1.14901299999987
 31
0.0
  0
LINE
  5
2A
330
1E
100
AcDbEntity
  8
0
100
AcDbLine
 10
12.42823249368
 20
2.21558471280424
 30
0.0
 11
13.92437499999999
 21
1.67102299999987
 31
0.0
  0
LINE
  5
2B
330
1E
100
AcDbEntity
  8
0
100
AcDbLine
 10
12.42823249368
 20
2.21558471280424
 30
0.0
 11
13.92437499999999
 21
1.67102299999987
 31
0.0
  0
LINE
  5
2C
330
1E
100
AcDbEntity
  8
0
100
AcDbLine
 10
15.709775
 20
1.02119299999987
 30
0.0
 11
16.1292325641158
 21
0.8685258782109091
 31
0.0
  0
LINE
  5
2D
330
1E
100
AcDbEntity
  8
0
100
AcDbLine
 10
15.709775
 20
1.02119299999987
 30
0.0
 11
16.1292325641158
 21
0.8685258782109091
 31
0.0
  0
LINE
  5
2E
330
1E
100
AcDbEntity
  8
0
100
AcDbLine
 10
0.6747380000000001
 20
6.49351299999987
 30
0.0
 11
1.520464999999999
 21
6.185692999999869
 31
0.0
  0
LINE
  5
2F
330
1E
100
AcDbEntity
  8
0
100
AcDbLine
 10
2.366184999999999
 20
5.87787299999987
 30
0.0
 11
3.681755
 21
5.39904299999987
 31
0.0
  0
LINE
  5
30
330
1E
100
AcDbEntity
  8
0
100
AcDbLine
 10
3.023965
 20
5.63846299999987
 30
0.0
 11
4.997325
 21
4.92022299999987
 31
0.0
  0
LINE
  5
31
330
1E
100
AcDbEntity
  8
0
100
AcDbLine
 10
9.695785
 20
3.21012299999987
 30
0.0
 11
12.138975
 21
2.32086299999987
 31
0.0
  0
LINE
  5
32
330
1E
100
AcDbEntity
  8
0
100
AcDbLine
 10
9.866794999999999
 20
3.67996299999987
 30
0.0
 11
12.403975
 21
2.756512999999869
 31
0.0
  0
LINE
  5
33
330
1E
100
AcDbEntity
  8
0
100
AcDbLine
 10
12.403975
 20
2.756512999999869
 30
0.0
 11
14.753175
 21
1.90146299999987
 31
0.0
  0
LINE
  5
34
330
1E
100
AcDbEntity
  8
0
100
AcDbLine
 10
6.30445400292175
 20
4.44446550771591
 30
0.0
 11
7.534494999999999
 21
3.996762999999869
 31
0.0
  0
LINE
  5
35
330
1E
100
AcDbEntity
  8
0
100
AcDbLine
 10
6.304454002921719
 20
4.44446550771592
 30
0.0
 11
7.534494999999999
 21
3.996762999999869
 31
0.0
  0
LINE
  5
36
330
1E
100
AcDbEntity
  8
0
100
AcDbLine
 10
7.252585
 20
4.09937299999987
 30
0.0
 11
9.695785
 21
3.21012299999987
 31
0.0
  0
LINE
  5
37
330
1E
100
AcDbEntity
  8
0
100
AcDbLine
 10
4.997325
 20
4.92022299999987
 30
0.0
 11
7.252585
 21
4.09937299999987
 31
0.0
  0
LINE
  5
38
330
1E
100
AcDbEntity
  8
0
100
AcDbLine
 10
7.329625
 20
4.603422999999869
 30
0.0
 11
9.866794999999999
 21
3.67996299999987
 31
0.0
  0
LINE
  5
39
330
1E
100
AcDbEntity
  8
0
100
AcDbLine
 10
4.980394999999999
 20
5.45847299999987
 30
0.0
 11
7.329625
 21
4.603422999999869
 31
0.0
  0
LINE
  5
3A
330
1E
100
AcDbEntity
  8
0
100
AcDbLine
 10
7.534494999999999
 20
3.996762999999869
 30
0.0
 11
9.695785
 21
3.21012299999987
 31
0.0
  0
LINE
  5
3B
330
1E
100
AcDbEntity
  8
0
100
AcDbLine
 10
3.681755
 20
5.39904299999987
 30
0.0
 11
5.1723303468045
 21
4.85652606974594
 31
0.0
  0
LINE
  5
3C
330
1E
100
AcDbEntity
  8
0
100
AcDbLine
 10
3.681755
 20
5.39904299999987
 30
0.0
 11
5.1723303468045
 21
4.85652606974594
 31
0.0
  0
LINE
  5
3D
330
1E
100
AcDbEntity
  8
0
100
AcDbLine
 10
2.913075
 20
6.21091299999987
 30
0.0
 11
4.980394999999999
 21
5.45847299999987
 31
0.0
  0
LINE
  5
3E
330
1E
100
AcDbEntity
  8
0
100
AcDbLine
 10
1.520464999999999
 20
6.185692999999869
 30
0.0
 11
2.366184999999999
 21
5.87787299999987
 31
0.0
  0
LINE
  5
3F
330
1E
100
AcDbEntity
  8
0
100
AcDbLine
 10
1.520464999999999
 20
6.185692999999869
 30
0.0
 11
3.023965
 21
5.63846299999987
 31
0.0
  0
LINE
  5
40
330
1E
100
AcDbEntity
  8
0
100
AcDbLine
 10
0.6747380000000001
 20
6.49351299999987
 30
0.0
 11
1.520464999999999
 21
6.185692999999869
 31
0.0
  0
LINE
  5
41
330
1E
100
AcDbEntity
  8
0
100
AcDbLine
 10
0.375902
 20
7.134362999999869
 30
0.0
 11
1.315595
 21
6.79234299999987
 31
0.0
  0
LINE
  5
42
330
1E
100
AcDbEntity
  8
0
100
AcDbLine
 10
1.315595
 20
6.79234299999987
 30
0.0
 11
2.913075
 21
6.21091299999987
 31
0.0
  0
LINE
  5
43
330
1E
100
AcDbEntity
  8
0
100
AcDbLine
 10
0.375902
 20
7.134362999999869
 30
0.0
 11
1.315595
 21
6.79234299999987
 31
0.0
  0
LINE
  5
44
330
1E
100
AcDbEntity
  8
0
100
AcDbLine
 10
0.0000250000000002
 20
7.27117299999987
 30
0.0
 11
14.311175
 21
46.85678299999989
 31
0.0
  0
LINE
  5
45
330
1E
100
AcDbEntity
  8
0
100
AcDbLine
 10
14.311175
 20
46.85678299999989
 30
0.0
 11
16.82787499999999
 21
51.9600829999999
 31
0.0
  0
LINE
  5
46
330
1E
100
AcDbEntity
  8
0
100
AcDbLine
 10
0.0000249999999999
 20
7.27117299999987
 30
0.0
 11
0.298861
 21
6.63032299999987
 31
0.0
  0
LINE
  5
47
330
1E
100
AcDbEntity
  8
0
100
AcDbLine
 10
0.0000249999999999
 20
7.27117299999987
 30
0.0
 11
0.375902
 21
7.134362999999869
 31
0.0
  0
LINE
  5
48
330
1E
100
AcDbEntity
  8
0
100
AcDbLine
 10
0.298861
 20
6.63032299999987
 30
0.0
 11
0.6747380000000001
 21
6.49351299999987
 31
0.0
  0
LINE
  5
49
330
1E
100
AcDbEntity
  8
0
100
AcDbLine
 10
0.0000249999999999
 20
7.27117299999987
 30
0.0
 11
14.311175
 21
46.85678299999989
 31
0.0
  0
LINE
  5
4A
330
1E
100
AcDbEntity
  8
0
100
AcDbLine
 10
0.0000249999999999
 20
7.27117299999987
 30
0.0
 11
0.375902
 21
7.134362999999869
 31
0.0
  0
LINE
  5
4B
330
1E
100
AcDbEntity
  8
0
100
AcDbLine
 10
0.0000249999999999
 20
7.27117299999987
 30
0.0
 11
0.298861
 21
6.63032299999987
 31
0.0
  0
LINE
  5
4C
330
1E
100
AcDbEntity
  8
0
100
AcDbLine
 10
12.138975
 20
2.32086299999987
 30
0.0
 11
12.42823249368
 21
2.21558471280424
 31
0.0
  0
LINE
  5
4D
330
1E
100
AcDbEntity
  8
0
100
AcDbLine
 10
12.138975
 20
2.32086299999987
 30
0.0
 11
12.42823249368
 21
2.21558471280424
 31
0.0
  0
LINE
  5
4E
330
1E
100
AcDbEntity
  8
0
100
AcDbLine
 10
12.138975
 20
2.32086299999987
 30
0.0
 11
14.394275
 21
1.500022999999869
 31
0.0
  0
LINE
  5
4F
330
1E
100
AcDbEntity
  8
0
100
AcDbLine
 10
19.357675
 20
0.225562999999866
 30
0.0
 11
19.73357499999999
 21
0.0887529999998665
 31
0.0
  0
LINE
  5
50
330
1E
100
AcDbEntity
  8
0
100
AcDbLine
 10
19.357675
 20
0.225562999999866
 30
0.0
 11
19.73357499999999
 21
0.0887529999998665
 31
0.0
  0
LINE
  5
51
330
1E
100
AcDbEntity
  8
0
100
AcDbLine
 10
18.1529735431461
 20
0.131949661439757
 30
0.0
 11
18.716875
 21
-0.0732750000001335
 31
0.0
  0
LINE
  5
52
330
1E
100
AcDbEntity
  8
0
100
AcDbLine
 10
16.82047499999999
 20
1.14901299999987
 30
0.0
 11
18.417975
 21
0.567582999999866
 31
0.0
  0
LINE
  5
53
330
1E
100
AcDbEntity
  8
0
100
AcDbLine
 10
18.417975
 20
0.567582999999866
 30
0.0
 11
19.357675
 21
0.225562999999866
 31
0.0
  0
LINE
  5
54
330
1E
100
AcDbEntity
  8
0
100
AcDbLine
 10
19.98907499999999
 20
56.6911829999999
 30
0.0
 11
23.74087499999999
 21
60.96918299999989
 31
0.0
  0
LINE
  5
55
330
1E
100
AcDbEntity
  8
0
100
AcDbLine
 10
16.82787499999999
 20
51.9600829999999
 30
0.0
 11
19.98907499999999
 21
56.6911829999999
 31
0.0
  0
LINE
  5
56
330
1E
100
AcDbEntity
  8
0
100
AcDbLine
 10
33.712675
 20
38.82048299999989
 30
0.0
 11
35.014375
 21
41.4600829999999
 31
0.0
  0
LINE
  5
57
330
1E
100
AcDbEntity
  8
0
100
AcDbLine
 10
36.64957499999999
 20
43.90718299999989
 30
0.0
 11
38.590075
 21
46.1199829999999
 31
0.0
  0
LINE
  5
58
330
1E
100
AcDbEntity
  8
0
100
AcDbLine
 10
35.014375
 20
41.4600829999999
 30
0.0
 11
36.64957499999999
 21
43.90718299999989
 31
0.0
  0
LINE
  5
59
330
1E
100
AcDbEntity
  8
0
100
AcDbLine
 10
32.749975
 20
67.8821829999998
 30
0.0
 11
37.85327499999999
 21
70.39888299999979
 31
0.0
  0
LINE
  5
5A
330
1E
100
AcDbEntity
  8
0
100
AcDbLine
 10
37.85327499999999
 20
70.39888299999979
 30
0.0
 11
43.24137499999999
 21
72.2278829999999
 31
0.0
  0
LINE
  5
5B
330
1E
100
AcDbEntity
  8
0
100
AcDbLine
 10
43.249975
 20
49.69568299999989
 30
0.0
 11
45.889575
 21
50.99738299999989
 31
0.0
  0
LINE
  5
5C
330
1E
100
AcDbEntity
  8
0
100
AcDbLine
 10
45.889575
 20
50.99738299999989
 30
0.0
 11
48.67657499999999
 21
51.9433829999999
 31
0.0
  0
LINE
  5
5D
330
1E
100
AcDbEntity
  8
0
100
AcDbLine
 10
51.563175
 20
52.51758299999989
 30
0.0
 11
54.499975
 21
52.7100829999999
 31
0.0
  0
LINE
  5
5E
330
1E
100
AcDbEntity
  8
0
100
AcDbLine
 10
48.82207499999999
 20
73.3379829999999
 30
0.0
 11
54.499975
 21
73.71008299999989
 31
0.0
  0
LINE
  5
5F
330
1E
100
AcDbEntity
  8
0
100
AcDbLine
 10
48.67657499999999
 20
51.9433829999999
 30
0.0
 11
51.563175
 21
52.51758299999989
 31
0.0
  0
LINE
  5
60
330
1E
100
AcDbEntity
  8
0
100
AcDbLine
 10
43.24137499999999
 20
72.2278829999999
 30
0.0
 11
48.82207499999999
 21
73.3379829999999
 31
0.0
  0
LINE
  5
61
330
1E
100
AcDbEntity
  8
0
100
AcDbLine
 10
40.80287499999999
 20
48.06048299999989
 30
0.0
 11
43.249975
 21
49.69568299999989
 31
0.0
  0
LINE
  5
62
330
1E
100
AcDbEntity
  8
0
100
AcDbLine
 10
28.018875
 20
64.72098299999989
 30
0.0
 11
32.749975
 21
67.8821829999998
 31
0.0
  0
LINE
  5
63
330
1E
100
AcDbEntity
  8
0
100
AcDbLine
 10
38.590075
 20
46.1199829999999
 30
0.0
 11
40.80287499999999
 21
48.06048299999989
 31
0.0
  0
LINE
  5
64
330
1E
100
AcDbEntity
  8
0
100
AcDbLine
 10
23.74087499999999
 20
60.96918299999989
 30
0.0
 11
28.018875
 21
64.72098299999989
 31
0.0
  0
LINE
  5
65
330
1E
100
AcDbEntity
  8
0
100
AcDbLine
 10
17.871075
 20
0.234542999999866
 30
0.0
 11
18.152975
 21
0.131936999999867
 31
0.0
  0
LINE
  5
66
330
1E
100
AcDbEntity
  8
0
100
AcDbLine
 10
17.871075
 20
0.234542999999866
 30
0.0
 11
18.716875
 21
-0.0732750000001335
 31
0.0
  0
LINE
  5
67
330
1E
100
AcDbEntity
  8
0
100
AcDbLine
 10
17.871075
 20
0.234542999999866
 30
0.0
 11
18.716875
 21
-0.0732750000001335
 31
0.0
  0
LINE
  5
68
330
1E
100
AcDbEntity
  8
0
100
AcDbLine
 10
16.36757499999999
 20
0.7817729999998661
 30
0.0
 11
17.871075
 21
0.234542999999866
 31
0.0
  0
LINE
  5
69
330
1E
100
AcDbEntity
  8
0
100
AcDbLine
 10
19.73357499999999
 20
0.0887529999998685
 30
0.0
 11
33.712675
 21
38.82048299999989
 31
0.0
  0
LINE
  5
6A
330
1E
100
AcDbEntity
  8
0
100
AcDbLine
 10
125.499975
 20
52.7100829999999
 30
0.0
 11
126.9999749999999
 21
52.7100829999999
 31
0.0
  0
LINE
  5
6B
330
1E
100
AcDbEntity
  8
0
100
AcDbLine
 10
162.999975
 20
52.7100829999999
 30
0.0
 11
163.399975
 21
52.91008299999989
 31
0.0
  0
LINE
  5
6C
330
1E
100
AcDbEntity
  8
0
100
AcDbLine
 10
139.999975
 20
52.7100829999999
 30
0.0
 11
162.999975
 21
52.7100829999999
 31
0.0
  0
LINE
  5
6D
330
1E
100
AcDbEntity
  8
0
100
AcDbLine
 10
137.599975
 20
52.7100829999999
 30
0.0
 11
139.999975
 21
52.7100829999999
 31
0.0
  0
LINE
  5
6E
330
1E
100
AcDbEntity
  8
0
100
AcDbLine
 10
134.599975
 20
52.7100829999999
 30
0.0
 11
137.599975
 21
52.7100829999999
 31
0.0
  0
LINE
  5
6F
330
1E
100
AcDbEntity
  8
0
100
AcDbLine
 10
131.799975
 20
52.7100829999999
 30
0.0
 11
134.599975
 21
52.7100829999999
 31
0.0
  0
LINE
  5
70
330
1E
100
AcDbEntity
  8
0
100
AcDbLine
 10
129.2999749999999
 20
52.7100829999999
 30
0.0
 11
131.799975
 21
52.7100829999999
 31
0.0
  0
LINE
  5
71
330
1E
100
AcDbEntity
  8
0
100
AcDbLine
 10
127.899975
 20
52.7100829999999
 30
0.0
 11
129.2999749999999
 21
52.7100829999999
 31
0.0
  0
LINE
  5
72
330
1E
100
AcDbEntity
  8
0
100
AcDbLine
 10
127.1999749999999
 20
52.7100829999999
 30
0.0
 11
127.899975
 21
52.7100829999999
 31
0.0
  0
LINE
  5
73
330
1E
100
AcDbEntity
  8
0
100
AcDbLine
 10
124.999975
 20
53.6100829999999
 30
0.0
 11
124.999975
 21
53.2100829999999
 31
0.0
  0
LINE
  5
74
330
1E
100
AcDbEntity
  8
0
100
AcDbLine
 10
124.999975
 20
53.6100829999999
 30
0.0
 11
124.999975
 21
54.5100829999999
 31
0.0
  0
LINE
  5
75
330
1E
100
AcDbEntity
  8
0
100
AcDbLine
 10
124.999975
 20
54.5100829999999
 30
0.0
 11
124.999975
 21
53.6100829999999
 31
0.0
  0
LINE
  5
76
330
1E
100
AcDbEntity
  8
0
100
AcDbLine
 10
124.999975
 20
54.5100829999999
 30
0.0
 11
124.999975
 21
56.1100829999999
 31
0.0
  0
LINE
  5
77
330
1E
100
AcDbEntity
  8
0
100
AcDbLine
 10
124.999975
 20
56.1100829999999
 30
0.0
 11
124.999975
 21
54.5100829999999
 31
0.0
  0
LINE
  5
78
330
1E
100
AcDbEntity
  8
0
100
AcDbLine
 10
124.999975
 20
56.1100829999999
 30
0.0
 11
124.999975
 21
58.2100829999999
 31
0.0
  0
LINE
  5
79
330
1E
100
AcDbEntity
  8
0
100
AcDbLine
 10
124.999975
 20
58.2100829999999
 30
0.0
 11
124.999975
 21
63.2100829999999
 31
0.0
  0
LINE
  5
7A
330
1E
100
AcDbEntity
  8
0
100
AcDbLine
 10
124.999975
 20
58.2100829999999
 30
0.0
 11
124.999975
 21
56.1100829999999
 31
0.0
  0
LINE
  5
7B
330
1E
100
AcDbEntity
  8
0
100
AcDbLine
 10
124.999975
 20
53.2100829999999
 30
0.0
 11
125.1999749999999
 21
52.91008299999989
 31
0.0
  0
LINE
  5
7C
330
1E
100
AcDbEntity
  8
0
100
AcDbLine
 10
124.999975
 20
53.2100829999999
 30
0.0
 11
124.999975
 21
53.6100829999999
 31
0.0
  0
LINE
  5
7D
330
1E
100
AcDbEntity
  8
0
100
AcDbLine
 10
124.999975
 20
63.2100829999999
 30
0.0
 11
124.999975
 21
65.81008299999989
 31
0.0
  0
LINE
  5
7E
330
1E
100
AcDbEntity
  8
0
100
AcDbLine
 10
124.999975
 20
63.2100829999999
 30
0.0
 11
124.999975
 21
58.2100829999999
 31
0.0
  0
LINE
  5
7F
330
1E
100
AcDbEntity
  8
0
100
AcDbLine
 10
125.499975
 20
52.7100829999999
 30
0.0
 11
125.499975
 21
55.7100829999999
 31
0.0
  0
LINE
  5
80
330
1E
100
AcDbEntity
  8
0
100
AcDbLine
 10
125.499975
 20
55.7100829999999
 30
0.0
 11
125.499975
 21
52.7100829999999
 31
0.0
  0
LINE
  5
81
330
1E
100
AcDbEntity
  8
0
100
AcDbLine
 10
125.499975
 20
55.7100829999999
 30
0.0
 11
125.499975
 21
68.4100829999999
 31
0.0
  0
LINE
  5
82
330
1E
100
AcDbEntity
  8
0
100
AcDbLine
 10
125.499975
 20
68.4100829999999
 30
0.0
 11
125.499975
 21
55.7100829999999
 31
0.0
  0
LINE
  5
83
330
1E
100
AcDbEntity
  8
0
100
AcDbLine
 10
125.1999749999999
 20
52.91008299999989
 30
0.0
 11
125.499975
 21
52.7100829999999
 31
0.0
  0
LINE
  5
84
330
1E
100
AcDbEntity
  8
0
100
AcDbLine
 10
124.999975
 20
65.81008299999989
 30
0.0
 11
124.999975
 21
68.2100829999999
 31
0.0
  0
LINE
  5
85
330
1E
100
AcDbEntity
  8
0
100
AcDbLine
 10
124.999975
 20
65.81008299999989
 30
0.0
 11
124.999975
 21
63.2100829999999
 31
0.0
  0
LINE
  5
86
330
1E
100
AcDbEntity
  8
0
100
AcDbLine
 10
124.999975
 20
71.9100829999999
 30
0.0
 11
124.999975
 21
70.31008299999989
 31
0.0
  0
LINE
  5
87
330
1E
100
AcDbEntity
  8
0
100
AcDbLine
 10
124.999975
 20
71.9100829999999
 30
0.0
 11
124.999975
 21
72.8100829999999
 31
0.0
  0
LINE
  5
88
330
1E
100
AcDbEntity
  8
0
100
AcDbLine
 10
124.999975
 20
70.31008299999989
 30
0.0
 11
124.999975
 21
68.2100829999999
 31
0.0
  0
LINE
  5
89
330
1E
100
AcDbEntity
  8
0
100
AcDbLine
 10
124.999975
 20
70.31008299999989
 30
0.0
 11
124.999975
 21
71.9100829999999
 31
0.0
  0
LINE
  5
8A
330
1E
100
AcDbEntity
  8
0
100
AcDbLine
 10
124.999975
 20
68.2100829999999
 30
0.0
 11
124.999975
 21
65.81008299999989
 31
0.0
  0
LINE
  5
8B
330
1E
100
AcDbEntity
  8
0
100
AcDbLine
 10
124.999975
 20
68.2100829999999
 30
0.0
 11
124.999975
 21
70.31008299999989
 31
0.0
  0
LINE
  5
8C
330
1E
100
AcDbEntity
  8
0
100
AcDbLine
 10
125.499975
 20
68.4100829999999
 30
0.0
 11
125.499975
 21
70.7100829999999
 31
0.0
  0
LINE
  5
8D
330
1E
100
AcDbEntity
  8
0
100
AcDbLine
 10
124.999975
 20
72.8100829999999
 30
0.0
 11
124.999975
 21
73.2100829999999
 31
0.0
  0
LINE
  5
8E
330
1E
100
AcDbEntity
  8
0
100
AcDbLine
 10
124.999975
 20
72.8100829999999
 30
0.0
 11
124.999975
 21
71.9100829999999
 31
0.0
  0
LINE
  5
8F
330
1E
100
AcDbEntity
  8
0
100
AcDbLine
 10
125.499975
 20
72.31008299999991
 30
0.0
 11
125.499975
 21
70.7100829999999
 31
0.0
  0
LINE
  5
90
330
1E
100
AcDbEntity
  8
0
100
AcDbLine
 10
126.9999749999999
 20
53.01008299999989
 30
0.0
 11
126.9999749999999
 21
54.1100829999999
 31
0.0
  0
LINE
  5
91
330
1E
100
AcDbEntity
  8
0
100
AcDbLine
 10
126.9999749999999
 20
53.01008299999989
 30
0.0
 11
126.9999749999999
 21
52.7100829999999
 31
0.0
  0
LINE
  5
92
330
1E
100
AcDbEntity
  8
0
100
AcDbLine
 10
126.9999749999999
 20
70.7100829999999
 30
0.0
 11
126.9999749999999
 21
54.1100829999999
 31
0.0
  0
LINE
  5
94
330
1E
100
AcDbEntity
  8
0
100
AcDbLine
 10
126.9999749999999
 20
54.1100829999999
 30
0.0
 11
126.9999749999999
 21
70.7100829999999
 31
0.0
  0
LINE
  5
95
330
1E
100
AcDbEntity
  8
0
100
AcDbLine
 10
126.9999749999999
 20
54.1100829999999
 30
0.0
 11
126.9999749999999
 21
53.01008299999989
 31
0.0
  0
LINE
  5
97
330
1E
100
AcDbEntity
  8
0
100
AcDbLine
 10
126.9999749999999
 20
72.31008299999991
 30
0.0
 11
126.9999749999999
 21
73.4100829999999
 31
0.0
  0
LINE
  5
98
330
1E
100
AcDbEntity
  8
0
100
AcDbLine
 10
126.9999749999999
 20
72.31008299999991
 30
0.0
 11
126.9999749999999
 21
70.7100829999999
 31
0.0
  0
LINE
  5
99
330
1E
100
AcDbEntity
  8
0
100
AcDbLine
 10
126.9999749999999
 20
70.7100829999999
 30
0.0
 11
126.9999749999999
 21
72.31008299999991
 31
0.0
  0
LINE
  5
9A
330
1E
100
AcDbEntity
  8
0
100
AcDbLine
 10
125.499975
 20
70.7100829999999
 30
0.0
 11
125.499975
 21
68.4100829999999
 31
0.0
  0
LINE
  5
9B
330
1E
100
AcDbEntity
  8
0
100
AcDbLine
 10
125.499975
 20
70.7100829999999
 30
0.0
 11
125.499975
 21
73.71008299999989
 31
0.0
  0
LINE
  5
9C
330
1E
100
AcDbEntity
  8
0
100
AcDbLine
 10
126.9999749999999
 20
73.4100829999999
 30
0.0
 11
126.9999749999999
 21
73.71008299999989
 31
0.0
  0
LINE
  5
9D
330
1E
100
AcDbEntity
  8
0
100
AcDbLine
 10
126.9999749999999
 20
73.4100829999999
 30
0.0
 11
126.9999749999999
 21
72.31008299999991
 31
0.0
  0
LINE
  5
9E
330
1E
100
AcDbEntity
  8
0
100
AcDbLine
 10
125.499975
 20
73.71008299999989
 30
0.0
 11
126.9999749999999
 21
73.71008299999989
 31
0.0
  0
LINE
  5
9F
330
1E
100
AcDbEntity
  8
0
100
AcDbLine
 10
125.1999749999999
 20
73.51008299999991
 30
0.0
 11
125.499975
 21
73.71008299999989
 31
0.0
  0
LINE
  5
A0
330
1E
100
AcDbEntity
  8
0
100
AcDbLine
 10
124.999975
 20
73.2100829999999
 30
0.0
 11
125.1999749999999
 21
73.51008299999991
 31
0.0
  0
LINE
  5
A1
330
1E
100
AcDbEntity
  8
0
100
AcDbLine
 10
124.999975
 20
73.2100829999999
 30
0.0
 11
124.999975
 21
72.8100829999999
 31
0.0
  0
LINE
  5
A5
330
1E
100
AcDbEntity
  8
0
100
AcDbLine
 10
127.1999749999999
 20
73.71008299999989
 30
0.0
 11
127.899975
 21
73.71008299999989
 31
0.0
  0
LINE
  5
A6
330
1E
100
AcDbEntity
  8
0
100
AcDbLine
 10
126.9999749999999
 20
73.71008299999989
 30
0.0
 11
127.1999749999999
 21
73.71008299999989
 31
0.0
  0
LINE
  5
A7
330
1E
100
AcDbEntity
  8
0
100
AcDbLine
 10
126.9999749999999
 20
73.71008299999989
 30
0.0
 11
126.9999749999999
 21
73.4100829999999
 31
0.0
  0
LINE
  5
A8
330
1E
100
AcDbEntity
  8
0
100
AcDbLine
 10
163.599975
 20
52.91008299999989
 30
0.0
 11
163.599975
 21
53.2100829999999
 31
0.0
  0
LINE
  5
A9
330
1E
100
AcDbEntity
  8
0
100
AcDbLine
 10
163.599975
 20
52.91008299999989
 30
0.0
 11
164.899975
 21
52.91008299999989
 31
0.0
  0
LINE
  5
AA
330
1E
100
AcDbEntity
  8
0
100
AcDbLine
 10
163.599975
 20
52.91008299999989
 30
0.0
 11
163.599975
 21
53.31008299999989
 31
0.0
  0
LINE
  5
AB
330
1E
100
AcDbEntity
  8
0
100
AcDbLine
 10
163.399975
 20
52.91008299999989
 30
0.0
 11
163.599975
 21
53.2100829999999
 31
0.0
  0
LINE
  5
AC
330
1E
100
AcDbEntity
  8
0
100
AcDbLine
 10
163.599975
 20
53.31008299999989
 30
0.0
 11
163.599975
 21
52.91008299999989
 31
0.0
  0
LINE
  5
AD
330
1E
100
AcDbEntity
  8
0
100
AcDbLine
 10
163.599975
 20
53.31008299999989
 30
0.0
 11
163.599975
 21
54.31008299999989
 31
0.0
  0
LINE
  5
AE
330
1E
100
AcDbEntity
  8
0
100
AcDbLine
 10
163.599975
 20
53.2100829999999
 30
0.0
 11
163.599975
 21
53.6100829999999
 31
0.0
  0
LINE
  5
AF
330
1E
100
AcDbEntity
  8
0
100
AcDbLine
 10
163.599975
 20
53.2100829999999
 30
0.0
 11
163.599975
 21
52.91008299999989
 31
0.0
  0
LINE
  5
B0
330
1E
100
AcDbEntity
  8
0
100
AcDbLine
 10
163.599975
 20
54.31008299999989
 30
0.0
 11
163.599975
 21
53.31008299999989
 31
0.0
  0
LINE
  5
B1
330
1E
100
AcDbEntity
  8
0
100
AcDbLine
 10
163.599975
 20
54.31008299999989
 30
0.0
 11
163.599975
 21
55.91008299999989
 31
0.0
  0
LINE
  5
B2
330
1E
100
AcDbEntity
  8
0
100
AcDbLine
 10
163.599975
 20
55.91008299999989
 30
0.0
 11
163.599975
 21
54.31008299999989
 31
0.0
  0
LINE
  5
B3
330
1E
100
AcDbEntity
  8
0
100
AcDbLine
 10
163.599975
 20
55.91008299999989
 30
0.0
 11
163.599975
 21
58.1100829999999
 31
0.0
  0
LINE
  5
B4
330
1E
100
AcDbEntity
  8
0
100
AcDbLine
 10
163.599975
 20
58.1100829999999
 30
0.0
 11
163.599975
 21
55.91008299999989
 31
0.0
  0
LINE
  5
B5
330
1E
100
AcDbEntity
  8
0
100
AcDbLine
 10
163.599975
 20
58.1100829999999
 30
0.0
 11
163.599975
 21
60.6100829999999
 31
0.0
  0
LINE
  5
B6
330
1E
100
AcDbEntity
  8
0
100
AcDbLine
 10
163.599975
 20
54.5100829999999
 30
0.0
 11
163.599975
 21
53.6100829999999
 31
0.0
  0
LINE
  5
B7
330
1E
100
AcDbEntity
  8
0
100
AcDbLine
 10
163.599975
 20
54.5100829999999
 30
0.0
 11
163.599975
 21
56.1100829999999
 31
0.0
  0
LINE
  5
B8
330
1E
100
AcDbEntity
  8
0
100
AcDbLine
 10
163.599975
 20
53.6100829999999
 30
0.0
 11
163.599975
 21
53.2100829999999
 31
0.0
  0
LINE
  5
B9
330
1E
100
AcDbEntity
  8
0
100
AcDbLine
 10
163.599975
 20
53.6100829999999
 30
0.0
 11
163.599975
 21
54.5100829999999
 31
0.0
  0
LINE
  5
BA
330
1E
100
AcDbEntity
  8
0
100
AcDbLine
 10
163.599975
 20
56.1100829999999
 30
0.0
 11
163.599975
 21
58.2100829999999
 31
0.0
  0
LINE
  5
BB
330
1E
100
AcDbEntity
  8
0
100
AcDbLine
 10
163.599975
 20
56.1100829999999
 30
0.0
 11
163.599975
 21
54.5100829999999
 31
0.0
  0
LINE
  5
BC
330
1E
100
AcDbEntity
  8
0
100
AcDbLine
 10
163.599975
 20
58.2100829999999
 30
0.0
 11
163.599975
 21
56.1100829999999
 31
0.0
  0
LINE
  5
BD
330
1E
100
AcDbEntity
  8
0
100
AcDbLine
 10
163.599975
 20
58.2100829999999
 30
0.0
 11
163.599975
 21
60.6100829999999
 31
0.0
  0
LINE
  5
BE
330
1E
100
AcDbEntity
  8
0
100
AcDbLine
 10
163.599975
 20
60.6100829999999
 30
0.0
 11
163.599975
 21
58.2100829999999
 31
0.0
  0
LINE
  5
BF
330
1E
100
AcDbEntity
  8
0
100
AcDbLine
 10
163.599975
 20
60.6100829999999
 30
0.0
 11
163.599975
 21
63.2100829999999
 31
0.0
  0
LINE
  5
C0
330
1E
100
AcDbEntity
  8
0
100
AcDbLine
 10
163.599975
 20
60.6100829999999
 30
0.0
 11
163.599975
 21
58.1100829999999
 31
0.0
  0
LINE
  5
C2
330
1E
100
AcDbEntity
  8
0
100
AcDbLine
 10
163.599975
 20
63.2100829999999
 30
0.0
 11
163.599975
 21
65.81008299999989
 31
0.0
  0
LINE
  5
C3
330
1E
100
AcDbEntity
  8
0
100
AcDbLine
 10
163.599975
 20
63.2100829999999
 30
0.0
 11
163.599975
 21
60.6100829999999
 31
0.0
  0
LINE
  5
C4
330
1E
100
AcDbEntity
  8
0
100
AcDbLine
 10
163.599975
 20
70.51008299999991
 30
0.0
 11
163.599975
 21
68.31008299999989
 31
0.0
  0
LINE
  5
C5
330
1E
100
AcDbEntity
  8
0
100
AcDbLine
 10
163.599975
 20
70.51008299999991
 30
0.0
 11
163.599975
 21
72.1100829999999
 31
0.0
  0
LINE
  5
C6
330
1E
100
AcDbEntity
  8
0
100
AcDbLine
 10
163.599975
 20
68.31008299999989
 30
0.0
 11
163.599975
 21
65.81008299999989
 31
0.0
  0
LINE
  5
C7
330
1E
100
AcDbEntity
  8
0
100
AcDbLine
 10
163.599975
 20
68.31008299999989
 30
0.0
 11
163.599975
 21
70.51008299999991
 31
0.0
  0
LINE
  5
C8
330
1E
100
AcDbEntity
  8
0
100
AcDbLine
 10
163.599975
 20
73.1100829999999
 30
0.0
 11
163.599975
 21
72.1100829999999
 31
0.0
  0
LINE
  5
C9
330
1E
100
AcDbEntity
  8
0
100
AcDbLine
 10
163.599975
 20
73.1100829999999
 30
0.0
 11
163.599975
 21
73.51008299999991
 31
0.0
  0
LINE
  5
CA
330
1E
100
AcDbEntity
  8
0
100
AcDbLine
 10
163.599975
 20
72.1100829999999
 30
0.0
 11
163.599975
 21
70.51008299999991
 31
0.0
  0
LINE
  5
CB
330
1E
100
AcDbEntity
  8
0
100
AcDbLine
 10
163.599975
 20
72.1100829999999
 30
0.0
 11
163.599975
 21
73.1100829999999
 31
0.0
  0
LINE
  5
CC
330
1E
100
AcDbEntity
  8
0
100
AcDbLine
 10
163.599975
 20
71.9100829999999
 30
0.0
 11
163.599975
 21
70.31008299999989
 31
0.0
  0
LINE
  5
CD
330
1E
100
AcDbEntity
  8
0
100
AcDbLine
 10
163.599975
 20
71.9100829999999
 30
0.0
 11
163.599975
 21
72.8100829999999
 31
0.0
  0
LINE
  5
CE
330
1E
100
AcDbEntity
  8
0
100
AcDbLine
 10
163.599975
 20
72.8100829999999
 30
0.0
 11
163.599975
 21
71.9100829999999
 31
0.0
  0
LINE
  5
CF
330
1E
100
AcDbEntity
  8
0
100
AcDbLine
 10
163.599975
 20
72.8100829999999
 30
0.0
 11
163.599975
 21
73.2100829999999
 31
0.0
  0
LINE
  5
D0
330
1E
100
AcDbEntity
  8
0
100
AcDbLine
 10
163.599975
 20
73.2100829999999
 30
0.0
 11
163.599975
 21
72.8100829999999
 31
0.0
  0
LINE
  5
D1
330
1E
100
AcDbEntity
  8
0
100
AcDbLine
 10
163.599975
 20
73.2100829999999
 30
0.0
 11
163.599975
 21
73.51008299999991
 31
0.0
  0
LINE
  5
D2
330
1E
100
AcDbEntity
  8
0
100
AcDbLine
 10
163.599975
 20
70.31008299999989
 30
0.0
 11
163.599975
 21
68.2100829999999
 31
0.0
  0
LINE
  5
D3
330
1E
100
AcDbEntity
  8
0
100
AcDbLine
 10
163.599975
 20
70.31008299999989
 30
0.0
 11
163.599975
 21
71.9100829999999
 31
0.0
  0
LINE
  5
D4
330
1E
100
AcDbEntity
  8
0
100
AcDbLine
 10
163.599975
 20
68.2100829999999
 30
0.0
 11
163.599975
 21
65.81008299999989
 31
0.0
  0
LINE
  5
D5
330
1E
100
AcDbEntity
  8
0
100
AcDbLine
 10
163.599975
 20
68.2100829999999
 30
0.0
 11
163.599975
 21
70.31008299999989
 31
0.0
  0
LINE
  5
D6
330
1E
100
AcDbEntity
  8
0
100
AcDbLine
 10
164.899975
 20
52.91008299999989
 30
0.0
 11
164.899975
 21
53.31008299999989
 31
0.0
  0
LINE
  5
D7
330
1E
100
AcDbEntity
  8
0
100
AcDbLine
 10
164.899975
 20
53.31008299999989
 30
0.0
 11
164.899975
 21
52.91008299999989
 31
0.0
  0
LINE
  5
D8
330
1E
100
AcDbEntity
  8
0
100
AcDbLine
 10
164.899975
 20
53.31008299999989
 30
0.0
 11
164.899975
 21
54.31008299999989
 31
0.0
  0
LINE
  5
D9
330
1E
100
AcDbEntity
  8
0
100
AcDbLine
 10
164.899975
 20
54.31008299999989
 30
0.0
 11
164.899975
 21
53.31008299999989
 31
0.0
  0
LINE
  5
DA
330
1E
100
AcDbEntity
  8
0
100
AcDbLine
 10
164.899975
 20
54.31008299999989
 30
0.0
 11
164.899975
 21
55.91008299999989
 31
0.0
  0
LINE
  5
DB
330
1E
100
AcDbEntity
  8
0
100
AcDbLine
 10
164.899975
 20
55.91008299999989
 30
0.0
 11
164.899975
 21
54.31008299999989
 31
0.0
  0
LINE
  5
DC
330
1E
100
AcDbEntity
  8
0
100
AcDbLine
 10
164.899975
 20
55.91008299999989
 30
0.0
 11
164.899975
 21
58.1100829999999
 31
0.0
  0
LINE
  5
DD
330
1E
100
AcDbEntity
  8
0
100
AcDbLine
 10
164.899975
 20
58.1100829999999
 30
0.0
 11
164.899975
 21
55.91008299999989
 31
0.0
  0
LINE
  5
DE
330
1E
100
AcDbEntity
  8
0
100
AcDbLine
 10
164.899975
 20
58.1100829999999
 30
0.0
 11
164.899975
 21
60.6100829999999
 31
0.0
  0
LINE
  5
DF
330
1E
100
AcDbEntity
  8
0
100
AcDbLine
 10
164.899975
 20
60.6100829999999
 30
0.0
 11
164.899975
 21
58.1100829999999
 31
0.0
  0
LINE
  5
E0
330
1E
100
AcDbEntity
  8
0
100
AcDbLine
 10
164.899975
 20
60.6100829999999
 30
0.0
 11
164.899975
 21
63.2100829999999
 31
0.0
  0
LINE
  5
E1
330
1E
100
AcDbEntity
  8
0
100
AcDbLine
 10
164.899975
 20
63.2100829999999
 30
0.0
 11
164.899975
 21
65.81008299999989
 31
0.0
  0
LINE
  5
E2
330
1E
100
AcDbEntity
  8
0
100
AcDbLine
 10
164.899975
 20
63.2100829999999
 30
0.0
 11
164.899975
 21
60.6100829999999
 31
0.0
  0
LINE
  5
E3
330
1E
100
AcDbEntity
  8
0
100
AcDbLine
 10
164.899975
 20
73.1100829999999
 30
0.0
 11
164.899975
 21
72.1100829999999
 31
0.0
  0
LINE
  5
E4
330
1E
100
AcDbEntity
  8
0
100
AcDbLine
 10
164.899975
 20
73.1100829999999
 30
0.0
 11
164.899975
 21
73.51008299999991
 31
0.0
  0
LINE
  5
E5
330
1E
100
AcDbEntity
  8
0
100
AcDbLine
 10
164.899975
 20
72.1100829999999
 30
0.0
 11
164.899975
 21
70.51008299999991
 31
0.0
  0
LINE
  5
E6
330
1E
100
AcDbEntity
  8
0
100
AcDbLine
 10
164.899975
 20
72.1100829999999
 30
0.0
 11
164.899975
 21
73.1100829999999
 31
0.0
  0
LINE
  5
E7
330
1E
100
AcDbEntity
  8
0
100
AcDbLine
 10
164.899975
 20
70.51008299999991
 30
0.0
 11
164.899975
 21
68.31008299999989
 31
0.0
  0
LINE
  5
E8
330
1E
100
AcDbEntity
  8
0
100
AcDbLine
 10
164.899975
 20
70.51008299999991
 30
0.0
 11
164.899975
 21
72.1100829999999
 31
0.0
  0
LINE
  5
E9
330
1E
100
AcDbEntity
  8
0
100
AcDbLine
 10
164.899975
 20
68.31008299999989
 30
0.0
 11
164.899975
 21
65.81008299999989
 31
0.0
  0
LINE
  5
EA
330
1E
100
AcDbEntity
  8
0
100
AcDbLine
 10
164.899975
 20
68.31008299999989
 30
0.0
 11
164.899975
 21
70.51008299999991
 31
0.0
  0
LINE
  5
EB
330
1E
100
AcDbEntity
  8
0
100
AcDbLine
 10
164.899975
 20
65.81008299999989
 30
0.0
 11
164.899975
 21
63.2100829999999
 31
0.0
  0
LINE
  5
EC
330
1E
100
AcDbEntity
  8
0
100
AcDbLine
 10
164.899975
 20
65.81008299999989
 30
0.0
 11
164.899975
 21
68.31008299999989
 31
0.0
  0
LINE
  5
ED
330
1E
100
AcDbEntity
  8
0
100
AcDbLine
 10
164.899975
 20
53.2100829999999
 30
0.0
 11
165.0999749999999
 21
52.91008299999989
 31
0.0
  0
LINE
  5
EE
330
1E
100
AcDbEntity
  8
0
100
AcDbLine
 10
165.0999749999999
 20
52.91008299999989
 30
0.0
 11
165.4999749999999
 21
52.7100829999999
 31
0.0
  0
LINE
  5
EF
330
1E
100
AcDbEntity
  8
0
100
AcDbLine
 10
164.899975
 20
73.2100829999999
 30
0.0
 11
165.0999749999999
 21
73.51008299999991
 31
0.0
  0
LINE
  5
F0
330
1E
100
AcDbEntity
  8
0
100
AcDbLine
 10
163.599975
 20
65.81008299999989
 30
0.0
 11
163.599975
 21
63.2100829999999
 31
0.0
  0
LINE
  5
F1
330
1E
100
AcDbEntity
  8
0
100
AcDbLine
 10
163.599975
 20
65.81008299999989
 30
0.0
 11
163.599975
 21
68.2100829999999
 31
0.0
  0
LINE
  5
F2
330
1E
100
AcDbEntity
  8
0
100
AcDbLine
 10
163.599975
 20
65.81008299999989
 30
0.0
 11
163.599975
 21
68.31008299999989
 31
0.0
  0
LINE
  5
F3
330
1E
100
AcDbEntity
  8
0
100
AcDbLine
 10
163.599975
 20
73.51008299999991
 30
0.0
 11
163.599975
 21
73.1100829999999
 31
0.0
  0
LINE
  5
F4
330
1E
100
AcDbEntity
  8
0
100
AcDbLine
 10
163.599975
 20
73.51008299999991
 30
0.0
 11
164.899975
 21
73.51008299999991
 31
0.0
  0
LINE
  5
F5
330
1E
100
AcDbEntity
  8
0
100
AcDbLine
 10
163.599975
 20
73.51008299999991
 30
0.0
 11
163.599975
 21
73.2100829999999
 31
0.0
  0
LINE
  5
F6
330
1E
100
AcDbEntity
  8
0
100
AcDbLine
 10
164.899975
 20
73.51008299999991
 30
0.0
 11
164.899975
 21
73.1100829999999
 31
0.0
  0
LINE
  5
F7
330
1E
100
AcDbEntity
  8
0
100
AcDbLine
 10
162.999975
 20
73.71008299999989
 30
0.0
 11
163.399975
 21
73.51008299999991
 31
0.0
  0
LINE
  5
F8
330
1E
100
AcDbEntity
  8
0
100
AcDbLine
 10
163.399975
 20
73.51008299999991
 30
0.0
 11
163.599975
 21
73.2100829999999
 31
0.0
  0
LINE
  5
F9
330
1E
100
AcDbEntity
  8
0
100
AcDbLine
 10
165.4999749999999
 20
73.71008299999989
 30
0.0
 11
165.999975
 21
73.71008299999989
 31
0.0
  0
LINE
  5
FA
330
1E
100
AcDbEntity
  8
0
100
AcDbLine
 10
165.0999749999999
 20
73.51008299999991
 30
0.0
 11
165.4999749999999
 21
73.71008299999989
 31
0.0
  0
LINE
  5
FB
330
1E
100
AcDbEntity
  8
0
100
AcDbLine
 10
139.999975
 20
73.71008299999989
 30
0.0
 11
162.999975
 21
73.71008299999989
 31
0.0
  0
LINE
  5
FC
330
1E
100
AcDbEntity
  8
0
100
AcDbLine
 10
137.599975
 20
73.71008299999989
 30
0.0
 11
139.999975
 21
73.71008299999989
 31
0.0
  0
LINE
  5
FD
330
1E
100
AcDbEntity
  8
0
100
AcDbLine
 10
134.599975
 20
73.71008299999989
 30
0.0
 11
137.599975
 21
73.71008299999989
 31
0.0
  0
LINE
  5
FE
330
1E
100
AcDbEntity
  8
0
100
AcDbLine
 10
131.799975
 20
73.71008299999989
 30
0.0
 11
134.599975
 21
73.71008299999989
 31
0.0
  0
LINE
  5
FF
330
1E
100
AcDbEntity
  8
0
100
AcDbLine
 10
129.2999749999999
 20
73.71008299999989
 30
0.0
 11
131.799975
 21
73.71008299999989
 31
0.0
  0
LINE
  5
100
330
1E
100
AcDbEntity
  8
0
100
AcDbLine
 10
127.899975
 20
73.71008299999989
 30
0.0
 11
129.2999749999999
 21
73.71008299999989
 31
0.0
  0
LINE
  5
103
330
1E
100
AcDbEntity
  8
0
100
AcDbLine
 10
126.9999749999999
 20
52.7100829999999
 30
0.0
 11
127.1999749999999
 21
52.7100829999999
 31
0.0
  0
LINE
  5
104
330
1E
100
AcDbEntity
  8
0
100
AcDbLine
 10
126.9999749999999
 20
52.7100829999999
 30
0.0
 11
126.9999749999999
 21
53.01008299999989
 31
0.0
  0
LINE
  5
105
330
1E
100
AcDbEntity
  8
0
100
AcDbLine
 10
54.499975
 20
52.7100829999999
 30
0.0
 11
165.4999749999999
 21
52.7100829999999
 31
0.0
  0
LINE
  5
106
330
1E
100
AcDbEntity
  8
0
100
AcDbLine
 10
54.499975
 20
73.71008299999989
 30
0.0
 11
165.4999749999999
 21
73.71008299999989
 31
0.0
  0
LINE
  5
107
330
1E
100
AcDbEntity
  8
0
100
AcDbLine
 10
168.999975
 20
35.21008299999989
 30
0.0
 11
168.999975
 21
36.21008299999989
 31
0.0
  0
LINE
  5
108
330
1E
100
AcDbEntity
  8
0
100
AcDbLine
 10
168.999975
 20
36.21008299999989
 30
0.0
 11
168.999975
 21
35.21008299999989
 31
0.0
  0
LINE
  5
109
330
1E
100
AcDbEntity
  8
0
100
AcDbLine
 10
168.999975
 20
36.71008299999989
 30
0.0
 11
168.999975
 21
37.9100829999999
 31
0.0
  0
LINE
  5
10A
330
1E
100
AcDbEntity
  8
0
100
AcDbLine
 10
168.999975
 20
36.71008299999989
 30
0.0
 11
168.999975
 21
35.7100829999999
 31
0.0
  0
LINE
  5
10B
330
1E
100
AcDbEntity
  8
0
100
AcDbLine
 10
168.999975
 20
38.9100829999999
 30
0.0
 11
168.999975
 21
43.41008299999989
 31
0.0
  0
LINE
  5
10C
330
1E
100
AcDbEntity
  8
0
100
AcDbLine
 10
168.999975
 20
37.9100829999999
 30
0.0
 11
168.999975
 21
39.21008299999989
 31
0.0
  0
LINE
  5
10D
330
1E
100
AcDbEntity
  8
0
100
AcDbLine
 10
168.999975
 20
37.9100829999999
 30
0.0
 11
168.999975
 21
36.71008299999989
 31
0.0
  0
LINE
  5
10E
330
1E
100
AcDbEntity
  8
0
100
AcDbLine
 10
168.999975
 20
39.21008299999989
 30
0.0
 11
168.999975
 21
49.7100829999999
 31
0.0
  0
LINE
  5
10F
330
1E
100
AcDbEntity
  8
0
100
AcDbLine
 10
168.999975
 20
39.21008299999989
 30
0.0
 11
168.999975
 21
37.9100829999999
 31
0.0
  0
LINE
  5
110
330
1E
100
AcDbEntity
  8
0
100
AcDbLine
 10
168.999975
 20
39.21008299999989
 30
0.0
 11
168.999975
 21
63.2100829999999
 31
0.0
  0
LINE
  5
111
330
1E
100
AcDbEntity
  8
0
100
AcDbLine
 10
168.999975
 20
35.7100829999999
 30
0.0
 11
168.999975
 21
34.9100829999999
 31
0.0
  0
LINE
  5
112
330
1E
100
AcDbEntity
  8
0
100
AcDbLine
 10
168.999975
 20
35.7100829999999
 30
0.0
 11
168.999975
 21
36.71008299999989
 31
0.0
  0
LINE
  5
113
330
1E
100
AcDbEntity
  8
0
100
AcDbLine
 10
168.999975
 20
34.9100829999999
 30
0.0
 11
168.999975
 21
34.4100829999999
 31
0.0
  0
LINE
  5
114
330
1E
100
AcDbEntity
  8
0
100
AcDbLine
 10
168.999975
 20
34.9100829999999
 30
0.0
 11
168.999975
 21
35.7100829999999
 31
0.0
  0
LINE
  5
115
330
1E
100
AcDbEntity
  8
0
100
AcDbLine
 10
168.999975
 20
34.4100829999999
 30
0.0
 11
168.999975
 21
34.21008299999989
 31
0.0
  0
LINE
  5
116
330
1E
100
AcDbEntity
  8
0
100
AcDbLine
 10
168.999975
 20
34.4100829999999
 30
0.0
 11
168.999975
 21
34.9100829999999
 31
0.0
  0
LINE
  5
117
330
1E
100
AcDbEntity
  8
0
100
AcDbLine
 10
168.999975
 20
34.21008299999989
 30
0.0
 11
168.999975
 21
34.4100829999999
 31
0.0
  0
LINE
  5
118
330
1E
100
AcDbEntity
  8
0
100
AcDbLine
 10
168.999975
 20
34.21008299999989
 30
0.0
 11
169.299975
 21
33.5100829999999
 31
0.0
  0
LINE
  5
119
330
1E
100
AcDbEntity
  8
0
100
AcDbLine
 10
168.999975
 20
43.41008299999989
 30
0.0
 11
168.999975
 21
49.31008299999989
 31
0.0
  0
LINE
  5
11A
330
1E
100
AcDbEntity
  8
0
100
AcDbLine
 10
168.999975
 20
43.41008299999989
 30
0.0
 11
168.999975
 21
38.9100829999999
 31
0.0
  0
LINE
  5
11B
330
1E
100
AcDbEntity
  8
0
100
AcDbLine
 10
168.999975
 20
40.2100829999999
 30
0.0
 11
168.999975
 21
44.41008299999989
 31
0.0
  0
LINE
  5
11C
330
1E
100
AcDbEntity
  8
0
100
AcDbLine
 10
168.999975
 20
36.6100829999999
 30
0.0
 11
168.999975
 21
37.61008299999989
 31
0.0
  0
LINE
  5
11D
330
1E
100
AcDbEntity
  8
0
100
AcDbLine
 10
168.999975
 20
50.0100829999998
 30
0.0
 11
168.999975
 21
56.41008299999989
 31
0.0
  0
LINE
  5
11E
330
1E
100
AcDbEntity
  8
0
100
AcDbLine
 10
165.999975
 20
52.7100829999999
 30
0.0
 11
166.7999749999999
 21
52.51008299999989
 31
0.0
  0
LINE
  5
11F
330
1E
100
AcDbEntity
  8
0
100
AcDbLine
 10
166.7999749999999
 20
52.51008299999989
 30
0.0
 11
167.7999749999999
 21
52.0100829999999
 31
0.0
  0
LINE
  5
120
330
1E
100
AcDbEntity
  8
0
100
AcDbLine
 10
168.999975
 20
51.5100829999999
 30
0.0
 11
168.999975
 21
53.71008299999989
 31
0.0
  0
LINE
  5
121
330
1E
100
AcDbEntity
  8
0
100
AcDbLine
 10
167.7999749999999
 20
52.0100829999999
 30
0.0
 11
168.599975
 21
51.01008299999989
 31
0.0
  0
LINE
  5
122
330
1E
100
AcDbEntity
  8
0
100
AcDbLine
 10
168.599975
 20
51.01008299999989
 30
0.0
 11
168.999975
 21
49.7100829999999
 31
0.0
  0
LINE
  5
123
330
1E
100
AcDbEntity
  8
0
100
AcDbLine
 10
168.999975
 20
51.91008299999989
 30
0.0
 11
168.999975
 21
55.2100829999999
 31
0.0
  0
LINE
  5
124
330
1E
100
AcDbEntity
  8
0
100
AcDbLine
 10
168.999975
 20
56.5100829999999
 30
0.0
 11
168.999975
 21
53.71008299999989
 31
0.0
  0
LINE
  5
125
330
1E
100
AcDbEntity
  8
0
100
AcDbLine
 10
168.999975
 20
56.5100829999999
 30
0.0
 11
168.999975
 21
59.7100829999999
 31
0.0
  0
LINE
  5
126
330
1E
100
AcDbEntity
  8
0
100
AcDbLine
 10
168.999975
 20
59.7100829999999
 30
0.0
 11
168.999975
 21
56.5100829999999
 31
0.0
  0
LINE
  5
127
330
1E
100
AcDbEntity
  8
0
100
AcDbLine
 10
168.999975
 20
59.7100829999999
 30
0.0
 11
168.999975
 21
63.2100829999999
 31
0.0
  0
LINE
  5
128
330
1E
100
AcDbEntity
  8
0
100
AcDbLine
 10
168.999975
 20
55.91008299999989
 30
0.0
 11
168.999975
 21
52.91008299999989
 31
0.0
  0
LINE
  5
129
330
1E
100
AcDbEntity
  8
0
100
AcDbLine
 10
168.999975
 20
55.91008299999989
 30
0.0
 11
168.999975
 21
59.41008299999989
 31
0.0
  0
LINE
  5
12A
330
1E
100
AcDbEntity
  8
0
100
AcDbLine
 10
168.999975
 20
59.41008299999989
 30
0.0
 11
168.999975
 21
55.91008299999989
 31
0.0
  0
LINE
  5
12B
330
1E
100
AcDbEntity
  8
0
100
AcDbLine
 10
168.999975
 20
59.41008299999989
 30
0.0
 11
168.999975
 21
63.2100829999999
 31
0.0
  0
LINE
  5
12C
330
1E
100
AcDbEntity
  8
0
100
AcDbLine
 10
168.999975
 20
55.2100829999999
 30
0.0
 11
168.999975
 21
51.91008299999989
 31
0.0
  0
LINE
  5
12D
330
1E
100
AcDbEntity
  8
0
100
AcDbLine
 10
168.999975
 20
56.41008299999989
 30
0.0
 11
168.999975
 21
50.0100829999998
 31
0.0
  0
LINE
  5
12E
330
1E
100
AcDbEntity
  8
0
100
AcDbLine
 10
168.999975
 20
56.41008299999989
 30
0.0
 11
168.999975
 21
63.2100829999999
 31
0.0
  0
LINE
  5
12F
330
1E
100
AcDbEntity
  8
0
100
AcDbLine
 10
168.999975
 20
53.71008299999989
 30
0.0
 11
168.999975
 21
51.5100829999999
 31
0.0
  0
LINE
  5
130
330
1E
100
AcDbEntity
  8
0
100
AcDbLine
 10
168.999975
 20
53.71008299999989
 30
0.0
 11
168.999975
 21
56.5100829999999
 31
0.0
  0
LINE
  5
131
330
1E
100
AcDbEntity
  8
0
100
AcDbLine
 10
168.999975
 20
50.51008299999989
 30
0.0
 11
168.999975
 21
52.91008299999989
 31
0.0
  0
LINE
  5
132
330
1E
100
AcDbEntity
  8
0
100
AcDbLine
 10
168.999975
 20
50.2100829999999
 30
0.0
 11
168.999975
 21
49.7100829999999
 31
0.0
  0
LINE
  5
133
330
1E
100
AcDbEntity
  8
0
100
AcDbLine
 10
168.999975
 20
52.91008299999989
 30
0.0
 11
168.999975
 21
50.51008299999989
 31
0.0
  0
LINE
  5
134
330
1E
100
AcDbEntity
  8
0
100
AcDbLine
 10
168.999975
 20
52.91008299999989
 30
0.0
 11
168.999975
 21
55.91008299999989
 31
0.0
  0
LINE
  5
135
330
1E
100
AcDbEntity
  8
0
100
AcDbLine
 10
168.999975
 20
66.71008299999989
 30
0.0
 11
168.999975
 21
63.2100829999999
 31
0.0
  0
LINE
  5
136
330
1E
100
AcDbEntity
  8
0
100
AcDbLine
 10
168.999975
 20
66.71008299999989
 30
0.0
 11
168.999975
 21
69.9100829999999
 31
0.0
  0
LINE
  5
137
330
1E
100
AcDbEntity
  8
0
100
AcDbLine
 10
168.999975
 20
67.0100829999999
 30
0.0
 11
168.999975
 21
63.2100829999999
 31
0.0
  0
LINE
  5
138
330
1E
100
AcDbEntity
  8
0
100
AcDbLine
 10
168.999975
 20
67.0100829999999
 30
0.0
 11
168.999975
 21
70.51008299999991
 31
0.0
  0
LINE
  5
139
330
1E
100
AcDbEntity
  8
0
100
AcDbLine
 10
168.999975
 20
69.9100829999999
 30
0.0
 11
168.999975
 21
66.71008299999989
 31
0.0
  0
LINE
  5
13A
330
1E
100
AcDbEntity
  8
0
100
AcDbLine
 10
168.999975
 20
70.51008299999991
 30
0.0
 11
168.999975
 21
67.0100829999999
 31
0.0
  0
LINE
  5
13B
330
1E
100
AcDbEntity
  8
0
100
AcDbLine
 10
165.999975
 20
73.71008299999989
 30
0.0
 11
166.7999749999999
 21
73.9100829999999
 31
0.0
  0
LINE
  5
13C
330
1E
100
AcDbEntity
  8
0
100
AcDbLine
 10
168.999975
 20
71.21008299999989
 30
0.0
 11
168.999975
 21
74.5100829999999
 31
0.0
  0
LINE
  5
13D
330
1E
100
AcDbEntity
  8
0
100
AcDbLine
 10
168.999975
 20
70.01008299999989
 30
0.0
 11
168.999975
 21
76.4100829999999
 31
0.0
  0
LINE
  5
13E
330
1E
100
AcDbEntity
  8
0
100
AcDbLine
 10
168.999975
 20
67.31008299999989
 30
0.0
 11
168.999975
 21
63.2100829999999
 31
0.0
  0
LINE
  5
13F
330
1E
100
AcDbEntity
  8
0
100
AcDbLine
 10
168.999975
 20
70.4100829999999
 30
0.0
 11
168.999975
 21
77.1100829999999
 31
0.0
  0
LINE
  5
140
330
1E
100
AcDbEntity
  8
0
100
AcDbLine
 10
168.999975
 20
70.4100829999999
 30
0.0
 11
168.999975
 21
63.2100829999999
 31
0.0
  0
LINE
  5
141
330
1E
100
AcDbEntity
  8
0
100
AcDbLine
 10
168.999975
 20
63.2100829999999
 30
0.0
 11
168.999975
 21
70.4100829999999
 31
0.0
  0
LINE
  5
142
330
1E
100
AcDbEntity
  8
0
100
AcDbLine
 10
168.999975
 20
63.2100829999999
 30
0.0
 11
168.999975
 21
67.31008299999989
 31
0.0
  0
LINE
  5
143
330
1E
100
AcDbEntity
  8
0
100
AcDbLine
 10
168.999975
 20
63.2100829999999
 30
0.0
 11
168.999975
 21
67.0100829999999
 31
0.0
  0
LINE
  5
144
330
1E
100
AcDbEntity
  8
0
100
AcDbLine
 10
168.999975
 20
63.2100829999999
 30
0.0
 11
168.999975
 21
87.2100829999999
 31
0.0
  0
LINE
  5
145
330
1E
100
AcDbEntity
  8
0
100
AcDbLine
 10
168.999975
 20
63.2100829999999
 30
0.0
 11
168.999975
 21
66.71008299999989
 31
0.0
  0
LINE
  5
146
330
1E
100
AcDbEntity
  8
0
100
AcDbLine
 10
168.999975
 20
63.2100829999999
 30
0.0
 11
168.999975
 21
56.41008299999989
 31
0.0
  0
LINE
  5
147
330
1E
100
AcDbEntity
  8
0
100
AcDbLine
 10
168.999975
 20
63.2100829999999
 30
0.0
 11
168.999975
 21
59.41008299999989
 31
0.0
  0
LINE
  5
148
330
1E
100
AcDbEntity
  8
0
100
AcDbLine
 10
168.999975
 20
63.2100829999999
 30
0.0
 11
168.999975
 21
59.7100829999999
 31
0.0
  0
LINE
  5
149
330
1E
100
AcDbEntity
  8
0
100
AcDbLine
 10
168.999975
 20
63.2100829999999
 30
0.0
 11
168.999975
 21
39.21008299999989
 31
0.0
  0
LINE
  5
14A
330
1E
100
AcDbEntity
  8
0
100
AcDbLine
 10
168.999975
 20
49.7100829999999
 30
0.0
 11
168.999975
 21
39.21008299999989
 31
0.0
  0
LINE
  5
14B
330
1E
100
AcDbEntity
  8
0
100
AcDbLine
 10
168.999975
 20
49.7100829999999
 30
0.0
 11
168.999975
 21
49.31008299999989
 31
0.0
  0
LINE
  5
14C
330
1E
100
AcDbEntity
  8
0
100
AcDbLine
 10
168.999975
 20
49.7100829999999
 30
0.0
 11
168.999975
 21
49.1100829999998
 31
0.0
  0
LINE
  5
14D
330
1E
100
AcDbEntity
  8
0
100
AcDbLine
 10
168.999975
 20
49.7100829999999
 30
0.0
 11
168.999975
 21
50.2100829999999
 31
0.0
  0
LINE
  5
14E
330
1E
100
AcDbEntity
  8
0
100
AcDbLine
 10
168.999975
 20
48.6100829999999
 30
0.0
 11
168.999975
 21
49.1100829999998
 31
0.0
  0
LINE
  5
14F
330
1E
100
AcDbEntity
  8
0
100
AcDbLine
 10
168.999975
 20
49.1100829999998
 30
0.0
 11
168.999975
 21
48.6100829999999
 31
0.0
  0
LINE
  5
150
330
1E
100
AcDbEntity
  8
0
100
AcDbLine
 10
168.999975
 20
49.1100829999998
 30
0.0
 11
168.999975
 21
49.7100829999999
 31
0.0
  0
LINE
  5
151
330
1E
100
AcDbEntity
  8
0
100
AcDbLine
 10
168.999975
 20
47.81008299999989
 30
0.0
 11
168.999975
 21
49.31008299999989
 31
0.0
  0
LINE
  5
152
330
1E
100
AcDbEntity
  8
0
100
AcDbLine
 10
168.999975
 20
49.31008299999989
 30
0.0
 11
168.999975
 21
47.81008299999989
 31
0.0
  0
LINE
  5
153
330
1E
100
AcDbEntity
  8
0
100
AcDbLine
 10
168.999975
 20
49.31008299999989
 30
0.0
 11
168.999975
 21
43.41008299999989
 31
0.0
  0
LINE
  5
154
330
1E
100
AcDbEntity
  8
0
100
AcDbLine
 10
168.999975
 20
49.31008299999989
 30
0.0
 11
168.999975
 21
49.7100829999999
 31
0.0
  0
LINE
  5
155
330
1E
100
AcDbEntity
  8
0
100
AcDbLine
 10
168.999975
 20
44.41008299999989
 30
0.0
 11
168.999975
 21
40.2100829999999
 31
0.0
  0
LINE
  5
156
330
1E
100
AcDbEntity
  8
0
100
AcDbLine
 10
191.3755749999999
 20
31.2100829999999
 30
0.0
 11
193.107675
 21
31.2100829999999
 31
0.0
  0
LINE
  5
157
330
1E
100
AcDbEntity
  8
0
100
AcDbLine
 10
191.3755749999999
 20
31.2100829999999
 30
0.0
 11
191.3755749999999
 21
37.2100829999999
 31
0.0
  0
LINE
  5
158
330
1E
100
AcDbEntity
  8
0
100
AcDbLine
 10
190.375575
 20
31.2100829999999
 30
0.0
 11
192.107675
 21
31.2100829999999
 31
0.0
  0
LINE
  5
159
330
1E
100
AcDbEntity
  8
0
100
AcDbLine
 10
190.375575
 20
31.2100829999999
 30
0.0
 11
191.3755749999999
 21
31.2100829999999
 31
0.0
  0
LINE
  5
15A
330
1E
100
AcDbEntity
  8
0
100
AcDbLine
 10
190.375575
 20
31.2100829999999
 30
0.0
 11
190.375575
 21
37.2100829999999
 31
0.0
  0
LINE
  5
15B
330
1E
100
AcDbEntity
  8
0
100
AcDbLine
 10
189.999975
 20
31.2100829999999
 30
0.0
 11
189.999975
 21
41.21008299999989
 31
0.0
  0
LINE
  5
15C
330
1E
100
AcDbEntity
  8
0
100
AcDbLine
 10
189.999975
 20
31.2100829999999
 30
0.0
 11
190.4679749999999
 21
31.2100829999999
 31
0.0
  0
LINE
  5
15D
330
1E
100
AcDbEntity
  8
0
100
AcDbLine
 10
190.4679749999999
 20
31.2100829999999
 30
0.0
 11
191.7159749999999
 21
31.2100829999999
 31
0.0
  0
LINE
  5
15E
330
1E
100
AcDbEntity
  8
0
100
AcDbLine
 10
192.107675
 20
31.2100829999999
 30
0.0
 11
193.107675
 21
31.2100829999999
 31
0.0
  0
LINE
  5
15F
330
1E
100
AcDbEntity
  8
0
100
AcDbLine
 10
191.857075
 20
31.2100829999999
 30
0.0
 11
192.258275
 21
31.2100829999999
 31
0.0
  0
LINE
  5
160
330
1E
100
AcDbEntity
  8
0
100
AcDbLine
 10
192.258275
 20
31.2100829999999
 30
0.0
 11
193.327975
 21
31.2100829999999
 31
0.0
  0
LINE
  5
161
330
1E
100
AcDbEntity
  8
0
100
AcDbLine
 10
193.327975
 20
31.2100829999999
 30
0.0
 11
195.1108749999999
 21
31.2100829999999
 31
0.0
  0
LINE
  5
162
330
1E
100
AcDbEntity
  8
0
100
AcDbLine
 10
195.1108749999999
 20
31.2100829999999
 30
0.0
 11
197.4730749999999
 21
31.2100829999999
 31
0.0
  0
LINE
  5
163
330
1E
100
AcDbEntity
  8
0
100
AcDbLine
 10
191.7159749999999
 20
31.2100829999999
 30
0.0
 11
193.795975
 21
31.2100829999999
 31
0.0
  0
LINE
  5
164
330
1E
100
AcDbEntity
  8
0
100
AcDbLine
 10
193.795975
 20
31.2100829999999
 30
0.0
 11
196.551975
 21
31.2100829999999
 31
0.0
  0
LINE
  5
165
330
1E
100
AcDbEntity
  8
0
100
AcDbLine
 10
203.999975
 20
31.2100829999999
 30
0.0
 11
203.999975
 21
37.2100829999999
 31
0.0
  0
LINE
  5
166
330
1E
100
AcDbEntity
  8
0
100
AcDbLine
 10
201.999975
 20
31.2100829999999
 30
0.0
 11
202.9999749999999
 21
31.2100829999999
 31
0.0
  0
LINE
  5
167
330
1E
100
AcDbEntity
  8
0
100
AcDbLine
 10
201.999975
 20
31.2100829999999
 30
0.0
 11
201.999975
 21
37.2100829999999
 31
0.0
  0
LINE
  5
168
330
1E
100
AcDbEntity
  8
0
100
AcDbLine
 10
201.999975
 20
31.2100829999999
 30
0.0
 11
203.999975
 21
31.2100829999999
 31
0.0
  0
LINE
  5
169
330
1E
100
AcDbEntity
  8
0
100
AcDbLine
 10
206.3279749999999
 20
31.2100829999999
 30
0.0
 11
208.526875
 21
31.2100829999999
 31
0.0
  0
LINE
  5
16A
330
1E
100
AcDbEntity
  8
0
100
AcDbLine
 10
210.889075
 20
31.2100829999999
 30
0.0
 11
212.6719749999999
 21
31.2100829999999
 31
0.0
  0
LINE
  5
16B
330
1E
100
AcDbEntity
  8
0
100
AcDbLine
 10
208.526875
 20
31.2100829999999
 30
0.0
 11
210.889075
 21
31.2100829999999
 31
0.0
  0
LINE
  5
16C
330
1E
100
AcDbEntity
  8
0
100
AcDbLine
 10
212.892275
 20
31.2100829999999
 30
0.0
 11
214.624375
 21
31.2100829999999
 31
0.0
  0
LINE
  5
16D
330
1E
100
AcDbEntity
  8
0
100
AcDbLine
 10
212.892275
 20
31.2100829999999
 30
0.0
 11
213.892275
 21
31.2100829999999
 31
0.0
  0
LINE
  5
16E
330
1E
100
AcDbEntity
  8
0
100
AcDbLine
 10
213.892275
 20
31.2100829999999
 30
0.0
 11
215.6243749999999
 21
31.2100829999999
 31
0.0
  0
LINE
  5
16F
330
1E
100
AcDbEntity
  8
0
100
AcDbLine
 10
214.624375
 20
31.2100829999999
 30
0.0
 11
215.6243749999999
 21
31.2100829999999
 31
0.0
  0
LINE
  5
170
330
1E
100
AcDbEntity
  8
0
100
AcDbLine
 10
214.624375
 20
31.2100829999999
 30
0.0
 11
214.624375
 21
37.2100829999999
 31
0.0
  0
LINE
  5
171
330
1E
100
AcDbEntity
  8
0
100
AcDbLine
 10
213.7416749999999
 20
31.2100829999999
 30
0.0
 11
214.142875
 21
31.2100829999999
 31
0.0
  0
LINE
  5
172
330
1E
100
AcDbEntity
  8
0
100
AcDbLine
 10
212.6719749999999
 20
31.2100829999999
 30
0.0
 11
213.7416749999999
 21
31.2100829999999
 31
0.0
  0
LINE
  5
173
330
1E
100
AcDbEntity
  8
0
100
AcDbLine
 10
215.6243749999999
 20
31.2100829999999
 30
0.0
 11
215.6243749999999
 21
37.2100829999999
 31
0.0
  0
LINE
  5
174
330
1E
100
AcDbEntity
  8
0
100
AcDbLine
 10
215.999975
 20
31.2100829999999
 30
0.0
 11
215.999975
 21
41.21008299999989
 31
0.0
  0
LINE
  5
175
330
1E
100
AcDbEntity
  8
0
100
AcDbLine
 10
215.5319749999999
 20
31.2100829999999
 30
0.0
 11
215.999975
 21
31.2100829999999
 31
0.0
  0
LINE
  5
176
330
1E
100
AcDbEntity
  8
0
100
AcDbLine
 10
214.2839749999999
 20
31.2100829999999
 30
0.0
 11
215.5319749999999
 21
31.2100829999999
 31
0.0
  0
LINE
  5
177
330
1E
100
AcDbEntity
  8
0
100
AcDbLine
 10
212.203975
 20
31.2100829999999
 30
0.0
 11
214.2839749999999
 21
31.2100829999999
 31
0.0
  0
LINE
  5
178
330
1E
100
AcDbEntity
  8
0
100
AcDbLine
 10
209.447975
 20
31.2100829999999
 30
0.0
 11
212.203975
 21
31.2100829999999
 31
0.0
  0
LINE
  5
179
330
1E
100
AcDbEntity
  8
0
100
AcDbLine
 10
206.3279749999999
 20
31.2100829999999
 30
0.0
 11
209.447975
 21
31.2100829999999
 31
0.0
  0
LINE
  5
17A
330
1E
100
AcDbEntity
  8
0
100
AcDbLine
 10
202.9999749999999
 20
31.2100829999999
 30
0.0
 11
206.3279749999999
 21
31.2100829999999
 31
0.0
  0
LINE
  5
17B
330
1E
100
AcDbEntity
  8
0
100
AcDbLine
 10
197.4730749999999
 20
31.2100829999999
 30
0.0
 11
200.147375
 21
31.2100829999999
 31
0.0
  0
LINE
  5
17C
330
1E
100
AcDbEntity
  8
0
100
AcDbLine
 10
200.147375
 20
31.2100829999999
 30
0.0
 11
202.9999749999999
 21
31.2100829999999
 31
0.0
  0
LINE
  5
17D
330
1E
100
AcDbEntity
  8
0
100
AcDbLine
 10
196.551975
 20
31.2100829999999
 30
0.0
 11
199.671975
 21
31.2100829999999
 31
0.0
  0
LINE
  5
17E
330
1E
100
AcDbEntity
  8
0
100
AcDbLine
 10
199.671975
 20
31.2100829999999
 30
0.0
 11
202.9999749999999
 21
31.2100829999999
 31
0.0
  0
LINE
  5
17F
330
1E
100
AcDbEntity
  8
0
100
AcDbLine
 10
169.999975
 20
33.2100829999999
 30
0.0
 11
175.999975
 21
33.2100829999999
 31
0.0
  0
LINE
  5
180
330
1E
100
AcDbEntity
  8
0
100
AcDbLine
 10
169.299975
 20
36.4100829999999
 30
0.0
 11
169.299975
 21
35.21008299999989
 31
0.0
  0
LINE
  5
181
330
1E
100
AcDbEntity
  8
0
100
AcDbLine
 10
169.299975
 20
36.4100829999999
 30
0.0
 11
169.299975
 21
37.71008299999989
 31
0.0
  0
LINE
  5
182
330
1E
100
AcDbEntity
  8
0
100
AcDbLine
 10
169.299975
 20
37.71008299999989
 30
0.0
 11
169.299975
 21
36.4100829999999
 31
0.0
  0
LINE
  5
183
330
1E
100
AcDbEntity
  8
0
100
AcDbLine
 10
169.299975
 20
37.71008299999989
 30
0.0
 11
169.299975
 21
39.21008299999989
 31
0.0
  0
LINE
  5
184
330
1E
100
AcDbEntity
  8
0
100
AcDbLine
 10
169.299975
 20
39.21008299999989
 30
0.0
 11
169.299975
 21
63.2100829999999
 31
0.0
  0
LINE
  5
185
330
1E
100
AcDbEntity
  8
0
100
AcDbLine
 10
169.299975
 20
39.21008299999989
 30
0.0
 11
169.299975
 21
37.71008299999989
 31
0.0
  0
LINE
  5
186
330
1E
100
AcDbEntity
  8
0
100
AcDbLine
 10
169.299975
 20
35.21008299999989
 30
0.0
 11
169.299975
 21
34.3100829999999
 31
0.0
  0
LINE
  5
187
330
1E
100
AcDbEntity
  8
0
100
AcDbLine
 10
169.299975
 20
35.21008299999989
 30
0.0
 11
169.299975
 21
36.4100829999999
 31
0.0
  0
LINE
  5
188
330
1E
100
AcDbEntity
  8
0
100
AcDbLine
 10
169.299975
 20
34.3100829999999
 30
0.0
 11
169.299975
 21
33.71008299999989
 31
0.0
  0
LINE
  5
189
330
1E
100
AcDbEntity
  8
0
100
AcDbLine
 10
169.299975
 20
34.3100829999999
 30
0.0
 11
169.299975
 21
35.21008299999989
 31
0.0
  0
LINE
  5
18A
330
1E
100
AcDbEntity
  8
0
100
AcDbLine
 10
169.299975
 20
33.71008299999989
 30
0.0
 11
169.299975
 21
33.5100829999999
 31
0.0
  0
LINE
  5
18B
330
1E
100
AcDbEntity
  8
0
100
AcDbLine
 10
169.299975
 20
33.71008299999989
 30
0.0
 11
169.299975
 21
34.3100829999999
 31
0.0
  0
LINE
  5
18C
330
1E
100
AcDbEntity
  8
0
100
AcDbLine
 10
175.999975
 20
35.0100829999999
 30
0.0
 11
175.999975
 21
34.0100829999999
 31
0.0
  0
LINE
  5
18D
330
1E
100
AcDbEntity
  8
0
100
AcDbLine
 10
175.999975
 20
35.0100829999999
 30
0.0
 11
175.999975
 21
36.21008299999989
 31
0.0
  0
LINE
  5
18E
330
1E
100
AcDbEntity
  8
0
100
AcDbLine
 10
175.999975
 20
36.21008299999989
 30
0.0
 11
175.999975
 21
35.0100829999999
 31
0.0
  0
LINE
  5
18F
330
1E
100
AcDbEntity
  8
0
100
AcDbLine
 10
175.999975
 20
36.21008299999989
 30
0.0
 11
175.999975
 21
37.71008299999989
 31
0.0
  0
LINE
  5
190
330
1E
100
AcDbEntity
  8
0
100
AcDbLine
 10
175.999975
 20
37.71008299999989
 30
0.0
 11
175.999975
 21
36.21008299999989
 31
0.0
  0
LINE
  5
191
330
1E
100
AcDbEntity
  8
0
100
AcDbLine
 10
175.999975
 20
37.71008299999989
 30
0.0
 11
175.999975
 21
39.21008299999989
 31
0.0
  0
LINE
  5
192
330
1E
100
AcDbEntity
  8
0
100
AcDbLine
 10
175.999975
 20
50.2100829999999
 30
0.0
 11
189.999975
 21
50.2100829999999
 31
0.0
  0
LINE
  5
193
330
1E
100
AcDbEntity
  8
0
100
AcDbLine
 10
175.999975
 20
39.21008299999989
 30
0.0
 11
175.999975
 21
37.71008299999989
 31
0.0
  0
LINE
  5
194
330
1E
100
AcDbEntity
  8
0
100
AcDbLine
 10
175.999975
 20
39.21008299999989
 30
0.0
 11
175.999975
 21
63.2100829999999
 31
0.0
  0
LINE
  5
195
330
1E
100
AcDbEntity
  8
0
100
AcDbLine
 10
190.375575
 20
37.2100829999999
 30
0.0
 11
190.375575
 21
31.2100829999999
 31
0.0
  0
LINE
  5
196
330
1E
100
AcDbEntity
  8
0
100
AcDbLine
 10
190.375575
 20
37.2100829999999
 30
0.0
 11
191.3755749999999
 21
37.2100829999999
 31
0.0
  0
LINE
  5
197
330
1E
100
AcDbEntity
  8
0
100
AcDbLine
 10
191.3755749999999
 20
37.2100829999999
 30
0.0
 11
191.3755749999999
 21
31.2100829999999
 31
0.0
  0
LINE
  5
198
330
1E
100
AcDbEntity
  8
0
100
AcDbLine
 10
191.3755749999999
 20
37.2100829999999
 30
0.0
 11
213.035975
 21
37.2100829999999
 31
0.0
  0
LINE
  5
199
330
1E
100
AcDbEntity
  8
0
100
AcDbLine
 10
190.4679749999999
 20
41.21008299999989
 30
0.0
 11
191.7159749999999
 21
41.21008299999989
 31
0.0
  0
LINE
  5
19A
330
1E
100
AcDbEntity
  8
0
100
AcDbLine
 10
191.7159749999999
 20
41.21008299999989
 30
0.0
 11
193.795975
 21
41.21008299999989
 31
0.0
  0
LINE
  5
19B
330
1E
100
AcDbEntity
  8
0
100
AcDbLine
 10
193.795975
 20
41.21008299999989
 30
0.0
 11
196.551975
 21
41.21008299999989
 31
0.0
  0
LINE
  5
19C
330
1E
100
AcDbEntity
  8
0
100
AcDbLine
 10
196.551975
 20
41.21008299999989
 30
0.0
 11
199.671975
 21
41.21008299999989
 31
0.0
  0
LINE
  5
19D
330
1E
100
AcDbEntity
  8
0
100
AcDbLine
 10
203.999975
 20
37.2100829999999
 30
0.0
 11
203.999975
 21
31.2100829999999
 31
0.0
  0
LINE
  5
19E
330
1E
100
AcDbEntity
  8
0
100
AcDbLine
 10
201.999975
 20
37.2100829999999
 30
0.0
 11
201.999975
 21
31.2100829999999
 31
0.0
  0
LINE
  5
19F
330
1E
100
AcDbEntity
  8
0
100
AcDbLine
 10
201.999975
 20
37.2100829999999
 30
0.0
 11
203.999975
 21
37.2100829999999
 31
0.0
  0
LINE
  5
1A0
330
1E
100
AcDbEntity
  8
0
100
AcDbLine
 10
213.035975
 20
37.2100829999999
 30
0.0
 11
214.624375
 21
37.2100829999999
 31
0.0
  0
LINE
  5
1A1
330
1E
100
AcDbEntity
  8
0
100
AcDbLine
 10
214.624375
 20
37.2100829999999
 30
0.0
 11
215.6243749999999
 21
37.2100829999999
 31
0.0
  0
LINE
  5
1A2
330
1E
100
AcDbEntity
  8
0
100
AcDbLine
 10
214.624375
 20
37.2100829999999
 30
0.0
 11
214.624375
 21
31.2100829999999
 31
0.0
  0
LINE
  5
1A3
330
1E
100
AcDbEntity
  8
0
100
AcDbLine
 10
215.6243749999999
 20
37.2100829999999
 30
0.0
 11
215.6243749999999
 21
31.2100829999999
 31
0.0
  0
LINE
  5
1A4
330
1E
100
AcDbEntity
  8
0
100
AcDbLine
 10
215.999975
 20
41.21008299999989
 30
0.0
 11
215.999975
 21
63.2100829999999
 31
0.0
  0
LINE
  5
1A5
330
1E
100
AcDbEntity
  8
0
100
AcDbLine
 10
215.5319749999999
 20
41.21008299999989
 30
0.0
 11
215.999975
 21
41.21008299999989
 31
0.0
  0
LINE
  5
1A6
330
1E
100
AcDbEntity
  8
0
100
AcDbLine
 10
214.2839749999999
 20
41.21008299999989
 30
0.0
 11
215.5319749999999
 21
41.21008299999989
 31
0.0
  0
LINE
  5
1A7
330
1E
100
AcDbEntity
  8
0
100
AcDbLine
 10
212.203975
 20
41.21008299999989
 30
0.0
 11
214.2839749999999
 21
41.21008299999989
 31
0.0
  0
LINE
  5
1A8
330
1E
100
AcDbEntity
  8
0
100
AcDbLine
 10
209.447975
 20
41.21008299999989
 30
0.0
 11
212.203975
 21
41.21008299999989
 31
0.0
  0
LINE
  5
1A9
330
1E
100
AcDbEntity
  8
0
100
AcDbLine
 10
206.3279749999999
 20
41.21008299999989
 30
0.0
 11
209.447975
 21
41.21008299999989
 31
0.0
  0
LINE
  5
1AA
330
1E
100
AcDbEntity
  8
0
100
AcDbLine
 10
202.9999749999999
 20
41.21008299999989
 30
0.0
 11
206.3279749999999
 21
41.21008299999989
 31
0.0
  0
LINE
  5
1AB
330
1E
100
AcDbEntity
  8
0
100
AcDbLine
 10
199.671975
 20
41.21008299999989
 30
0.0
 11
202.9999749999999
 21
41.21008299999989
 31
0.0
  0
LINE
  5
1AC
330
1E
100
AcDbEntity
  8
0
100
AcDbLine
 10
204.999975
 20
50.2100829999999
 30
0.0
 11
204.999975
 21
50.41008299999989
 31
0.0
  0
LINE
  5
1AD
330
1E
100
AcDbEntity
  8
0
100
AcDbLine
 10
200.9999749999999
 20
52.7100829999999
 30
0.0
 11
200.9999749999999
 21
51.71008299999989
 31
0.0
  0
LINE
  5
1AE
330
1E
100
AcDbEntity
  8
0
100
AcDbLine
 10
200.9999749999999
 20
52.7100829999999
 30
0.0
 11
200.9999749999999
 21
63.2100829999999
 31
0.0
  0
LINE
  5
1AF
330
1E
100
AcDbEntity
  8
0
100
AcDbLine
 10
200.9999749999999
 20
51.71008299999989
 30
0.0
 11
200.9999749999999
 21
50.91008299999989
 31
0.0
  0
LINE
  5
1B0
330
1E
100
AcDbEntity
  8
0
100
AcDbLine
 10
200.9999749999999
 20
51.71008299999989
 30
0.0
 11
200.9999749999999
 21
52.7100829999999
 31
0.0
  0
LINE
  5
1B1
330
1E
100
AcDbEntity
  8
0
100
AcDbLine
 10
200.9999749999999
 20
50.91008299999989
 30
0.0
 11
200.9999749999999
 21
50.41008299999989
 31
0.0
  0
LINE
  5
1B2
330
1E
100
AcDbEntity
  8
0
100
AcDbLine
 10
200.9999749999999
 20
50.91008299999989
 30
0.0
 11
200.9999749999999
 21
51.71008299999989
 31
0.0
  0
LINE
  5
1B3
330
1E
100
AcDbEntity
  8
0
100
AcDbLine
 10
204.999975
 20
52.7100829999999
 30
0.0
 11
204.999975
 21
63.2100829999999
 31
0.0
  0
LINE
  5
1B4
330
1E
100
AcDbEntity
  8
0
100
AcDbLine
 10
204.999975
 20
52.7100829999999
 30
0.0
 11
204.999975
 21
51.71008299999989
 31
0.0
  0
LINE
  5
1B5
330
1E
100
AcDbEntity
  8
0
100
AcDbLine
 10
204.999975
 20
51.71008299999989
 30
0.0
 11
204.999975
 21
52.7100829999999
 31
0.0
  0
LINE
  5
1B6
330
1E
100
AcDbEntity
  8
0
100
AcDbLine
 10
204.999975
 20
51.71008299999989
 30
0.0
 11
204.999975
 21
50.91008299999989
 31
0.0
  0
LINE
  5
1B7
330
1E
100
AcDbEntity
  8
0
100
AcDbLine
 10
204.999975
 20
50.91008299999989
 30
0.0
 11
204.999975
 21
51.71008299999989
 31
0.0
  0
LINE
  5
1B8
330
1E
100
AcDbEntity
  8
0
100
AcDbLine
 10
204.999975
 20
50.91008299999989
 30
0.0
 11
204.999975
 21
50.41008299999989
 31
0.0
  0
LINE
  5
1B9
330
1E
100
AcDbEntity
  8
0
100
AcDbLine
 10
204.999975
 20
50.41008299999989
 30
0.0
 11
204.999975
 21
50.91008299999989
 31
0.0
  0
LINE
  5
1BA
330
1E
100
AcDbEntity
  8
0
100
AcDbLine
 10
204.999975
 20
50.41008299999989
 30
0.0
 11
204.999975
 21
50.2100829999999
 31
0.0
  0
LINE
  5
1BB
330
1E
100
AcDbEntity
  8
0
100
AcDbLine
 10
200.9999749999999
 20
50.41008299999989
 30
0.0
 11
200.9999749999999
 21
50.2100829999999
 31
0.0
  0
LINE
  5
1BC
330
1E
100
AcDbEntity
  8
0
100
AcDbLine
 10
200.9999749999999
 20
50.41008299999989
 30
0.0
 11
200.9999749999999
 21
50.91008299999989
 31
0.0
  0
LINE
  5
1BD
330
1E
100
AcDbEntity
  8
0
100
AcDbLine
 10
200.9999749999999
 20
50.2100829999999
 30
0.0
 11
204.999975
 21
50.2100829999999
 31
0.0
  0
LINE
  5
1BE
330
1E
100
AcDbEntity
  8
0
100
AcDbLine
 10
200.9999749999999
 20
50.2100829999999
 30
0.0
 11
200.9999749999999
 21
50.41008299999989
 31
0.0
  0
LINE
  5
1BF
330
1E
100
AcDbEntity
  8
0
100
AcDbLine
 10
189.999975
 20
50.2100829999999
 30
0.0
 11
189.999975
 21
41.21008299999989
 31
0.0
  0
LINE
  5
1C0
330
1E
100
AcDbEntity
  8
0
100
AcDbLine
 10
189.999975
 20
41.21008299999989
 30
0.0
 11
189.999975
 21
31.2100829999999
 31
0.0
  0
LINE
  5
1C1
330
1E
100
AcDbEntity
  8
0
100
AcDbLine
 10
189.999975
 20
41.21008299999989
 30
0.0
 11
189.999975
 21
50.2100829999999
 31
0.0
  0
LINE
  5
1C2
330
1E
100
AcDbEntity
  8
0
100
AcDbLine
 10
189.999975
 20
41.21008299999989
 30
0.0
 11
190.4679749999999
 21
41.21008299999989
 31
0.0
  0
LINE
  5
1C3
330
1E
100
AcDbEntity
  8
0
100
AcDbLine
 10
175.999975
 20
34.0100829999999
 30
0.0
 11
175.999975
 21
35.0100829999999
 31
0.0
  0
LINE
  5
1C4
330
1E
100
AcDbEntity
  8
0
100
AcDbLine
 10
175.999975
 20
34.0100829999999
 30
0.0
 11
175.999975
 21
33.4100829999999
 31
0.0
  0
LINE
  5
1C5
330
1E
100
AcDbEntity
  8
0
100
AcDbLine
 10
175.999975
 20
33.4100829999999
 30
0.0
 11
175.999975
 21
34.0100829999999
 31
0.0
  0
LINE
  5
1C6
330
1E
100
AcDbEntity
  8
0
100
AcDbLine
 10
175.999975
 20
33.4100829999999
 30
0.0
 11
175.999975
 21
33.2100829999999
 31
0.0
  0
LINE
  5
1C7
330
1E
100
AcDbEntity
  8
0
100
AcDbLine
 10
169.299975
 20
63.2100829999999
 30
0.0
 11
169.299975
 21
87.2100829999999
 31
0.0
  0
LINE
  5
1C8
330
1E
100
AcDbEntity
  8
0
100
AcDbLine
 10
200.9999749999999
 20
63.2100829999999
 30
0.0
 11
200.9999749999999
 21
73.71008299999989
 31
0.0
  0
LINE
  5
1C9
330
1E
100
AcDbEntity
  8
0
100
AcDbLine
 10
200.9999749999999
 20
63.2100829999999
 30
0.0
 11
200.9999749999999
 21
52.7100829999999
 31
0.0
  0
LINE
  5
1CA
330
1E
100
AcDbEntity
  8
0
100
AcDbLine
 10
204.999975
 20
63.2100829999999
 30
0.0
 11
204.999975
 21
73.71008299999989
 31
0.0
  0
LINE
  5
1CB
330
1E
100
AcDbEntity
  8
0
100
AcDbLine
 10
204.999975
 20
63.2100829999999
 30
0.0
 11
204.999975
 21
52.7100829999999
 31
0.0
  0
LINE
  5
1CC
330
1E
100
AcDbEntity
  8
0
100
AcDbLine
 10
200.9999749999999
 20
73.71008299999989
 30
0.0
 11
200.9999749999999
 21
63.2100829999999
 31
0.0
  0
LINE
  5
1CD
330
1E
100
AcDbEntity
  8
0
100
AcDbLine
 10
200.9999749999999
 20
73.71008299999989
 30
0.0
 11
200.9999749999999
 21
74.7100829999999
 31
0.0
  0
LINE
  5
1CE
330
1E
100
AcDbEntity
  8
0
100
AcDbLine
 10
204.999975
 20
73.71008299999989
 30
0.0
 11
204.999975
 21
74.7100829999999
 31
0.0
  0
LINE
  5
1CF
330
1E
100
AcDbEntity
  8
0
100
AcDbLine
 10
204.999975
 20
73.71008299999989
 30
0.0
 11
204.999975
 21
63.2100829999999
 31
0.0
  0
LINE
  5
1D0
330
1E
100
AcDbEntity
  8
0
100
AcDbLine
 10
215.999975
 20
63.2100829999999
 30
0.0
 11
215.999975
 21
85.21008299999989
 31
0.0
  0
LINE
  5
1D1
330
1E
100
AcDbEntity
  8
0
100
AcDbLine
 10
215.999975
 20
63.2100829999999
 30
0.0
 11
215.999975
 21
41.21008299999989
 31
0.0
  0
LINE
  5
1D2
330
1E
100
AcDbEntity
  8
0
100
AcDbLine
 10
175.999975
 20
63.2100829999999
 30
0.0
 11
175.999975
 21
87.2100829999999
 31
0.0
  0
LINE
  5
1D3
330
1E
100
AcDbEntity
  8
0
100
AcDbLine
 10
175.999975
 20
63.2100829999999
 30
0.0
 11
175.999975
 21
39.21008299999989
 31
0.0
  0
LINE
  5
1D4
330
1E
100
AcDbEntity
  8
0
100
AcDbLine
 10
169.299975
 20
33.5100829999999
 30
0.0
 11
169.999975
 21
33.2100829999999
 31
0.0
  0
LINE
  5
1D5
330
1E
100
AcDbEntity
  8
0
100
AcDbLine
 10
169.299975
 20
33.5100829999999
 30
0.0
 11
169.299975
 21
33.71008299999989
 31
0.0
  0
LINE
  5
1D6
330
1E
100
AcDbEntity
  8
0
100
AcDbLine
 10
175.999975
 20
33.2100829999999
 30
0.0
 11
175.999975
 21
33.4100829999999
 31
0.0
  0
LINE
  5
1D7
330
1E
100
AcDbEntity
  8
0
100
AcDbLine
 10
168.999975
 20
37.61008299999989
 30
0.0
 11
168.999975
 21
36.6100829999999
 31
0.0
  0
LINE
  5
1D8
330
1E
100
AcDbEntity
  8
0
100
AcDbLine
 10
167.7999749999999
 20
74.4100829999999
 30
0.0
 11
168.599975
 21
75.4100829999999
 31
0.0
  0
LINE
  5
1D9
330
1E
100
AcDbEntity
  8
0
100
AcDbLine
 10
168.999975
 20
74.9100829999999
 30
0.0
 11
168.999975
 21
76.21008299999989
 31
0.0
  0
LINE
  5
1DA
330
1E
100
AcDbEntity
  8
0
100
AcDbLine
 10
168.599975
 20
75.4100829999999
 30
0.0
 11
168.999975
 21
76.71008299999989
 31
0.0
  0
LINE
  5
1DB
330
1E
100
AcDbEntity
  8
0
100
AcDbLine
 10
168.999975
 20
75.9100829999999
 30
0.0
 11
168.999975
 21
77.31008299999991
 31
0.0
  0
LINE
  5
1DC
330
1E
100
AcDbEntity
  8
0
100
AcDbLine
 10
168.999975
 20
76.21008299999989
 30
0.0
 11
168.999975
 21
74.9100829999999
 31
0.0
  0
LINE
  5
1DD
330
1E
100
AcDbEntity
  8
0
100
AcDbLine
 10
168.999975
 20
74.5100829999999
 30
0.0
 11
168.999975
 21
71.21008299999989
 31
0.0
  0
LINE
  5
1DE
330
1E
100
AcDbEntity
  8
0
100
AcDbLine
 10
168.999975
 20
76.4100829999999
 30
0.0
 11
168.999975
 21
70.01008299999989
 31
0.0
  0
LINE
  5
1DF
330
1E
100
AcDbEntity
  8
0
100
AcDbLine
 10
168.999975
 20
77.31008299999991
 30
0.0
 11
168.999975
 21
76.71008299999989
 31
0.0
  0
LINE
  5
1E0
330
1E
100
AcDbEntity
  8
0
100
AcDbLine
 10
168.999975
 20
77.31008299999991
 30
0.0
 11
168.999975
 21
75.9100829999999
 31
0.0
  0
LINE
  5
1E1
330
1E
100
AcDbEntity
  8
0
100
AcDbLine
 10
168.999975
 20
78.61008299999991
 30
0.0
 11
168.999975
 21
79.21008299999989
 31
0.0
  0
LINE
  5
1E2
330
1E
100
AcDbEntity
  8
0
100
AcDbLine
 10
168.999975
 20
87.51008299999991
 30
0.0
 11
168.999975
 21
83.0100829999999
 31
0.0
  0
LINE
  5
1E3
330
1E
100
AcDbEntity
  8
0
100
AcDbLine
 10
168.999975
 20
88.51008299999991
 30
0.0
 11
168.999975
 21
87.2100829999999
 31
0.0
  0
LINE
  5
1E4
330
1E
100
AcDbEntity
  8
0
100
AcDbLine
 10
168.999975
 20
88.51008299999991
 30
0.0
 11
168.999975
 21
90.21008299999989
 31
0.0
  0
LINE
  5
1E5
330
1E
100
AcDbEntity
  8
0
100
AcDbLine
 10
168.999975
 20
87.2100829999999
 30
0.0
 11
168.999975
 21
76.71008299999989
 31
0.0
  0
LINE
  5
1E6
330
1E
100
AcDbEntity
  8
0
100
AcDbLine
 10
168.999975
 20
87.2100829999999
 30
0.0
 11
168.999975
 21
88.51008299999991
 31
0.0
  0
LINE
  5
1E7
330
1E
100
AcDbEntity
  8
0
100
AcDbLine
 10
168.999975
 20
87.2100829999999
 30
0.0
 11
168.999975
 21
63.2100829999999
 31
0.0
  0
LINE
  5
1E8
330
1E
100
AcDbEntity
  8
0
100
AcDbLine
 10
168.999975
 20
83.0100829999999
 30
0.0
 11
168.999975
 21
77.1100829999999
 31
0.0
  0
LINE
  5
1E9
330
1E
100
AcDbEntity
  8
0
100
AcDbLine
 10
168.999975
 20
83.0100829999999
 30
0.0
 11
168.999975
 21
87.51008299999991
 31
0.0
  0
LINE
  5
1EA
330
1E
100
AcDbEntity
  8
0
100
AcDbLine
 10
168.999975
 20
82.0100829999999
 30
0.0
 11
168.999975
 21
86.2100829999999
 31
0.0
  0
LINE
  5
1EB
330
1E
100
AcDbEntity
  8
0
100
AcDbLine
 10
168.999975
 20
79.21008299999989
 30
0.0
 11
168.999975
 21
78.61008299999991
 31
0.0
  0
LINE
  5
1EC
330
1E
100
AcDbEntity
  8
0
100
AcDbLine
 10
168.999975
 20
86.2100829999999
 30
0.0
 11
168.999975
 21
82.0100829999999
 31
0.0
  0
LINE
  5
1ED
330
1E
100
AcDbEntity
  8
0
100
AcDbLine
 10
168.999975
 20
86.2100829999999
 30
0.0
 11
168.999975
 21
88.8100829999999
 31
0.0
  0
LINE
  5
1EE
330
1E
100
AcDbEntity
  8
0
100
AcDbLine
 10
168.999975
 20
91.2100829999999
 30
0.0
 11
168.999975
 21
90.21008299999989
 31
0.0
  0
LINE
  5
1EF
330
1E
100
AcDbEntity
  8
0
100
AcDbLine
 10
168.999975
 20
90.21008299999989
 30
0.0
 11
168.999975
 21
91.2100829999999
 31
0.0
  0
LINE
  5
1F0
330
1E
100
AcDbEntity
  8
0
100
AcDbLine
 10
168.999975
 20
90.21008299999989
 30
0.0
 11
168.999975
 21
88.51008299999991
 31
0.0
  0
LINE
  5
1F1
330
1E
100
AcDbEntity
  8
0
100
AcDbLine
 10
168.999975
 20
90.7100829999999
 30
0.0
 11
168.999975
 21
91.51008299999991
 31
0.0
  0
LINE
  5
1F2
330
1E
100
AcDbEntity
  8
0
100
AcDbLine
 10
168.999975
 20
88.8100829999999
 30
0.0
 11
168.999975
 21
86.2100829999999
 31
0.0
  0
LINE
  5
1F3
330
1E
100
AcDbEntity
  8
0
100
AcDbLine
 10
168.999975
 20
77.1100829999999
 30
0.0
 11
168.999975
 21
83.0100829999999
 31
0.0
  0
LINE
  5
1F4
330
1E
100
AcDbEntity
  8
0
100
AcDbLine
 10
168.999975
 20
77.1100829999999
 30
0.0
 11
168.999975
 21
76.71008299999989
 31
0.0
  0
LINE
  5
1F5
330
1E
100
AcDbEntity
  8
0
100
AcDbLine
 10
168.999975
 20
77.1100829999999
 30
0.0
 11
168.999975
 21
70.4100829999999
 31
0.0
  0
LINE
  5
1F6
330
1E
100
AcDbEntity
  8
0
100
AcDbLine
 10
168.999975
 20
76.71008299999989
 30
0.0
 11
168.999975
 21
77.1100829999999
 31
0.0
  0
LINE
  5
1F7
330
1E
100
AcDbEntity
  8
0
100
AcDbLine
 10
168.999975
 20
76.71008299999989
 30
0.0
 11
168.999975
 21
77.31008299999991
 31
0.0
  0
LINE
  5
1F8
330
1E
100
AcDbEntity
  8
0
100
AcDbLine
 10
168.999975
 20
76.71008299999989
 30
0.0
 11
168.999975
 21
87.2100829999999
 31
0.0
  0
LINE
  5
1F9
330
1E
100
AcDbEntity
  8
0
100
AcDbLine
 10
168.999975
 20
91.51008299999991
 30
0.0
 11
168.999975
 21
90.7100829999999
 31
0.0
  0
LINE
  5
1FA
330
1E
100
AcDbEntity
  8
0
100
AcDbLine
 10
168.999975
 20
91.51008299999991
 30
0.0
 11
168.999975
 21
92.0100829999999
 31
0.0
  0
LINE
  5
1FB
330
1E
100
AcDbEntity
  8
0
100
AcDbLine
 10
168.999975
 20
92.0100829999999
 30
0.0
 11
168.999975
 21
91.51008299999991
 31
0.0
  0
LINE
  5
1FC
330
1E
100
AcDbEntity
  8
0
100
AcDbLine
 10
168.999975
 20
92.0100829999999
 30
0.0
 11
168.999975
 21
92.2100829999999
 31
0.0
  0
LINE
  5
1FD
330
1E
100
AcDbEntity
  8
0
100
AcDbLine
 10
169.299975
 20
90.01008299999991
 30
0.0
 11
169.299975
 21
88.7100829999999
 31
0.0
  0
LINE
  5
1FE
330
1E
100
AcDbEntity
  8
0
100
AcDbLine
 10
169.299975
 20
90.01008299999991
 30
0.0
 11
169.299975
 21
91.2100829999999
 31
0.0
  0
LINE
  5
1FF
330
1E
100
AcDbEntity
  8
0
100
AcDbLine
 10
169.299975
 20
88.7100829999999
 30
0.0
 11
169.299975
 21
87.2100829999999
 31
0.0
  0
LINE
  5
200
330
1E
100
AcDbEntity
  8
0
100
AcDbLine
 10
169.299975
 20
88.7100829999999
 30
0.0
 11
169.299975
 21
90.01008299999991
 31
0.0
  0
LINE
  5
201
330
1E
100
AcDbEntity
  8
0
100
AcDbLine
 10
169.299975
 20
87.2100829999999
 30
0.0
 11
169.299975
 21
63.2100829999999
 31
0.0
  0
LINE
  5
202
330
1E
100
AcDbEntity
  8
0
100
AcDbLine
 10
169.299975
 20
87.2100829999999
 30
0.0
 11
169.299975
 21
88.7100829999999
 31
0.0
  0
LINE
  5
203
330
1E
100
AcDbEntity
  8
0
100
AcDbLine
 10
169.299975
 20
91.2100829999999
 30
0.0
 11
169.299975
 21
92.1100829999999
 31
0.0
  0
LINE
  5
204
330
1E
100
AcDbEntity
  8
0
100
AcDbLine
 10
169.299975
 20
91.2100829999999
 30
0.0
 11
169.299975
 21
90.01008299999991
 31
0.0
  0
LINE
  5
205
330
1E
100
AcDbEntity
  8
0
100
AcDbLine
 10
169.299975
 20
92.1100829999999
 30
0.0
 11
169.299975
 21
91.2100829999999
 31
0.0
  0
LINE
  5
206
330
1E
100
AcDbEntity
  8
0
100
AcDbLine
 10
169.299975
 20
92.1100829999999
 30
0.0
 11
169.299975
 21
92.71008299999989
 31
0.0
  0
LINE
  5
207
330
1E
100
AcDbEntity
  8
0
100
AcDbLine
 10
169.299975
 20
92.71008299999989
 30
0.0
 11
169.299975
 21
92.1100829999999
 31
0.0
  0
LINE
  5
208
330
1E
100
AcDbEntity
  8
0
100
AcDbLine
 10
169.299975
 20
92.71008299999989
 30
0.0
 11
169.299975
 21
92.9100829999999
 31
0.0
  0
LINE
  5
209
330
1E
100
AcDbEntity
  8
0
100
AcDbLine
 10
168.999975
 20
92.2100829999999
 30
0.0
 11
169.299975
 21
92.9100829999999
 31
0.0
  0
LINE
  5
20A
330
1E
100
AcDbEntity
  8
0
100
AcDbLine
 10
168.999975
 20
92.2100829999999
 30
0.0
 11
168.999975
 21
92.0100829999999
 31
0.0
  0
LINE
  5
20B
330
1E
100
AcDbEntity
  8
0
100
AcDbLine
 10
169.299975
 20
92.9100829999999
 30
0.0
 11
169.999975
 21
93.2100829999999
 31
0.0
  0
LINE
  5
20C
330
1E
100
AcDbEntity
  8
0
100
AcDbLine
 10
169.299975
 20
92.9100829999999
 30
0.0
 11
169.299975
 21
92.71008299999989
 31
0.0
  0
LINE
  5
20D
330
1E
100
AcDbEntity
  8
0
100
AcDbLine
 10
175.999975
 20
76.21008299999989
 30
0.0
 11
189.999975
 21
76.21008299999989
 31
0.0
  0
LINE
  5
20E
330
1E
100
AcDbEntity
  8
0
100
AcDbLine
 10
175.999975
 20
90.21008299999989
 30
0.0
 11
175.999975
 21
88.7100829999999
 31
0.0
  0
LINE
  5
20F
330
1E
100
AcDbEntity
  8
0
100
AcDbLine
 10
175.999975
 20
90.21008299999989
 30
0.0
 11
175.999975
 21
91.4100829999999
 31
0.0
  0
LINE
  5
210
330
1E
100
AcDbEntity
  8
0
100
AcDbLine
 10
175.999975
 20
88.7100829999999
 30
0.0
 11
175.999975
 21
87.2100829999999
 31
0.0
  0
LINE
  5
211
330
1E
100
AcDbEntity
  8
0
100
AcDbLine
 10
175.999975
 20
88.7100829999999
 30
0.0
 11
175.999975
 21
90.21008299999989
 31
0.0
  0
LINE
  5
212
330
1E
100
AcDbEntity
  8
0
100
AcDbLine
 10
175.999975
 20
87.2100829999999
 30
0.0
 11
175.999975
 21
63.2100829999999
 31
0.0
  0
LINE
  5
213
330
1E
100
AcDbEntity
  8
0
100
AcDbLine
 10
175.999975
 20
87.2100829999999
 30
0.0
 11
175.999975
 21
88.7100829999999
 31
0.0
  0
LINE
  5
214
330
1E
100
AcDbEntity
  8
0
100
AcDbLine
 10
175.999975
 20
91.4100829999999
 30
0.0
 11
175.999975
 21
92.4100829999999
 31
0.0
  0
LINE
  5
215
330
1E
100
AcDbEntity
  8
0
100
AcDbLine
 10
175.999975
 20
91.4100829999999
 30
0.0
 11
175.999975
 21
90.21008299999989
 31
0.0
  0
LINE
  5
216
330
1E
100
AcDbEntity
  8
0
100
AcDbLine
 10
190.4679749999999
 20
85.21008299999989
 30
0.0
 11
191.7159749999999
 21
85.21008299999989
 31
0.0
  0
LINE
  5
217
330
1E
100
AcDbEntity
  8
0
100
AcDbLine
 10
191.7159749999999
 20
85.21008299999989
 30
0.0
 11
193.795975
 21
85.21008299999989
 31
0.0
  0
LINE
  5
218
330
1E
100
AcDbEntity
  8
0
100
AcDbLine
 10
193.795975
 20
85.21008299999989
 30
0.0
 11
196.551975
 21
85.21008299999989
 31
0.0
  0
LINE
  5
219
330
1E
100
AcDbEntity
  8
0
100
AcDbLine
 10
200.9999749999999
 20
74.7100829999999
 30
0.0
 11
200.9999749999999
 21
73.71008299999989
 31
0.0
  0
LINE
  5
21A
330
1E
100
AcDbEntity
  8
0
100
AcDbLine
 10
200.9999749999999
 20
74.7100829999999
 30
0.0
 11
200.9999749999999
 21
75.51008299999991
 31
0.0
  0
LINE
  5
21B
330
1E
100
AcDbEntity
  8
0
100
AcDbLine
 10
200.9999749999999
 20
75.51008299999991
 30
0.0
 11
200.9999749999999
 21
74.7100829999999
 31
0.0
  0
LINE
  5
21C
330
1E
100
AcDbEntity
  8
0
100
AcDbLine
 10
200.9999749999999
 20
75.51008299999991
 30
0.0
 11
200.9999749999999
 21
76.01008299999991
 31
0.0
  0
LINE
  5
21D
330
1E
100
AcDbEntity
  8
0
100
AcDbLine
 10
200.9999749999999
 20
76.01008299999991
 30
0.0
 11
200.9999749999999
 21
75.51008299999991
 31
0.0
  0
LINE
  5
21E
330
1E
100
AcDbEntity
  8
0
100
AcDbLine
 10
200.9999749999999
 20
76.01008299999991
 30
0.0
 11
200.9999749999999
 21
76.21008299999989
 31
0.0
  0
LINE
  5
21F
330
1E
100
AcDbEntity
  8
0
100
AcDbLine
 10
200.9999749999999
 20
76.21008299999989
 30
0.0
 11
204.999975
 21
76.21008299999989
 31
0.0
  0
LINE
  5
220
330
1E
100
AcDbEntity
  8
0
100
AcDbLine
 10
200.9999749999999
 20
76.21008299999989
 30
0.0
 11
200.9999749999999
 21
76.01008299999991
 31
0.0
  0
LINE
  5
221
330
1E
100
AcDbEntity
  8
0
100
AcDbLine
 10
204.999975
 20
74.7100829999999
 30
0.0
 11
204.999975
 21
75.51008299999991
 31
0.0
  0
LINE
  5
222
330
1E
100
AcDbEntity
  8
0
100
AcDbLine
 10
204.999975
 20
74.7100829999999
 30
0.0
 11
204.999975
 21
73.71008299999989
 31
0.0
  0
LINE
  5
223
330
1E
100
AcDbEntity
  8
0
100
AcDbLine
 10
204.999975
 20
75.51008299999991
 30
0.0
 11
204.999975
 21
76.01008299999991
 31
0.0
  0
LINE
  5
224
330
1E
100
AcDbEntity
  8
0
100
AcDbLine
 10
204.999975
 20
75.51008299999991
 30
0.0
 11
204.999975
 21
74.7100829999999
 31
0.0
  0
LINE
  5
225
330
1E
100
AcDbEntity
  8
0
100
AcDbLine
 10
204.999975
 20
76.21008299999989
 30
0.0
 11
204.999975
 21
76.01008299999991
 31
0.0
  0
LINE
  5
226
330
1E
100
AcDbEntity
  8
0
100
AcDbLine
 10
204.999975
 20
76.01008299999991
 30
0.0
 11
204.999975
 21
76.21008299999989
 31
0.0
  0
LINE
  5
227
330
1E
100
AcDbEntity
  8
0
100
AcDbLine
 10
204.999975
 20
76.01008299999991
 30
0.0
 11
204.999975
 21
75.51008299999991
 31
0.0
  0
LINE
  5
228
330
1E
100
AcDbEntity
  8
0
100
AcDbLine
 10
215.5319749999999
 20
85.21008299999989
 30
0.0
 11
215.999975
 21
85.21008299999989
 31
0.0
  0
LINE
  5
229
330
1E
100
AcDbEntity
  8
0
100
AcDbLine
 10
214.2839749999999
 20
85.21008299999989
 30
0.0
 11
215.5319749999999
 21
85.21008299999989
 31
0.0
  0
LINE
  5
22A
330
1E
100
AcDbEntity
  8
0
100
AcDbLine
 10
212.203975
 20
85.21008299999989
 30
0.0
 11
214.2839749999999
 21
85.21008299999989
 31
0.0
  0
LINE
  5
22B
330
1E
100
AcDbEntity
  8
0
100
AcDbLine
 10
209.447975
 20
85.21008299999989
 30
0.0
 11
212.203975
 21
85.21008299999989
 31
0.0
  0
LINE
  5
22C
330
1E
100
AcDbEntity
  8
0
100
AcDbLine
 10
206.3279749999999
 20
85.21008299999989
 30
0.0
 11
209.447975
 21
85.21008299999989
 31
0.0
  0
LINE
  5
22D
330
1E
100
AcDbEntity
  8
0
100
AcDbLine
 10
202.9999749999999
 20
85.21008299999989
 30
0.0
 11
206.3279749999999
 21
85.21008299999989
 31
0.0
  0
LINE
  5
22E
330
1E
100
AcDbEntity
  8
0
100
AcDbLine
 10
215.999975
 20
85.21008299999989
 30
0.0
 11
215.999975
 21
95.21008299999989
 31
0.0
  0
LINE
  5
22F
330
1E
100
AcDbEntity
  8
0
100
AcDbLine
 10
215.999975
 20
85.21008299999989
 30
0.0
 11
215.999975
 21
63.2100829999999
 31
0.0
  0
LINE
  5
230
330
1E
100
AcDbEntity
  8
0
100
AcDbLine
 10
196.551975
 20
85.21008299999989
 30
0.0
 11
199.671975
 21
85.21008299999989
 31
0.0
  0
LINE
  5
231
330
1E
100
AcDbEntity
  8
0
100
AcDbLine
 10
199.671975
 20
85.21008299999989
 30
0.0
 11
202.9999749999999
 21
85.21008299999989
 31
0.0
  0
LINE
  5
232
330
1E
100
AcDbEntity
  8
0
100
AcDbLine
 10
189.999975
 20
76.21008299999989
 30
0.0
 11
189.999975
 21
85.21008299999989
 31
0.0
  0
LINE
  5
233
330
1E
100
AcDbEntity
  8
0
100
AcDbLine
 10
213.035975
 20
89.21008299999989
 30
0.0
 11
214.624375
 21
89.21008299999989
 31
0.0
  0
LINE
  5
234
330
1E
100
AcDbEntity
  8
0
100
AcDbLine
 10
214.624375
 20
89.21008299999989
 30
0.0
 11
215.6243749999999
 21
89.21008299999989
 31
0.0
  0
LINE
  5
235
330
1E
100
AcDbEntity
  8
0
100
AcDbLine
 10
214.624375
 20
89.21008299999989
 30
0.0
 11
214.624375
 21
95.21008299999989
 31
0.0
  0
LINE
  5
236
330
1E
100
AcDbEntity
  8
0
100
AcDbLine
 10
215.6243749999999
 20
89.21008299999989
 30
0.0
 11
215.6243749999999
 21
95.21008299999989
 31
0.0
  0
LINE
  5
237
330
1E
100
AcDbEntity
  8
0
100
AcDbLine
 10
214.2839749999999
 20
89.21008299999989
 30
0.0
 11
215.6243749999999
 21
89.21008299999989
 31
0.0
  0
LINE
  5
238
330
1E
100
AcDbEntity
  8
0
100
AcDbLine
 10
203.999975
 20
89.21008299999989
 30
0.0
 11
203.999975
 21
95.21008299999989
 31
0.0
  0
LINE
  5
239
330
1E
100
AcDbEntity
  8
0
100
AcDbLine
 10
201.999975
 20
89.21008299999989
 30
0.0
 11
201.999975
 21
95.21008299999989
 31
0.0
  0
LINE
  5
23A
330
1E
100
AcDbEntity
  8
0
100
AcDbLine
 10
201.999975
 20
89.21008299999989
 30
0.0
 11
203.999975
 21
89.21008299999989
 31
0.0
  0
LINE
  5
23B
330
1E
100
AcDbEntity
  8
0
100
AcDbLine
 10
191.3755749999999
 20
89.21008299999989
 30
0.0
 11
191.3755749999999
 21
95.21008299999989
 31
0.0
  0
LINE
  5
23C
330
1E
100
AcDbEntity
  8
0
100
AcDbLine
 10
191.3755749999999
 20
89.21008299999989
 30
0.0
 11
213.035975
 21
89.21008299999989
 31
0.0
  0
LINE
  5
23D
330
1E
100
AcDbEntity
  8
0
100
AcDbLine
 10
190.375575
 20
89.21008299999989
 30
0.0
 11
191.216775
 21
89.21008299999989
 31
0.0
  0
LINE
  5
23E
330
1E
100
AcDbEntity
  8
0
100
AcDbLine
 10
190.375575
 20
89.21008299999989
 30
0.0
 11
190.375575
 21
95.21008299999989
 31
0.0
  0
LINE
  5
23F
330
1E
100
AcDbEntity
  8
0
100
AcDbLine
 10
190.375575
 20
89.21008299999989
 30
0.0
 11
191.3755749999999
 21
89.21008299999989
 31
0.0
  0
LINE
  5
240
330
1E
100
AcDbEntity
  8
0
100
AcDbLine
 10
189.999975
 20
85.21008299999989
 30
0.0
 11
189.999975
 21
95.21008299999989
 31
0.0
  0
LINE
  5
241
330
1E
100
AcDbEntity
  8
0
100
AcDbLine
 10
189.999975
 20
85.21008299999989
 30
0.0
 11
189.999975
 21
76.21008299999989
 31
0.0
  0
LINE
  5
242
330
1E
100
AcDbEntity
  8
0
100
AcDbLine
 10
189.999975
 20
85.21008299999989
 30
0.0
 11
190.4679749999999
 21
85.21008299999989
 31
0.0
  0
LINE
  5
243
330
1E
100
AcDbEntity
  8
0
100
AcDbLine
 10
175.999975
 20
92.4100829999999
 30
0.0
 11
175.999975
 21
93.0100829999999
 31
0.0
  0
LINE
  5
244
330
1E
100
AcDbEntity
  8
0
100
AcDbLine
 10
175.999975
 20
92.4100829999999
 30
0.0
 11
175.999975
 21
91.4100829999999
 31
0.0
  0
LINE
  5
245
330
1E
100
AcDbEntity
  8
0
100
AcDbLine
 10
191.3755749999999
 20
95.21008299999989
 30
0.0
 11
191.3755749999999
 21
89.21008299999989
 31
0.0
  0
LINE
  5
246
330
1E
100
AcDbEntity
  8
0
100
AcDbLine
 10
191.3755749999999
 20
95.21008299999989
 30
0.0
 11
191.7159749999999
 21
95.21008299999989
 31
0.0
  0
LINE
  5
247
330
1E
100
AcDbEntity
  8
0
100
AcDbLine
 10
190.375575
 20
95.21008299999989
 30
0.0
 11
190.375575
 21
89.21008299999989
 31
0.0
  0
LINE
  5
248
330
1E
100
AcDbEntity
  8
0
100
AcDbLine
 10
190.375575
 20
95.21008299999989
 30
0.0
 11
191.3755749999999
 21
95.21008299999989
 31
0.0
  0
LINE
  5
249
330
1E
100
AcDbEntity
  8
0
100
AcDbLine
 10
191.7159749999999
 20
95.21008299999989
 30
0.0
 11
193.795975
 21
95.21008299999989
 31
0.0
  0
LINE
  5
24A
330
1E
100
AcDbEntity
  8
0
100
AcDbLine
 10
193.795975
 20
95.21008299999989
 30
0.0
 11
196.551975
 21
95.21008299999989
 31
0.0
  0
LINE
  5
24B
330
1E
100
AcDbEntity
  8
0
100
AcDbLine
 10
196.551975
 20
95.21008299999989
 30
0.0
 11
199.671975
 21
95.21008299999989
 31
0.0
  0
LINE
  5
24C
330
1E
100
AcDbEntity
  8
0
100
AcDbLine
 10
201.999975
 20
95.21008299999989
 30
0.0
 11
201.999975
 21
89.21008299999989
 31
0.0
  0
LINE
  5
24D
330
1E
100
AcDbEntity
  8
0
100
AcDbLine
 10
201.999975
 20
95.21008299999989
 30
0.0
 11
203.999975
 21
95.21008299999989
 31
0.0
  0
LINE
  5
24E
330
1E
100
AcDbEntity
  8
0
100
AcDbLine
 10
214.2839749999999
 20
95.21008299999989
 30
0.0
 11
214.624375
 21
95.21008299999989
 31
0.0
  0
LINE
  5
24F
330
1E
100
AcDbEntity
  8
0
100
AcDbLine
 10
214.624375
 20
95.21008299999989
 30
0.0
 11
214.624375
 21
89.21008299999989
 31
0.0
  0
LINE
  5
250
330
1E
100
AcDbEntity
  8
0
100
AcDbLine
 10
214.624375
 20
95.21008299999989
 30
0.0
 11
215.6243749999999
 21
95.21008299999989
 31
0.0
  0
LINE
  5
251
330
1E
100
AcDbEntity
  8
0
100
AcDbLine
 10
215.999975
 20
95.21008299999989
 30
0.0
 11
215.999975
 21
85.21008299999989
 31
0.0
  0
LINE
  5
252
330
1E
100
AcDbEntity
  8
0
100
AcDbLine
 10
215.6243749999999
 20
95.21008299999989
 30
0.0
 11
215.999975
 21
95.21008299999989
 31
0.0
  0
LINE
  5
253
330
1E
100
AcDbEntity
  8
0
100
AcDbLine
 10
215.6243749999999
 20
95.21008299999989
 30
0.0
 11
215.6243749999999
 21
89.21008299999989
 31
0.0
  0
LINE
  5
254
330
1E
100
AcDbEntity
  8
0
100
AcDbLine
 10
212.203975
 20
95.21008299999989
 30
0.0
 11
214.2839749999999
 21
95.21008299999989
 31
0.0
  0
LINE
  5
255
330
1E
100
AcDbEntity
  8
0
100
AcDbLine
 10
209.447975
 20
95.21008299999989
 30
0.0
 11
212.203975
 21
95.21008299999989
 31
0.0
  0
LINE
  5
256
330
1E
100
AcDbEntity
  8
0
100
AcDbLine
 10
206.3279749999999
 20
95.21008299999989
 30
0.0
 11
209.447975
 21
95.21008299999989
 31
0.0
  0
LINE
  5
257
330
1E
100
AcDbEntity
  8
0
100
AcDbLine
 10
203.999975
 20
95.21008299999989
 30
0.0
 11
206.3279749999999
 21
95.21008299999989
 31
0.0
  0
LINE
  5
258
330
1E
100
AcDbEntity
  8
0
100
AcDbLine
 10
203.999975
 20
95.21008299999989
 30
0.0
 11
203.999975
 21
89.21008299999989
 31
0.0
  0
LINE
  5
259
330
1E
100
AcDbEntity
  8
0
100
AcDbLine
 10
199.671975
 20
95.21008299999989
 30
0.0
 11
201.999975
 21
95.21008299999989
 31
0.0
  0
LINE
  5
25A
330
1E
100
AcDbEntity
  8
0
100
AcDbLine
 10
189.999975
 20
95.21008299999989
 30
0.0
 11
189.999975
 21
85.21008299999989
 31
0.0
  0
LINE
  5
25B
330
1E
100
AcDbEntity
  8
0
100
AcDbLine
 10
189.999975
 20
95.21008299999989
 30
0.0
 11
190.375575
 21
95.21008299999989
 31
0.0
  0
LINE
  5
25C
330
1E
100
AcDbEntity
  8
0
100
AcDbLine
 10
175.999975
 20
93.2100829999999
 30
0.0
 11
175.999975
 21
93.0100829999999
 31
0.0
  0
LINE
  5
25D
330
1E
100
AcDbEntity
  8
0
100
AcDbLine
 10
175.999975
 20
93.0100829999999
 30
0.0
 11
175.999975
 21
93.2100829999999
 31
0.0
  0
LINE
  5
25E
330
1E
100
AcDbEntity
  8
0
100
AcDbLine
 10
175.999975
 20
93.0100829999999
 30
0.0
 11
175.999975
 21
92.4100829999999
 31
0.0
  0
LINE
  5
25F
330
1E
100
AcDbEntity
  8
0
100
AcDbLine
 10
169.999975
 20
93.2100829999999
 30
0.0
 11
175.999975
 21
93.2100829999999
 31
0.0
  0
LINE
  5
260
330
1E
100
AcDbEntity
  8
0
100
AcDbLine
 10
166.7999749999999
 20
73.9100829999999
 30
0.0
 11
167.7999749999999
 21
74.4100829999999
 31
0.0
  0
LINE
  5
261
330
1E
100
AcDbEntity
  8
0
100
AcDbLine
 10
165.4999749999999
 20
52.7100829999999
 30
0.0
 11
165.999975
 21
52.7100829999999
 31
0.0
  0
ENDSEC
  0
SECTION
  2
OBJECTS
  0
DICTIONARY
  5
C
330
0
100
AcDbDictionary
281
     1
  3
ACAD_GROUP
350
D
  3
ACAD_LAYOUT
350
19
  3
ACAD_MLINESTYLE
350
16
  3
ACAD_PLOTSETTINGS
350
18
  3
ACAD_PLOTSTYLENAME
350
E
  3
AcDbVariableDictionary
350
266
  0
DICTIONARY
  5
D
102
{ACAD_REACTORS
330
C
102
}
330
C
100
AcDbDictionary
281
     1
  0
DICTIONARY
  5
19
102
{ACAD_REACTORS
330
C
102
}
330
C
100
AcDbDictionary
281
     1
  3
Layout1
350
1D
  3
Model
350
21
  0
DICTIONARY
  5
16
102
{ACAD_REACTORS
330
C
102
}
330
C
100
AcDbDictionary
281
     1
  3
Standard
350
17
  0
DICTIONARY
  5
18
102
{ACAD_REACTORS
330
C
102
}
330
C
100
AcDbDictionary
281
     1
  0
ACDBDICTIONARYWDFLT
  5
E
102
{ACAD_REACTORS
330
C
102
}
330
C
100
AcDbDictionary
281
     1
  3
Normal
350
F
100
AcDbDictionaryWithDefault
340
F
  0
DICTIONARY
  5
266
102
{ACAD_REACTORS
330
C
102
}
330
C
100
AcDbDictionary
281
     1
  3
DIMASSOC
350
267
  0
LAYOUT
  5
1D
102
{ACAD_REACTORS
330
19
102
}
330
19
100
AcDbPlotSettings
  1

  2
hp deskjet 980c series
  4

  6

 40
0.0
 41
0.0
 42
0.0
 43
0.0
 44
0.0
 45
0.0
 46
0.0
 47
0.0
 48
0.0
 49
0.0
140
0.0
141
0.0
142
1.0
143
1.0
 70
   688
 72
     0
 73
     0
 74
     5
  7

 75
    16
147
1.0
148
0.0
149
0.0
100
AcDbLayout
  1
Layout1
 70
     1
 71
     1
 10
0.0
 20
0.0
 11
12.0
 21
9.0
 12
0.0
 22
0.0
 32
0.0
 14
1.000000000000000E+20
 24
1.000000000000000E+20
 34
1.000000000000000E+20
 15
-1.000000000000000E+20
 25
-1.000000000000000E+20
 35
-1.000000000000000E+20
146
0.0
 13
0.0
 23
0.0
 33
0.0
 16
1.0
 26
0.0
 36
0.0
 17
0.0
 27
1.0
 37
0.0
 76
     0
330
1A
  0
LAYOUT
  5
21
102
{ACAD_REACTORS
330
19
102
}
330
19
100
AcDbPlotSettings
  1

  2
hp deskjet 980c series
  4

  6

 40
0.0
 41
0.0
 42
0.0
 43
0.0
 44
0.0
 45
0.0
 46
0.0
 47
0.0
 48
0.0
 49
0.0
140
0.0
141
0.0
142
1.0
143
1.0
 70
  1712
 72
     0
 73
     0
 74
     0
  7

 75
     0
147
1.0
148
0.0
149
0.0
100
AcDbLayout
  1
Model
 70
     1
 71
     0
 10
0.0
 20
0.0
 11
12.0
 21
9.0
 12
0.0
 22
0.0
 32
0.0
 14
0.0
 24
0.0
 34
0.0
 15
0.0
 25
0.0
 35
0.0
146
0.0
 13
0.0
 23
0.0
 33
0.0
 16
1.0
 26
0.0
 36
0.0
 17
0.0
 27
1.0
 37
0.0
 76
     0
330
1E
  0
MLINESTYLE
  5
17
102
{ACAD_REACTORS
330
16
102
}
330
16
100
AcDbMlineStyle
  2
STANDARD
 70
     0
  3

 62
   256
 51
90.0
 52
90.0
 71
     2
 49
0.5
 62
   256
  6
BYLAYER
 49
-0.5
 62
   256
  6
BYLAYER
  0
ACDBPLACEHOLDER
  5
F
102
{ACAD_REACTORS
330
E
102
}
330
E
  0
DICTIONARYVAR
  5
267
102
{ACAD_REACTORS
330
266
102
}
330
266
100
DictionaryVariables
280
     0
  1
1
  0
ENDSEC
  0
EOF
