  0
SECTION
  2
HEADER
  9
$ACADVER
  1
AC1015
  9
$ACADMAINTVER
 70
    13
  9
$DWGCODEPAGE
  3
ANSI_1252
  9
$INSBASE
 10
0.0
 20
0.0
 30
0.0
  9
$EXTMIN
 10
-0.0000000000000089
 20
-0.210083000000134
 30
0.0
  9
$EXTMAX
 10
320.0
 20
95.21008299999989
 30
0.0
  9
$LIMMIN
 10
0.0
 20
0.0
  9
$LIMMAX
 10
12.0
 20
9.0
  9
$ORTHOMODE
 70
     0
  9
$REGENMODE
 70
     1
  9
$FILLMODE
 70
     1
  9
$QTEXTMODE
 70
     0
  9
$MIRRTEXT
 70
     1
  9
$LTSCALE
 40
1.0
  9
$ATTMODE
 70
     1
  9
$TEXTSIZE
 40
0.2
  9
$TRACEWID
 40
0.05
  9
$TEXTSTYLE
  7
Standard
  9
$CLAYER
  8
0
  9
$CELTYPE
  6
Continuous
  9
$CECOLOR
 62
   256
  9
$CELTSCALE
 40
1.0
  9
$DISPSILH
 70
     0
  9
$DIMSCALE
 40
1.0
  9
$DIMASZ
 40
0.18
  9
$DIMEXO
 40
0.0625
  9
$DIMDLI
 40
0.38
  9
$DIMRND
 40
0.0
  9
$DIMDLE
 40
0.0
  9
$DIMEXE
 40
0.18
  9
$DIMTP
 40
0.0
  9
$DIMTM
 40
0.0
  9
$DIMTXT
 40
0.18
  9
$DIMCEN
 40
0.09
  9
$DIMTSZ
 40
0.0
  9
$DIMTOL
 70
     0
  9
$DIMLIM
 70
     0
  9
$DIMTIH
 70
     1
  9
$DIMTOH
 70
     1
  9
$DIMSE1
 70
     0
  9
$DIMSE2
 70
     0
  9
$DIMTAD
 70
     0
  9
$DIMZIN
 70
     0
  9
$DIMBLK
  1

  9
$DIMASO
 70
     1
  9
$DIMSHO
 70
     1
  9
$DIMPOST
  1

  9
$DIMAPOST
  1

  9
$DIMALT
 70
     0
  9
$DIMALTD
 70
     2
  9
$DIMALTF
 40
25.4
  9
$DIMLFAC
 40
1.0
  9
$DIMTOFL
 70
     0
  9
$DIMTVP
 40
0.0
  9
$DIMTIX
 70
     0
  9
$DIMSOXD
 70
     0
  9
$DIMSAH
 70
     0
  9
$DIMBLK1
  1

  9
$DIMBLK2
  1

  9
$DIMSTYLE
  2
Standard
  9
$DIMCLRD
 70
     0
  9
$DIMCLRE
 70
     0
  9
$DIMCLRT
 70
     0
  9
$DIMTFAC
 40
1.0
  9
$DIMGAP
 40
0.09
  9
$DIMJUST
 70
     0
  9
$DIMSD1
 70
     0
  9
$DIMSD2
 70
     0
  9
$DIMTOLJ
 70
     1
  9
$DIMTZIN
 70
     0
  9
$DIMALTZ
 70
     0
  9
$DIMALTTZ
 70
     0
  9
$DIMUPT
 70
     0
  9
$DIMDEC
 70
     4
  9
$DIMTDEC
 70
     4
  9
$DIMALTU
 70
     2
  9
$DIMALTTD
 70
     2
  9
$DIMTXSTY
  7
Standard
  9
$DIMAUNIT
 70
     0
  9
$DIMADEC
 70
     0
  9
$DIMALTRND
 40
0.0
  9
$DIMAZIN
 70
     0
  9
$DIMDSEP
 70
    46
  9
$DIMATFIT
 70
     3
  9
$DIMFRAC
 70
     0
  9
$DIMLDRBLK
  1

  9
$DIMLUNIT
 70
     2
  9
$DIMLWD
 70
    -2
  9
$DIMLWE
 70
    -2
  9
$DIMTMOVE
 70
     0
  9
$LUNITS
 70
     2
  9
$LUPREC
 70
     4
  9
$SKETCHINC
 40
0.1
  9
$FILLETRAD
 40
0.0
  9
$AUNITS
 70
     0
  9
$AUPREC
 70
     0
  9
$MENU
  1
.
  9
$ELEVATION
 40
0.0
  9
$PELEVATION
 40
0.0
  9
$THICKNESS
 40
0.0
  9
$LIMCHECK
 70
     0
  9
$CHAMFERA
 40
0.0
  9
$CHAMFERB
 40
0.0
  9
$CHAMFERC
 40
0.0
  9
$CHAMFERD
 40
0.0
  9
$SKPOLY
 70
     0
  9
$TDCREATE
 40
2454637.838010856
  9
$TDUCREATE
 40
2454637.754677523
  9
$TDUPDATE
 40
2454637.841104930
  9
$TDUUPDATE
 40
2454637.757771597
  9
$TDINDWG
 40
0.0030940741
  9
$TDUSRTIMER
 40
0.0030940741
  9
$USRTIMER
 70
     1
  9
$ANGBASE
 50
0.0
  9
$ANGDIR
 70
     0
  9
$PDMODE
 70
     0
  9
$PDSIZE
 40
0.0
  9
$PLINEWID
 40
0.0
  9
$SPLFRAME
 70
     0
  9
$SPLINETYPE
 70
     6
  9
$SPLINESEGS
 70
     8
  9
$HANDSEED
  5
4E4
  9
$SURFTAB1
 70
     6
  9
$SURFTAB2
 70
     6
  9
$SURFTYPE
 70
     6
  9
$SURFU
 70
     6
  9
$SURFV
 70
     6
  9
$UCSBASE
  2

  9
$UCSNAME
  2

  9
$UCSORG
 10
0.0
 20
0.0
 30
0.0
  9
$UCSXDIR
 10
1.0
 20
0.0
 30
0.0
  9
$UCSYDIR
 10
0.0
 20
1.0
 30
0.0
  9
$UCSORTHOREF
  2

  9
$UCSORTHOVIEW
 70
     1
  9
$UCSORGTOP
 10
0.0
 20
0.0
 30
0.0
  9
$UCSORGBOTTOM
 10
0.0
 20
0.0
 30
0.0
  9
$UCSORGLEFT
 10
0.0
 20
0.0
 30
0.0
  9
$UCSORGRIGHT
 10
0.0
 20
0.0
 30
0.0
  9
$UCSORGFRONT
 10
0.0
 20
0.0
 30
0.0
  9
$UCSORGBACK
 10
0.0
 20
0.0
 30
0.0
  9
$PUCSBASE
  2

  9
$PUCSNAME
  2

  9
$PUCSORG
 10
0.0
 20
0.0
 30
0.0
  9
$PUCSXDIR
 10
1.0
 20
0.0
 30
0.0
  9
$PUCSYDIR
 10
0.0
 20
1.0
 30
0.0
  9
$PUCSORTHOREF
  2

  9
$PUCSORTHOVIEW
 70
     0
  9
$PUCSORGTOP
 10
0.0
 20
0.0
 30
0.0
  9
$PUCSORGBOTTOM
 10
0.0
 20
0.0
 30
0.0
  9
$PUCSORGLEFT
 10
0.0
 20
0.0
 30
0.0
  9
$PUCSORGRIGHT
 10
0.0
 20
0.0
 30
0.0
  9
$PUCSORGFRONT
 10
0.0
 20
0.0
 30
0.0
  9
$PUCSORGBACK
 10
0.0
 20
0.0
 30
0.0
  9
$USERI1
 70
     0
  9
$USERI2
 70
     0
  9
$USERI3
 70
     0
  9
$USERI4
 70
     0
  9
$USERI5
 70
     0
  9
$USERR1
 40
0.0
  9
$USERR2
 40
0.0
  9
$USERR3
 40
0.0
  9
$USERR4
 40
0.0
  9
$USERR5
 40
0.0
  9
$WORLDVIEW
 70
     1
  9
$SHADEDGE
 70
     3
  9
$SHADEDIF
 70
    70
  9
$TILEMODE
 70
     1
  9
$MAXACTVP
 70
    64
  9
$PINSBASE
 10
0.0
 20
0.0
 30
0.0
  9
$PLIMCHECK
 70
     0
  9
$PEXTMIN
 10
1.000000000000000E+20
 20
1.000000000000000E+20
 30
1.000000000000000E+20
  9
$PEXTMAX
 10
-1.000000000000000E+20
 20
-1.000000000000000E+20
 30
-1.000000000000000E+20
  9
$PLIMMIN
 10
0.0
 20
0.0
  9
$PLIMMAX
 10
12.0
 20
9.0
  9
$UNITMODE
 70
     0
  9
$VISRETAIN
 70
     1
  9
$PLINEGEN
 70
     0
  9
$PSLTSCALE
 70
     1
  9
$TREEDEPTH
 70
  3020
  9
$CMLSTYLE
  2
Standard
  9
$CMLJUST
 70
     0
  9
$CMLSCALE
 40
1.0
  9
$PROXYGRAPHICS
 70
     1
  9
$MEASUREMENT
 70
     0
  9
$CELWEIGHT
370
    -1
  9
$ENDCAPS
280
     0
  9
$JOINSTYLE
280
     0
  9
$LWDISPLAY
290
     0
  9
$INSUNITS
 70
     0
  9
$HYPERLINKBASE
  1

  9
$STYLESHEET
  1

  9
$XEDIT
290
     1
  9
$CEPSNTYPE
380
     0
  9
$PSTYLEMODE
290
     1
  9
$FINGERPRINTGUID
  2
{2BEB2689-424B-4A85-8F54-0F2F33C80E60}
  9
$VERSIONGUID
  2
{526D4322-9F1F-45C7-A01C-AB03345E71A9}
  9
$EXTNAMES
290
     1
  9
$PSVPSCALE
 40
0.0
  9
$OLESTARTUP
290
     0
  0
ENDSEC
  0
SECTION
  2
CLASSES
  0
CLASS
  1
ACDBDICTIONARYWDFLT
  2
AcDbDictionaryWithDefault
  3
AutoCAD 2000
 90
        0
280
     0
281
     0
  0
CLASS
  1
ACDBPLACEHOLDER
  2
AcDbPlaceHolder
  3
AutoCAD 2000
 90
        0
280
     0
281
     0
  0
CLASS
  1
LAYOUT
  2
AcDbLayout
  3
AutoCAD 2000
 90
        0
280
     0
281
     0
  0
CLASS
  1
DICTIONARYVAR
  2
AcDbDictionaryVar
  3
AutoCAD 2000
 90
        0
280
     0
281
     0
  0
ENDSEC
  0
SECTION
  2
TABLES
  0
TABLE
  2
VPORT
  5
8
330
0
100
AcDbSymbolTable
 70
     2
  0
VPORT
  5
4E3
330
8
100
AcDbSymbolTableRecord
100
AcDbViewportTableRecord
  2
*Active
 70
     0
 10
0.0
 20
0.0
 11
1.0
 21
1.0
 12
160.0
 22
47.49999999999988
 13
0.0
 23
0.0
 14
1.0
 24
1.0
 15
0.0
 25
0.0
 16
0.0
 26
0.0
 36
1.0
 17
0.0
 27
0.0
 37
0.0
 40
157.1797998440057
 41
2.043533930857874
 42
50.0
 43
0.0
 44
0.0
 50
0.0
 51
0.0
 71
     0
 72
   100
 73
     1
 74
     3
 75
     0
 76
     0
 77
     0
 78
     0
281
     0
 65
     1
110
0.0
120
0.0
130
0.0
111
1.0
121
0.0
131
0.0
112
0.0
122
1.0
132
0.0
 79
     1
146
0.0
  0
ENDTAB
  0
TABLE
  2
LTYPE
  5
5
330
0
100
AcDbSymbolTable
 70
     1
  0
LTYPE
  5
13
330
5
100
AcDbSymbolTableRecord
100
AcDbLinetypeTableRecord
  2
ByBlock
 70
     0
  3

 72
    65
 73
     0
 40
0.0
  0
LTYPE
  5
14
330
5
100
AcDbSymbolTableRecord
100
AcDbLinetypeTableRecord
  2
ByLayer
 70
     0
  3

 72
    65
 73
     0
 40
0.0
  0
LTYPE
  5
15
330
5
100
AcDbSymbolTableRecord
100
AcDbLinetypeTableRecord
  2
Continuous
 70
     0
  3
Solid line
 72
    65
 73
     0
 40
0.0
  0
ENDTAB
  0
TABLE
  2
LAYER
  5
2
330
0
100
AcDbSymbolTable
 70
     1
  0
LAYER
  5
10
330
2
100
AcDbSymbolTableRecord
100
AcDbLayerTableRecord
  2
0
 70
     0
 62
     7
  6
Continuous
370
    -3
390
F
  0
ENDTAB
  0
TABLE
  2
STYLE
  5
3
330
0
100
AcDbSymbolTable
 70
     1
  0
STYLE
  5
11
330
3
100
AcDbSymbolTableRecord
100
AcDbTextStyleTableRecord
  2
Standard
 70
     0
 40
0.0
 41
1.0
 50
0.0
 71
     0
 42
0.2
  3
txt
  4

  0
ENDTAB
  0
TABLE
  2
VIEW
  5
6
330
0
100
AcDbSymbolTable
 70
     0
  0
ENDTAB
  0
TABLE
  2
UCS
  5
7
330
0
100
AcDbSymbolTable
 70
     0
  0
ENDTAB
  0
TABLE
  2
APPID
  5
9
330
0
100
AcDbSymbolTable
 70
     1
  0
APPID
  5
12
330
9
100
AcDbSymbolTableRecord
100
AcDbRegAppTableRecord
  2
ACAD
 70
     0
  0
ENDTAB
  0
TABLE
  2
DIMSTYLE
  5
A
330
0
100
AcDbSymbolTable
 70
     1
100
AcDbDimStyleTable
 71
     0
  0
DIMSTYLE
105
3B5
330
A
100
AcDbSymbolTableRecord
100
AcDbDimStyleTableRecord
  2
Standard
 70
     0
340
11
  0
ENDTAB
  0
TABLE
  2
BLOCK_RECORD
  5
1
330
0
100
AcDbSymbolTable
 70
     0
  0
BLOCK_RECORD
  5
1E
330
1
100
AcDbSymbolTableRecord
100
AcDbBlockTableRecord
  2
*Model_Space
340
21
  0
BLOCK_RECORD
  5
1A
330
1
100
AcDbSymbolTableRecord
100
AcDbBlockTableRecord
  2
*Paper_Space
340
1D
  0
ENDTAB
  0
ENDSEC
  0
SECTION
  2
BLOCKS
  0
BLOCK
  5
1F
330
1E
100
AcDbEntity
  8
0
100
AcDbBlockBegin
  2
*Model_Space
 70
     0
 10
0.0
 20
0.0
 30
0.0
  3
*Model_Space
  1

  0
ENDBLK
  5
20
330
1E
100
AcDbEntity
  8
0
100
AcDbBlockEnd
  0
BLOCK
  5
1B
330
1A
100
AcDbEntity
 67
     1
  8
0
100
AcDbBlockBegin
  2
*Paper_Space
 70
     0
 10
0.0
 20
0.0
 30
0.0
  3
*Paper_Space
  1

  0
ENDBLK
  5
1C
330
1A
100
AcDbEntity
 67
     1
  8
0
100
AcDbBlockEnd
  0
ENDSEC
  0
SECTION
  2
ENTITIES
  0
LINE
  5
22
330
1E
100
AcDbEntity
  8
0
100
AcDbLine
 10
31.1
 20
36.4100829999999
 30
0.0
 11
32.0
 21
35.21008299999989
 31
0.0
  0
LINE
  5
23
330
1E
100
AcDbEntity
  8
0
100
AcDbLine
 10
30.5
 20
37.71008299999989
 30
0.0
 11
31.1
 21
36.4100829999999
 31
0.0
  0
LINE
  5
24
330
1E
100
AcDbEntity
  8
0
100
AcDbLine
 10
30.3
 20
39.21008299999989
 30
0.0
 11
30.5
 21
37.71008299999989
 31
0.0
  0
LINE
  5
25
330
1E
100
AcDbEntity
  8
0
100
AcDbLine
 10
30.3
 20
39.21008299999989
 30
0.0
 11
30.3
 21
52.7100829999999
 31
0.0
  0
LINE
  5
26
330
1E
100
AcDbEntity
  8
0
100
AcDbLine
 10
30.8
 20
36.21008299999989
 30
0.0
 11
31.8
 21
35.0100829999999
 31
0.0
  0
LINE
  5
27
330
1E
100
AcDbEntity
  8
0
100
AcDbLine
 10
30.2
 20
37.71008299999989
 30
0.0
 11
30.8
 21
36.21008299999989
 31
0.0
  0
LINE
  5
28
330
1E
100
AcDbEntity
  8
0
100
AcDbLine
 10
30.0
 20
39.21008299999989
 30
0.0
 11
30.2
 21
37.71008299999989
 31
0.0
  0
LINE
  5
29
330
1E
100
AcDbEntity
  8
0
100
AcDbLine
 10
30.0
 20
39.21008299999989
 30
0.0
 11
30.0
 21
52.7100829999999
 31
0.0
  0
LINE
  5
2A
330
1E
100
AcDbEntity
  8
0
100
AcDbLine
 10
32.0
 20
35.21008299999989
 30
0.0
 11
33.2
 21
34.3100829999999
 31
0.0
  0
LINE
  5
2B
330
1E
100
AcDbEntity
  8
0
100
AcDbLine
 10
33.2
 20
34.3100829999999
 30
0.0
 11
34.5
 21
33.71008299999989
 31
0.0
  0
LINE
  5
2C
330
1E
100
AcDbEntity
  8
0
100
AcDbLine
 10
34.5
 20
33.71008299999989
 30
0.0
 11
36.0
 21
33.5100829999999
 31
0.0
  0
LINE
  5
2D
330
1E
100
AcDbEntity
  8
0
100
AcDbLine
 10
36.0
 20
33.5100829999999
 30
0.0
 11
60.0
 21
33.5100829999999
 31
0.0
  0
LINE
  5
2E
330
1E
100
AcDbEntity
  8
0
100
AcDbLine
 10
31.8
 20
35.0100829999999
 30
0.0
 11
33.0
 21
34.0100829999999
 31
0.0
  0
LINE
  5
2F
330
1E
100
AcDbEntity
  8
0
100
AcDbLine
 10
34.5
 20
33.4100829999999
 30
0.0
 11
36.0
 21
33.2100829999999
 31
0.0
  0
LINE
  5
30
330
1E
100
AcDbEntity
  8
0
100
AcDbLine
 10
46.0
 20
31.2100829999999
 30
0.0
 11
46.0
 21
33.2100829999999
 31
0.0
  0
LINE
  5
31
330
1E
100
AcDbEntity
  8
0
100
AcDbLine
 10
46.0
 20
31.2100829999999
 30
0.0
 11
48.0
 21
31.2100829999999
 31
0.0
  0
LINE
  5
32
330
1E
100
AcDbEntity
  8
0
100
AcDbLine
 10
47.468
 20
31.2100829999999
 30
0.0
 11
48.716
 21
31.2100829999999
 31
0.0
  0
LINE
  5
33
330
1E
100
AcDbEntity
  8
0
100
AcDbLine
 10
48.716
 20
31.2100829999999
 30
0.0
 11
50.79600000000001
 21
31.2100829999999
 31
0.0
  0
LINE
  5
34
330
1E
100
AcDbEntity
  8
0
100
AcDbLine
 10
50.79600000000001
 20
31.2100829999999
 30
0.0
 11
53.55199999999999
 21
31.2100829999999
 31
0.0
  0
LINE
  5
35
330
1E
100
AcDbEntity
  8
0
100
AcDbLine
 10
50.328
 20
31.2100829999999
 30
0.0
 11
52.1109
 21
31.2100829999999
 31
0.0
  0
LINE
  5
36
330
1E
100
AcDbEntity
  8
0
100
AcDbLine
 10
50.328
 20
31.2100829999999
 30
0.0
 11
52.1109
 21
31.2100829999999
 31
0.0
  0
LINE
  5
37
330
1E
100
AcDbEntity
  8
0
100
AcDbLine
 10
49.2583
 20
31.2100829999999
 30
0.0
 11
50.328
 21
31.2100829999999
 31
0.0
  0
LINE
  5
38
330
1E
100
AcDbEntity
  8
0
100
AcDbLine
 10
49.2583
 20
31.2100829999999
 30
0.0
 11
50.328
 21
31.2100829999999
 31
0.0
  0
LINE
  5
39
330
1E
100
AcDbEntity
  8
0
100
AcDbLine
 10
48.8571
 20
31.2100829999999
 30
0.0
 11
49.2583
 21
31.2100829999999
 31
0.0
  0
LINE
  5
3A
330
1E
100
AcDbEntity
  8
0
100
AcDbLine
 10
52.134
 20
31.2100829999999
 30
0.0
 11
53.86600000000001
 21
31.2100829999999
 31
0.0
  0
LINE
  5
3B
330
1E
100
AcDbEntity
  8
0
100
AcDbLine
 10
52.134
 20
31.2100829999999
 30
0.0
 11
53.13399999999999
 21
31.2100829999999
 31
0.0
  0
LINE
  5
3C
330
1E
100
AcDbEntity
  8
0
100
AcDbLine
 10
52.134
 20
31.2100829999999
 30
0.0
 11
52.134
 21
33.2100829999999
 31
0.0
  0
LINE
  5
3D
330
1E
100
AcDbEntity
  8
0
100
AcDbLine
 10
52.134
 20
31.2100829999999
 30
0.0
 11
53.86600000000001
 21
31.2100829999999
 31
0.0
  0
LINE
  5
3E
330
1E
100
AcDbEntity
  8
0
100
AcDbLine
 10
52.134
 20
31.2100829999999
 30
0.0
 11
53.13399999999999
 21
31.2100829999999
 31
0.0
  0
LINE
  5
3F
330
1E
100
AcDbEntity
  8
0
100
AcDbLine
 10
52.1109
 20
31.2100829999999
 30
0.0
 11
54.4731
 21
31.2100829999999
 31
0.0
  0
LINE
  5
40
330
1E
100
AcDbEntity
  8
0
100
AcDbLine
 10
52.1109
 20
31.2100829999999
 30
0.0
 11
54.4731
 21
31.2100829999999
 31
0.0
  0
LINE
  5
41
330
1E
100
AcDbEntity
  8
0
100
AcDbLine
 10
50.79600000000001
 20
31.2100829999999
 30
0.0
 11
53.55199999999999
 21
31.2100829999999
 31
0.0
  0
LINE
  5
42
330
1E
100
AcDbEntity
  8
0
100
AcDbLine
 10
48.716
 20
31.2100829999999
 30
0.0
 11
50.79600000000001
 21
31.2100829999999
 31
0.0
  0
LINE
  5
43
330
1E
100
AcDbEntity
  8
0
100
AcDbLine
 10
47.468
 20
31.2100829999999
 30
0.0
 11
48.716
 21
31.2100829999999
 31
0.0
  0
LINE
  5
44
330
1E
100
AcDbEntity
  8
0
100
AcDbLine
 10
46.0
 20
33.2100829999999
 30
0.0
 11
46.0
 21
31.2100829999999
 31
0.0
  0
LINE
  5
45
330
1E
100
AcDbEntity
  8
0
100
AcDbLine
 10
52.134
 20
33.2100829999999
 30
0.0
 11
52.134
 21
31.2100829999999
 31
0.0
  0
LINE
  5
46
330
1E
100
AcDbEntity
  8
0
100
AcDbLine
 10
47.0
 20
31.2100829999999
 30
0.0
 11
47.468
 21
31.2100829999999
 31
0.0
  0
LINE
  5
47
330
1E
100
AcDbEntity
  8
0
100
AcDbLine
 10
47.0
 20
31.2100829999999
 30
0.0
 11
47.468
 21
31.2100829999999
 31
0.0
  0
LINE
  5
48
330
1E
100
AcDbEntity
  8
0
100
AcDbLine
 10
36.0
 20
33.2100829999999
 30
0.0
 11
60.0
 21
33.2100829999999
 31
0.0
  0
LINE
  5
49
330
1E
100
AcDbEntity
  8
0
100
AcDbLine
 10
46.39999999999999
 20
39.61008299999989
 30
0.0
 11
53.0
 21
36.9100829999999
 31
0.0
  0
LINE
  5
4A
330
1E
100
AcDbEntity
  8
0
100
AcDbLine
 10
53.13399999999999
 20
31.2100829999999
 30
0.0
 11
54.86600000000001
 21
31.2100829999999
 31
0.0
  0
LINE
  5
4B
330
1E
100
AcDbEntity
  8
0
100
AcDbLine
 10
53.86600000000001
 20
31.2100829999999
 30
0.0
 11
54.86600000000001
 21
31.2100829999999
 31
0.0
  0
LINE
  5
4C
330
1E
100
AcDbEntity
  8
0
100
AcDbLine
 10
53.13399999999999
 20
31.2100829999999
 30
0.0
 11
54.86600000000001
 21
31.2100829999999
 31
0.0
  0
LINE
  5
4D
330
1E
100
AcDbEntity
  8
0
100
AcDbLine
 10
53.86600000000001
 20
31.2100829999999
 30
0.0
 11
53.86600000000001
 21
33.2100829999999
 31
0.0
  0
LINE
  5
4E
330
1E
100
AcDbEntity
  8
0
100
AcDbLine
 10
53.86600000000001
 20
31.2100829999999
 30
0.0
 11
54.86600000000001
 21
31.2100829999999
 31
0.0
  0
LINE
  5
4F
330
1E
100
AcDbEntity
  8
0
100
AcDbLine
 10
53.55199999999999
 20
31.2100829999999
 30
0.0
 11
56.672
 21
31.2100829999999
 31
0.0
  0
LINE
  5
50
330
1E
100
AcDbEntity
  8
0
100
AcDbLine
 10
56.672
 20
31.2100829999999
 30
0.0
 11
60.0
 21
31.2100829999999
 31
0.0
  0
LINE
  5
51
330
1E
100
AcDbEntity
  8
0
100
AcDbLine
 10
54.4731
 20
31.2100829999999
 30
0.0
 11
57.14739999999999
 21
31.2100829999999
 31
0.0
  0
LINE
  5
52
330
1E
100
AcDbEntity
  8
0
100
AcDbLine
 10
54.4731
 20
31.2100829999999
 30
0.0
 11
57.14739999999999
 21
31.2100829999999
 31
0.0
  0
LINE
  5
53
330
1E
100
AcDbEntity
  8
0
100
AcDbLine
 10
57.14739999999999
 20
31.2100829999999
 30
0.0
 11
60.0
 21
31.2100829999999
 31
0.0
  0
LINE
  5
54
330
1E
100
AcDbEntity
  8
0
100
AcDbLine
 10
60.0
 20
31.2100829999999
 30
0.0
 11
63.328
 21
31.2100829999999
 31
0.0
  0
LINE
  5
55
330
1E
100
AcDbEntity
  8
0
100
AcDbLine
 10
60.0
 20
31.2100829999999
 30
0.0
 11
62.8526
 21
31.2100829999999
 31
0.0
  0
LINE
  5
56
330
1E
100
AcDbEntity
  8
0
100
AcDbLine
 10
62.8526
 20
31.2100829999999
 30
0.0
 11
65.5269
 21
31.2100829999999
 31
0.0
  0
LINE
  5
57
330
1E
100
AcDbEntity
  8
0
100
AcDbLine
 10
63.328
 20
31.2100829999999
 30
0.0
 11
66.448
 21
31.2100829999999
 31
0.0
  0
LINE
  5
58
330
1E
100
AcDbEntity
  8
0
100
AcDbLine
 10
60.0
 20
31.2100829999999
 30
0.0
 11
63.328
 21
31.2100829999999
 31
0.0
  0
LINE
  5
59
330
1E
100
AcDbEntity
  8
0
100
AcDbLine
 10
60.0
 20
31.2100829999999
 30
0.0
 11
62.8526
 21
31.2100829999999
 31
0.0
  0
LINE
  5
5A
330
1E
100
AcDbEntity
  8
0
100
AcDbLine
 10
62.8526
 20
31.2100829999999
 30
0.0
 11
65.5269
 21
31.2100829999999
 31
0.0
  0
LINE
  5
5B
330
1E
100
AcDbEntity
  8
0
100
AcDbLine
 10
65.134
 20
31.2100829999999
 30
0.0
 11
66.134
 21
31.2100829999999
 31
0.0
  0
LINE
  5
5C
330
1E
100
AcDbEntity
  8
0
100
AcDbLine
 10
65.134
 20
31.2100829999999
 30
0.0
 11
66.866
 21
31.2100829999999
 31
0.0
  0
LINE
  5
5D
330
1E
100
AcDbEntity
  8
0
100
AcDbLine
 10
66.134
 20
31.2100829999999
 30
0.0
 11
67.86599999999999
 21
31.2100829999999
 31
0.0
  0
LINE
  5
5E
330
1E
100
AcDbEntity
  8
0
100
AcDbLine
 10
65.5269
 20
31.2100829999999
 30
0.0
 11
67.8891
 21
31.2100829999999
 31
0.0
  0
LINE
  5
5F
330
1E
100
AcDbEntity
  8
0
100
AcDbLine
 10
65.134
 20
31.2100829999999
 30
0.0
 11
66.134
 21
31.2100829999999
 31
0.0
  0
LINE
  5
60
330
1E
100
AcDbEntity
  8
0
100
AcDbLine
 10
65.134
 20
31.2100829999999
 30
0.0
 11
66.866
 21
31.2100829999999
 31
0.0
  0
LINE
  5
61
330
1E
100
AcDbEntity
  8
0
100
AcDbLine
 10
66.134
 20
31.2100829999999
 30
0.0
 11
66.134
 21
33.2100829999999
 31
0.0
  0
LINE
  5
62
330
1E
100
AcDbEntity
  8
0
100
AcDbLine
 10
66.134
 20
31.2100829999999
 30
0.0
 11
67.86599999999999
 21
31.2100829999999
 31
0.0
  0
LINE
  5
63
330
1E
100
AcDbEntity
  8
0
100
AcDbLine
 10
66.448
 20
31.2100829999999
 30
0.0
 11
69.20399999999999
 21
31.2100829999999
 31
0.0
  0
LINE
  5
64
330
1E
100
AcDbEntity
  8
0
100
AcDbLine
 10
63.328
 20
31.2100829999999
 30
0.0
 11
66.448
 21
31.2100829999999
 31
0.0
  0
LINE
  5
65
330
1E
100
AcDbEntity
  8
0
100
AcDbLine
 10
65.5269
 20
31.2100829999999
 30
0.0
 11
67.8891
 21
31.2100829999999
 31
0.0
  0
LINE
  5
66
330
1E
100
AcDbEntity
  8
0
100
AcDbLine
 10
66.866
 20
31.2100829999999
 30
0.0
 11
67.86599999999999
 21
31.2100829999999
 31
0.0
  0
LINE
  5
67
330
1E
100
AcDbEntity
  8
0
100
AcDbLine
 10
67.8891
 20
31.2100829999999
 30
0.0
 11
69.672
 21
31.2100829999999
 31
0.0
  0
LINE
  5
68
330
1E
100
AcDbEntity
  8
0
100
AcDbLine
 10
66.866
 20
31.2100829999999
 30
0.0
 11
67.86599999999999
 21
31.2100829999999
 31
0.0
  0
LINE
  5
69
330
1E
100
AcDbEntity
  8
0
100
AcDbLine
 10
67.86599999999999
 20
31.2100829999999
 30
0.0
 11
67.86599999999999
 21
33.2100829999999
 31
0.0
  0
LINE
  5
6A
330
1E
100
AcDbEntity
  8
0
100
AcDbLine
 10
69.20399999999999
 20
31.2100829999999
 30
0.0
 11
71.28399999999999
 21
31.2100829999999
 31
0.0
  0
LINE
  5
6B
330
1E
100
AcDbEntity
  8
0
100
AcDbLine
 10
66.448
 20
31.2100829999999
 30
0.0
 11
69.20399999999999
 21
31.2100829999999
 31
0.0
  0
LINE
  5
6C
330
1E
100
AcDbEntity
  8
0
100
AcDbLine
 10
67.8891
 20
31.2100829999999
 30
0.0
 11
69.672
 21
31.2100829999999
 31
0.0
  0
LINE
  5
6D
330
1E
100
AcDbEntity
  8
0
100
AcDbLine
 10
69.672
 20
31.2100829999999
 30
0.0
 11
70.74169999999999
 21
31.2100829999999
 31
0.0
  0
LINE
  5
6E
330
1E
100
AcDbEntity
  8
0
100
AcDbLine
 10
71.28399999999999
 20
31.2100829999999
 30
0.0
 11
72.53199999999999
 21
31.2100829999999
 31
0.0
  0
LINE
  5
6F
330
1E
100
AcDbEntity
  8
0
100
AcDbLine
 10
69.20399999999999
 20
31.2100829999999
 30
0.0
 11
71.28399999999999
 21
31.2100829999999
 31
0.0
  0
LINE
  5
70
330
1E
100
AcDbEntity
  8
0
100
AcDbLine
 10
69.672
 20
31.2100829999999
 30
0.0
 11
70.74169999999999
 21
31.2100829999999
 31
0.0
  0
LINE
  5
71
330
1E
100
AcDbEntity
  8
0
100
AcDbLine
 10
72.0
 20
31.2100829999999
 30
0.0
 11
74.0
 21
31.2100829999999
 31
0.0
  0
LINE
  5
72
330
1E
100
AcDbEntity
  8
0
100
AcDbLine
 10
72.53199999999999
 20
31.2100829999999
 30
0.0
 11
73.0
 21
31.2100829999999
 31
0.0
  0
LINE
  5
73
330
1E
100
AcDbEntity
  8
0
100
AcDbLine
 10
71.28399999999999
 20
31.2100829999999
 30
0.0
 11
72.53199999999999
 21
31.2100829999999
 31
0.0
  0
LINE
  5
74
330
1E
100
AcDbEntity
  8
0
100
AcDbLine
 10
70.74169999999999
 20
31.2100829999999
 30
0.0
 11
71.1429
 21
31.2100829999999
 31
0.0
  0
LINE
  5
75
330
1E
100
AcDbEntity
  8
0
100
AcDbLine
 10
74.0
 20
31.2100829999999
 30
0.0
 11
74.0
 21
33.2100829999999
 31
0.0
  0
LINE
  5
76
330
1E
100
AcDbEntity
  8
0
100
AcDbLine
 10
72.53199999999999
 20
31.2100829999999
 30
0.0
 11
73.0
 21
31.2100829999999
 31
0.0
  0
LINE
  5
77
330
1E
100
AcDbEntity
  8
0
100
AcDbLine
 10
57.14739999999999
 20
31.2100829999999
 30
0.0
 11
60.0
 21
31.2100829999999
 31
0.0
  0
LINE
  5
78
330
1E
100
AcDbEntity
  8
0
100
AcDbLine
 10
56.672
 20
31.2100829999999
 30
0.0
 11
60.0
 21
31.2100829999999
 31
0.0
  0
LINE
  5
79
330
1E
100
AcDbEntity
  8
0
100
AcDbLine
 10
74.0
 20
33.2100829999999
 30
0.0
 11
74.0
 21
31.2100829999999
 31
0.0
  0
LINE
  5
7A
330
1E
100
AcDbEntity
  8
0
100
AcDbLine
 10
66.134
 20
33.2100829999999
 30
0.0
 11
66.134
 21
31.2100829999999
 31
0.0
  0
LINE
  5
7B
330
1E
100
AcDbEntity
  8
0
100
AcDbLine
 10
67.86599999999999
 20
33.2100829999999
 30
0.0
 11
67.86599999999999
 21
31.2100829999999
 31
0.0
  0
LINE
  5
7C
330
1E
100
AcDbEntity
  8
0
100
AcDbLine
 10
53.86600000000001
 20
33.2100829999999
 30
0.0
 11
53.86600000000001
 21
31.2100829999999
 31
0.0
  0
LINE
  5
7D
330
1E
100
AcDbEntity
  8
0
100
AcDbLine
 10
53.55199999999999
 20
31.2100829999999
 30
0.0
 11
56.672
 21
31.2100829999999
 31
0.0
  0
LINE
  5
7E
330
1E
100
AcDbEntity
  8
0
100
AcDbLine
 10
84.0
 20
33.2100829999999
 30
0.0
 11
85.5
 21
33.4100829999999
 31
0.0
  0
LINE
  5
7F
330
1E
100
AcDbEntity
  8
0
100
AcDbLine
 10
85.5
 20
33.71008299999989
 30
0.0
 11
86.79999999999999
 21
34.3100829999999
 31
0.0
  0
LINE
  5
80
330
1E
100
AcDbEntity
  8
0
100
AcDbLine
 10
84.0
 20
33.5100829999999
 30
0.0
 11
85.5
 21
33.71008299999989
 31
0.0
  0
LINE
  5
81
330
1E
100
AcDbEntity
  8
0
100
AcDbLine
 10
60.0
 20
33.5100829999999
 30
0.0
 11
84.0
 21
33.5100829999999
 31
0.0
  0
LINE
  5
82
330
1E
100
AcDbEntity
  8
0
100
AcDbLine
 10
60.0
 20
33.2100829999999
 30
0.0
 11
84.0
 21
33.2100829999999
 31
0.0
  0
LINE
  5
83
330
1E
100
AcDbEntity
  8
0
100
AcDbLine
 10
134.4999999999999
 20
33.71008299999989
 30
0.0
 11
136.0
 21
33.5100829999999
 31
0.0
  0
LINE
  5
84
330
1E
100
AcDbEntity
  8
0
100
AcDbLine
 10
136.0
 20
33.5100829999999
 30
0.0
 11
149.5
 21
33.5100829999999
 31
0.0
  0
LINE
  5
85
330
1E
100
AcDbEntity
  8
0
100
AcDbLine
 10
134.4999999999999
 20
33.4100829999999
 30
0.0
 11
136.0
 21
33.2100829999999
 31
0.0
  0
LINE
  5
86
330
1E
100
AcDbEntity
  8
0
100
AcDbLine
 10
136.0
 20
33.2100829999999
 30
0.0
 11
149.5
 21
33.2100829999999
 31
0.0
  0
LINE
  5
87
330
1E
100
AcDbEntity
  8
0
100
AcDbLine
 10
133.1999999999999
 20
34.3100829999999
 30
0.0
 11
134.4999999999999
 21
33.71008299999989
 31
0.0
  0
LINE
  5
88
330
1E
100
AcDbEntity
  8
0
100
AcDbLine
 10
86.79999999999999
 20
34.3100829999999
 30
0.0
 11
88.0
 21
35.21008299999989
 31
0.0
  0
LINE
  5
89
330
1E
100
AcDbEntity
  8
0
100
AcDbLine
 10
87.0
 20
34.0100829999999
 30
0.0
 11
88.2
 21
35.0100829999999
 31
0.0
  0
LINE
  5
8A
330
1E
100
AcDbEntity
  8
0
100
AcDbLine
 10
85.5
 20
33.4100829999999
 30
0.0
 11
87.0
 21
34.0100829999999
 31
0.0
  0
LINE
  5
8B
330
1E
100
AcDbEntity
  8
0
100
AcDbLine
 10
67.0
 20
36.9100829999999
 30
0.0
 11
73.59999999999999
 21
39.61008299999989
 31
0.0
  0
LINE
  5
8C
330
1E
100
AcDbEntity
  8
0
100
AcDbLine
 10
60.0
 20
35.9100829999999
 30
0.0
 11
67.0
 21
36.9100829999999
 31
0.0
  0
LINE
  5
8D
330
1E
100
AcDbEntity
  8
0
100
AcDbLine
 10
88.0
 20
35.21008299999989
 30
0.0
 11
88.9
 21
36.4100829999999
 31
0.0
  0
LINE
  5
8E
330
1E
100
AcDbEntity
  8
0
100
AcDbLine
 10
88.9
 20
36.4100829999999
 30
0.0
 11
89.50000000000001
 21
37.71008299999989
 31
0.0
  0
LINE
  5
8F
330
1E
100
AcDbEntity
  8
0
100
AcDbLine
 10
73.59999999999999
 20
39.61008299999989
 30
0.0
 11
79.29999999999999
 21
43.91008299999989
 31
0.0
  0
LINE
  5
91
330
1E
100
AcDbEntity
  8
0
100
AcDbLine
 10
89.50000000000001
 20
37.71008299999989
 30
0.0
 11
89.7
 21
39.21008299999989
 31
0.0
  0
LINE
  5
92
330
1E
100
AcDbEntity
  8
0
100
AcDbLine
 10
131.0999999999999
 20
36.4100829999999
 30
0.0
 11
132.0
 21
35.21008299999989
 31
0.0
  0
LINE
  5
93
330
1E
100
AcDbEntity
  8
0
100
AcDbLine
 10
130.4999999999999
 20
37.71008299999989
 30
0.0
 11
131.0999999999999
 21
36.4100829999999
 31
0.0
  0
LINE
  5
94
330
1E
100
AcDbEntity
  8
0
100
AcDbLine
 10
130.3
 20
39.21008299999989
 30
0.0
 11
130.3
 21
63.2100829999999
 31
0.0
  0
LINE
  5
95
330
1E
100
AcDbEntity
  8
0
100
AcDbLine
 10
130.3
 20
39.21008299999989
 30
0.0
 11
130.4999999999999
 21
37.71008299999989
 31
0.0
  0
LINE
  5
96
330
1E
100
AcDbEntity
  8
0
100
AcDbLine
 10
130.0
 20
39.21008299999989
 30
0.0
 11
130.0
 21
63.2100829999999
 31
0.0
  0
LINE
  5
97
330
1E
100
AcDbEntity
  8
0
100
AcDbLine
 10
130.0
 20
39.21008299999989
 30
0.0
 11
130.1999999999999
 21
37.71008299999989
 31
0.0
  0
LINE
  5
98
330
1E
100
AcDbEntity
  8
0
100
AcDbLine
 10
132.0
 20
35.21008299999989
 30
0.0
 11
133.1999999999999
 21
34.3100829999999
 31
0.0
  0
LINE
  5
99
330
1E
100
AcDbEntity
  8
0
100
AcDbLine
 10
146.4
 20
39.61008299999989
 30
0.0
 11
149.5
 21
38.3419011818181
 31
0.0
  0
LINE
  5
9A
330
1E
100
AcDbEntity
  8
0
100
AcDbLine
 10
146.4
 20
39.61008299999989
 30
0.0
 11
149.5
 21
38.34190118181799
 31
0.0
  0
LINE
  5
9B
330
1E
100
AcDbEntity
  8
0
100
AcDbLine
 10
89.7
 20
39.21008299999989
 30
0.0
 11
89.7
 21
63.2100829999999
 31
0.0
  0
LINE
  5
9C
330
1E
100
AcDbEntity
  8
0
100
AcDbLine
 10
88.2
 20
35.0100829999999
 30
0.0
 11
89.19999999999999
 21
36.21008299999989
 31
0.0
  0
LINE
  5
9D
330
1E
100
AcDbEntity
  8
0
100
AcDbLine
 10
53.0
 20
36.9100829999999
 30
0.0
 11
60.0
 21
35.9100829999999
 31
0.0
  0
LINE
  5
9E
330
1E
100
AcDbEntity
  8
0
100
AcDbLine
 10
36.4
 20
49.61008299999989
 30
0.0
 11
40.7
 21
43.91008299999989
 31
0.0
  0
LINE
  5
A0
330
1E
100
AcDbEntity
  8
0
100
AcDbLine
 10
79.29999999999999
 20
43.91008299999989
 30
0.0
 11
83.59999999999999
 21
49.61008299999989
 31
0.0
  0
LINE
  5
A1
330
1E
100
AcDbEntity
  8
0
100
AcDbLine
 10
140.6999999999999
 20
43.91008299999989
 30
0.0
 11
146.4
 21
39.61008299999989
 31
0.0
  0
LINE
  5
A5
330
1E
100
AcDbEntity
  8
0
100
AcDbLine
 10
52.4
 20
49.9100829999999
 30
0.0
 11
56.1
 21
48.51008299999989
 31
0.0
  0
LINE
  5
A6
330
1E
100
AcDbEntity
  8
0
100
AcDbLine
 10
136.4
 20
49.61008299999989
 30
0.0
 11
140.6999999999999
 21
43.91008299999989
 31
0.0
  0
LINE
  5
A9
330
1E
100
AcDbEntity
  8
0
100
AcDbLine
 10
63.9
 20
48.51008299999989
 30
0.0
 11
67.59999999999999
 21
49.9100829999999
 31
0.0
  0
LINE
  5
AA
330
1E
100
AcDbEntity
  8
0
100
AcDbLine
 10
60.0
 20
47.91008299999989
 30
0.0
 11
63.9
 21
48.51008299999989
 31
0.0
  0
LINE
  5
AC
330
1E
100
AcDbEntity
  8
0
100
AcDbLine
 10
67.59999999999999
 20
49.9100829999999
 30
0.0
 11
70.8
 21
52.4100829999999
 31
0.0
  0
LINE
  5
AD
330
1E
100
AcDbEntity
  8
0
100
AcDbLine
 10
92.0
 20
50.2100829999999
 30
0.0
 11
92.0
 21
50.67808299999989
 31
0.0
  0
LINE
  5
AE
330
1E
100
AcDbEntity
  8
0
100
AcDbLine
 10
90.0
 20
50.2100829999999
 30
0.0
 11
92.0
 21
50.2100829999999
 31
0.0
  0
LINE
  5
B0
330
1E
100
AcDbEntity
  8
0
100
AcDbLine
 10
83.59999999999999
 20
49.61008299999989
 30
0.0
 11
86.3
 21
56.21008299999989
 31
0.0
  0
LINE
  5
B1
330
1E
100
AcDbEntity
  8
0
100
AcDbLine
 10
56.1
 20
48.51008299999989
 30
0.0
 11
60.0
 21
47.91008299999989
 31
0.0
  0
LINE
  5
B2
330
1E
100
AcDbEntity
  8
0
100
AcDbLine
 10
40.7
 20
43.91008299999989
 30
0.0
 11
46.39999999999999
 21
39.61008299999989
 31
0.0
  0
LINE
  5
B4
330
1E
100
AcDbEntity
  8
0
100
AcDbLine
 10
10.5
 20
52.7100829999999
 30
0.0
 11
60.0
 21
52.7100829999999
 31
0.0
  0
LINE
  5
B5
330
1E
100
AcDbEntity
  8
0
100
AcDbLine
 10
10.5
 20
52.7100829999999
 30
0.0
 11
40.0
 21
52.7100829999999
 31
0.0
  0
LINE
  5
B6
330
1E
100
AcDbEntity
  8
0
100
AcDbLine
 10
47.0
 20
52.7100829999999
 30
0.0
 11
51.0
 21
52.7100829999999
 31
0.0
  0
LINE
  5
B7
330
1E
100
AcDbEntity
  8
0
100
AcDbLine
 10
40.0
 20
52.7100829999999
 30
0.0
 11
43.3
 21
52.7100829999999
 31
0.0
  0
LINE
  5
B8
330
1E
100
AcDbEntity
  8
0
100
AcDbLine
 10
40.0
 20
52.7100829999999
 30
0.0
 11
60.0
 21
52.7100829999999
 31
0.0
  0
LINE
  5
B9
330
1E
100
AcDbEntity
  8
0
100
AcDbLine
 10
30.3
 20
52.7100829999999
 30
0.0
 11
30.3
 21
39.21008299999989
 31
0.0
  0
LINE
  5
BA
330
1E
100
AcDbEntity
  8
0
100
AcDbLine
 10
30.0
 20
52.7100829999999
 30
0.0
 11
30.0
 21
39.21008299999989
 31
0.0
  0
LINE
  5
BB
330
1E
100
AcDbEntity
  8
0
100
AcDbLine
 10
48.965625
 20
52.7100829999999
 30
0.0
 11
49.2
 21
52.4100829999999
 31
0.0
  0
LINE
  5
BD
330
1E
100
AcDbEntity
  8
0
100
AcDbLine
 10
7.79999999999999
 20
53.01008299999989
 30
0.0
 11
10.5
 21
52.7100829999999
 31
0.0
  0
LINE
  5
BE
330
1E
100
AcDbEntity
  8
0
100
AcDbLine
 10
35.13181818181819
 20
52.7100829999999
 30
0.0
 11
36.4
 21
49.61008299999989
 31
0.0
  0
LINE
  5
BF
330
1E
100
AcDbEntity
  8
0
100
AcDbLine
 10
70.8
 20
52.4100829999999
 30
0.0
 11
73.3
 21
55.6100829999999
 31
0.0
  0
LINE
  5
C0
330
1E
100
AcDbEntity
  8
0
100
AcDbLine
 10
92.0
 20
50.67808299999989
 30
0.0
 11
92.0
 21
50.2100829999999
 31
0.0
  0
LINE
  5
C1
330
1E
100
AcDbEntity
  8
0
100
AcDbLine
 10
92.0
 20
50.67808299999989
 30
0.0
 11
92.0
 21
51.92608299999989
 31
0.0
  0
LINE
  5
C2
330
1E
100
AcDbEntity
  8
0
100
AcDbLine
 10
92.0
 20
51.92608299999989
 30
0.0
 11
92.0
 21
50.67808299999989
 31
0.0
  0
LINE
  5
C3
330
1E
100
AcDbEntity
  8
0
100
AcDbLine
 10
92.0
 20
51.92608299999989
 30
0.0
 11
92.0
 21
54.0060829999999
 31
0.0
  0
LINE
  5
C4
330
1E
100
AcDbEntity
  8
0
100
AcDbLine
 10
92.0
 20
52.2100829999999
 30
0.0
 11
130.0
 21
52.2100829999999
 31
0.0
  0
LINE
  5
C5
330
1E
100
AcDbEntity
  8
0
100
AcDbLine
 10
149.1999999999999
 20
52.4100829999999
 30
0.0
 11
149.5
 21
52.1757079999999
 31
0.0
  0
LINE
  5
CA
330
1E
100
AcDbEntity
  8
0
100
AcDbLine
 10
60.0
 20
52.7100829999999
 30
0.0
 11
62.7
 21
53.01008299999989
 31
0.0
  0
LINE
  5
CB
330
1E
100
AcDbEntity
  8
0
100
AcDbLine
 10
59.6
 20
52.7100829999999
 30
0.0
 11
60.0
 21
52.7100829999999
 31
0.0
  0
LINE
  5
CC
330
1E
100
AcDbEntity
  8
0
100
AcDbLine
 10
62.7
 20
53.01008299999989
 30
0.0
 11
65.2
 21
54.1100829999999
 31
0.0
  0
LINE
  5
CD
330
1E
100
AcDbEntity
  8
0
100
AcDbLine
 10
58.1
 20
52.7100829999999
 30
0.0
 11
59.6
 21
52.7100829999999
 31
0.0
  0
LINE
  5
CE
330
1E
100
AcDbEntity
  8
0
100
AcDbLine
 10
51.0
 20
52.7100829999999
 30
0.0
 11
55.3
 21
52.7100829999999
 31
0.0
  0
LINE
  5
D1
330
1E
100
AcDbEntity
  8
0
100
AcDbLine
 10
49.2
 20
52.4100829999999
 30
0.0
 11
52.4
 21
49.9100829999999
 31
0.0
  0
LINE
  5
D3
330
1E
100
AcDbEntity
  8
0
100
AcDbLine
 10
149.5
 20
50.29918299999989
 30
0.0
 11
149.5
 21
53.5445829999999
 31
0.0
  0
LINE
  5
D4
330
1E
100
AcDbEntity
  8
0
100
AcDbLine
 10
149.5
 20
50.29918299999989
 30
0.0
 11
149.5
 21
46.71008299999989
 31
0.0
  0
LINE
  5
D5
330
1E
100
AcDbEntity
  8
0
100
AcDbLine
 10
149.5
 20
46.71008299999989
 30
0.0
 11
149.5
 21
50.29918299999989
 31
0.0
  0
LINE
  5
D6
330
1E
100
AcDbEntity
  8
0
100
AcDbLine
 10
149.5
 20
46.71008299999989
 30
0.0
 11
149.5
 21
42.8386829999999
 31
0.0
  0
LINE
  5
D7
330
1E
100
AcDbEntity
  8
0
100
AcDbLine
 10
65.2
 20
54.1100829999999
 30
0.0
 11
67.5
 21
55.7100829999999
 31
0.0
  0
LINE
  5
D9
330
1E
100
AcDbEntity
  8
0
100
AcDbLine
 10
67.5
 20
55.7100829999999
 30
0.0
 11
69.1
 21
58.01008299999989
 31
0.0
  0
LINE
  5
DA
330
1E
100
AcDbEntity
  8
0
100
AcDbLine
 10
5.29999999999999
 20
54.1100829999999
 30
0.0
 11
7.79999999999999
 21
53.01008299999989
 31
0.0
  0
LINE
  5
DB
330
1E
100
AcDbEntity
  8
0
100
AcDbLine
 10
2.99999999999999
 20
55.7100829999999
 30
0.0
 11
5.29999999999999
 21
54.1100829999999
 31
0.0
  0
LINE
  5
DD
330
1E
100
AcDbEntity
  8
0
100
AcDbLine
 10
69.1
 20
58.01008299999989
 30
0.0
 11
70.2
 21
60.51008299999989
 31
0.0
  0
LINE
  5
E0
330
1E
100
AcDbEntity
  8
0
100
AcDbLine
 10
1.399999999999989
 20
58.01008299999989
 30
0.0
 11
2.99999999999999
 21
55.7100829999999
 31
0.0
  0
LINE
  5
E2
330
1E
100
AcDbEntity
  8
0
100
AcDbLine
 10
73.3
 20
55.6100829999999
 30
0.0
 11
74.7
 21
59.31008299999989
 31
0.0
  0
LINE
  5
E3
330
1E
100
AcDbEntity
  8
0
100
AcDbLine
 10
0.299999999999991
 20
60.51008299999989
 30
0.0
 11
1.399999999999989
 21
58.01008299999989
 31
0.0
  0
LINE
  5
E4
330
1E
100
AcDbEntity
  8
0
100
AcDbLine
 10
70.2
 20
60.51008299999989
 30
0.0
 11
70.5
 21
63.2100829999999
 31
0.0
  0
LINE
  5
E5
330
1E
100
AcDbEntity
  8
0
100
AcDbLine
 10
0.299999999999991
 20
60.51008299999989
 30
0.0
 11
1.399999999999989
 21
58.01008299999989
 31
0.0
  0
LINE
  5
E6
330
1E
100
AcDbEntity
  8
0
100
AcDbLine
 10
74.7
 20
59.31008299999989
 30
0.0
 11
75.3
 21
63.2100829999999
 31
0.0
  0
LINE
  5
E7
330
1E
100
AcDbEntity
  8
0
100
AcDbLine
 10
92.0
 20
54.0060829999999
 30
0.0
 11
92.0
 21
51.92608299999989
 31
0.0
  0
LINE
  5
E8
330
1E
100
AcDbEntity
  8
0
100
AcDbLine
 10
92.0
 20
54.0060829999999
 30
0.0
 11
92.0
 21
56.7620829999999
 31
0.0
  0
LINE
  5
EA
330
1E
100
AcDbEntity
  8
0
100
AcDbLine
 10
146.6999999999999
 20
55.6100829999999
 30
0.0
 11
149.1999999999999
 21
52.4100829999999
 31
0.0
  0
LINE
  5
EC
330
1E
100
AcDbEntity
  8
0
100
AcDbLine
 10
92.0
 20
56.7620829999999
 30
0.0
 11
92.0
 21
54.0060829999999
 31
0.0
  0
LINE
  5
ED
330
1E
100
AcDbEntity
  8
0
100
AcDbLine
 10
92.0
 20
56.7620829999999
 30
0.0
 11
92.0
 21
59.88208299999989
 31
0.0
  0
LINE
  5
EE
330
1E
100
AcDbEntity
  8
0
100
AcDbLine
 10
92.0
 20
59.88208299999989
 30
0.0
 11
92.0
 21
56.7620829999999
 31
0.0
  0
LINE
  5
EF
330
1E
100
AcDbEntity
  8
0
100
AcDbLine
 10
92.0
 20
59.88208299999989
 30
0.0
 11
92.0
 21
63.2100829999999
 31
0.0
  0
LINE
  5
F1
330
1E
100
AcDbEntity
  8
0
100
AcDbLine
 10
145.3
 20
59.31008299999989
 30
0.0
 11
146.6999999999999
 21
55.6100829999999
 31
0.0
  0
LINE
  5
F2
330
1E
100
AcDbEntity
  8
0
100
AcDbLine
 10
133.6999999999999
 20
56.21008299999989
 30
0.0
 11
136.4
 21
49.61008299999989
 31
0.0
  0
LINE
  5
F3
330
1E
100
AcDbEntity
  8
0
100
AcDbLine
 10
86.3
 20
56.21008299999989
 30
0.0
 11
87.3
 21
63.2100829999999
 31
0.0
  0
LINE
  5
F4
330
1E
100
AcDbEntity
  8
0
100
AcDbLine
 10
149.5
 20
60.6980829999999
 30
0.0
 11
149.5
 21
62.08568299999989
 31
0.0
  0
LINE
  5
F5
330
1E
100
AcDbEntity
  8
0
100
AcDbLine
 10
149.5
 20
60.6980829999999
 30
0.0
 11
149.5
 21
58.78888299999989
 31
0.0
  0
LINE
  5
F6
330
1E
100
AcDbEntity
  8
0
100
AcDbLine
 10
149.5
 20
62.08568299999989
 30
0.0
 11
149.5
 21
62.9277829999999
 31
0.0
  0
LINE
  5
F7
330
1E
100
AcDbEntity
  8
0
100
AcDbLine
 10
149.5
 20
62.08568299999989
 30
0.0
 11
149.5
 21
60.6980829999999
 31
0.0
  0
LINE
  5
F8
330
1E
100
AcDbEntity
  8
0
100
AcDbLine
 10
-0.0000000000000089
 20
63.2100829999999
 30
0.0
 11
0.299999999999991
 21
60.51008299999989
 31
0.0
  0
LINE
  5
F9
330
1E
100
AcDbEntity
  8
0
100
AcDbLine
 10
130.3
 20
63.2100829999999
 30
0.0
 11
130.3
 21
87.2100829999999
 31
0.0
  0
LINE
  5
FA
330
1E
100
AcDbEntity
  8
0
100
AcDbLine
 10
130.3
 20
63.2100829999999
 30
0.0
 11
130.3
 21
39.21008299999989
 31
0.0
  0
LINE
  5
FB
330
1E
100
AcDbEntity
  8
0
100
AcDbLine
 10
130.0
 20
63.2100829999999
 30
0.0
 11
130.0
 21
87.2100829999999
 31
0.0
  0
LINE
  5
FC
330
1E
100
AcDbEntity
  8
0
100
AcDbLine
 10
130.0
 20
63.2100829999999
 30
0.0
 11
130.0
 21
39.21008299999989
 31
0.0
  0
LINE
  5
FD
330
1E
100
AcDbEntity
  8
0
100
AcDbLine
 10
144.6999999999999
 20
63.2100829999999
 30
0.0
 11
145.3
 21
67.11008299999988
 31
0.0
  0
LINE
  5
FE
330
1E
100
AcDbEntity
  8
0
100
AcDbLine
 10
144.6999999999999
 20
63.2100829999999
 30
0.0
 11
145.3
 21
59.31008299999989
 31
0.0
  0
LINE
  5
FF
330
1E
100
AcDbEntity
  8
0
100
AcDbLine
 10
132.6999999999999
 20
63.2100829999999
 30
0.0
 11
133.6999999999999
 21
70.2100829999999
 31
0.0
  0
LINE
  5
100
330
1E
100
AcDbEntity
  8
0
100
AcDbLine
 10
132.6999999999999
 20
63.2100829999999
 30
0.0
 11
133.6999999999999
 21
56.21008299999989
 31
0.0
  0
LINE
  5
101
330
1E
100
AcDbEntity
  8
0
100
AcDbLine
 10
89.7
 20
63.2100829999999
 30
0.0
 11
89.7
 21
87.2100829999999
 31
0.0
  0
LINE
  5
102
330
1E
100
AcDbEntity
  8
0
100
AcDbLine
 10
89.7
 20
63.2100829999999
 30
0.0
 11
89.7
 21
39.21008299999989
 31
0.0
  0
LINE
  5
103
330
1E
100
AcDbEntity
  8
0
100
AcDbLine
 10
149.5
 20
62.9277829999999
 30
0.0
 11
149.5
 21
62.08568299999989
 31
0.0
  0
LINE
  5
104
330
1E
100
AcDbEntity
  8
0
100
AcDbLine
 10
149.5
 20
62.9277829999999
 30
0.0
 11
149.5
 21
63.2100829999999
 31
0.0
  0
LINE
  5
105
330
1E
100
AcDbEntity
  8
0
100
AcDbLine
 10
149.5
 20
58.78888299999989
 30
0.0
 11
149.5
 21
56.39078299999989
 31
0.0
  0
LINE
  5
106
330
1E
100
AcDbEntity
  8
0
100
AcDbLine
 10
149.5
 20
58.78888299999989
 30
0.0
 11
149.5
 21
60.6980829999999
 31
0.0
  0
LINE
  5
107
330
1E
100
AcDbEntity
  8
0
100
AcDbLine
 10
149.5
 20
53.5445829999999
 30
0.0
 11
149.5
 21
56.39078299999989
 31
0.0
  0
LINE
  5
108
330
1E
100
AcDbEntity
  8
0
100
AcDbLine
 10
149.5
 20
53.5445829999999
 30
0.0
 11
149.5
 21
50.29918299999989
 31
0.0
  0
LINE
  5
109
330
1E
100
AcDbEntity
  8
0
100
AcDbLine
 10
149.5
 20
56.39078299999989
 30
0.0
 11
149.5
 21
53.5445829999999
 31
0.0
  0
LINE
  5
10A
330
1E
100
AcDbEntity
  8
0
100
AcDbLine
 10
149.5
 20
56.39078299999989
 30
0.0
 11
149.5
 21
58.78888299999989
 31
0.0
  0
LINE
  5
10B
330
1E
100
AcDbEntity
  8
0
100
AcDbLine
 10
149.5
 20
42.8386829999999
 30
0.0
 11
149.5
 21
3.67996299999987
 31
0.0
  0
LINE
  5
10C
330
1E
100
AcDbEntity
  8
0
100
AcDbLine
 10
149.5
 20
42.8386829999999
 30
0.0
 11
149.5
 21
46.71008299999989
 31
0.0
  0
LINE
  5
10D
330
1E
100
AcDbEntity
  8
0
100
AcDbLine
 10
149.9
 20
4.603422999999869
 30
0.0
 11
150.9
 21
5.45847299999987
 31
0.0
  0
LINE
  5
10E
330
1E
100
AcDbEntity
  8
0
100
AcDbLine
 10
149.9
 20
2.756512999999869
 30
0.0
 11
150.4
 21
2.32086299999987
 31
0.0
  0
LINE
  5
10F
330
1E
100
AcDbEntity
  8
0
100
AcDbLine
 10
149.5
 20
3.67996299999987
 30
0.0
 11
149.9
 21
2.756512999999869
 31
0.0
  0
LINE
  5
110
330
1E
100
AcDbEntity
  8
0
100
AcDbLine
 10
149.5
 20
3.67996299999987
 30
0.0
 11
149.5
 21
42.8386829999999
 31
0.0
  0
LINE
  5
111
330
1E
100
AcDbEntity
  8
0
100
AcDbLine
 10
149.5
 20
3.67996299999987
 30
0.0
 11
149.9
 21
4.603422999999869
 31
0.0
  0
LINE
  5
112
330
1E
100
AcDbEntity
  8
0
100
AcDbLine
 10
0.299999999999991
 20
65.9100829999999
 30
0.0
 11
1.399999999999989
 21
68.4100829999999
 31
0.0
  0
LINE
  5
115
330
1E
100
AcDbEntity
  8
0
100
AcDbLine
 10
7.79999999999999
 20
73.4100829999999
 30
0.0
 11
10.5
 21
73.71008299999989
 31
0.0
  0
LINE
  5
116
330
1E
100
AcDbEntity
  8
0
100
AcDbLine
 10
5.29999999999999
 20
72.31008299999991
 30
0.0
 11
7.79999999999999
 21
73.4100829999999
 31
0.0
  0
LINE
  5
117
330
1E
100
AcDbEntity
  8
0
100
AcDbLine
 10
2.99999999999999
 20
70.7100829999999
 30
0.0
 11
5.29999999999999
 21
72.31008299999991
 31
0.0
  0
LINE
  5
118
330
1E
100
AcDbEntity
  8
0
100
AcDbLine
 10
1.399999999999989
 20
68.4100829999999
 30
0.0
 11
2.99999999999999
 21
70.7100829999999
 31
0.0
  0
LINE
  5
119
330
1E
100
AcDbEntity
  8
0
100
AcDbLine
 10
0.299999999999991
 20
65.9100829999999
 30
0.0
 11
1.399999999999989
 21
68.4100829999999
 31
0.0
  0
LINE
  5
11A
330
1E
100
AcDbEntity
  8
0
100
AcDbLine
 10
10.5
 20
73.71008299999989
 30
0.0
 11
60.0
 21
73.71008299999989
 31
0.0
  0
LINE
  5
11B
330
1E
100
AcDbEntity
  8
0
100
AcDbLine
 10
30.3
 20
73.71008299999989
 30
0.0
 11
30.3
 21
87.2100829999999
 31
0.0
  0
LINE
  5
11C
330
1E
100
AcDbEntity
  8
0
100
AcDbLine
 10
30.3
 20
87.2100829999999
 30
0.0
 11
30.3
 21
73.71008299999989
 31
0.0
  0
LINE
  5
11D
330
1E
100
AcDbEntity
  8
0
100
AcDbLine
 10
30.3
 20
87.2100829999999
 30
0.0
 11
30.5
 21
88.7100829999999
 31
0.0
  0
LINE
  5
11E
330
1E
100
AcDbEntity
  8
0
100
AcDbLine
 10
30.0
 20
73.71008299999989
 30
0.0
 11
30.0
 21
87.2100829999999
 31
0.0
  0
LINE
  5
11F
330
1E
100
AcDbEntity
  8
0
100
AcDbLine
 10
10.5
 20
73.71008299999989
 30
0.0
 11
60.0
 21
73.71008299999989
 31
0.0
  0
LINE
  5
120
330
1E
100
AcDbEntity
  8
0
100
AcDbLine
 10
31.1
 20
90.01008299999991
 30
0.0
 11
32.0
 21
91.2100829999999
 31
0.0
  0
LINE
  5
121
330
1E
100
AcDbEntity
  8
0
100
AcDbLine
 10
30.5
 20
88.7100829999999
 30
0.0
 11
31.1
 21
90.01008299999991
 31
0.0
  0
LINE
  5
122
330
1E
100
AcDbEntity
  8
0
100
AcDbLine
 10
30.8
 20
90.21008299999989
 30
0.0
 11
31.8
 21
91.4100829999999
 31
0.0
  0
LINE
  5
123
330
1E
100
AcDbEntity
  8
0
100
AcDbLine
 10
30.2
 20
88.7100829999999
 30
0.0
 11
30.8
 21
90.21008299999989
 31
0.0
  0
LINE
  5
124
330
1E
100
AcDbEntity
  8
0
100
AcDbLine
 10
30.0
 20
87.2100829999999
 30
0.0
 11
30.0
 21
73.71008299999989
 31
0.0
  0
LINE
  5
125
330
1E
100
AcDbEntity
  8
0
100
AcDbLine
 10
30.0
 20
87.2100829999999
 30
0.0
 11
30.2
 21
88.7100829999999
 31
0.0
  0
LINE
  5
126
330
1E
100
AcDbEntity
  8
0
100
AcDbLine
 10
32.0
 20
91.2100829999999
 30
0.0
 11
33.2
 21
92.1100829999999
 31
0.0
  0
LINE
  5
127
330
1E
100
AcDbEntity
  8
0
100
AcDbLine
 10
33.2
 20
92.1100829999999
 30
0.0
 11
34.5
 21
92.71008299999989
 31
0.0
  0
LINE
  5
128
330
1E
100
AcDbEntity
  8
0
100
AcDbLine
 10
31.8
 20
91.4100829999999
 30
0.0
 11
33.0
 21
92.4100829999999
 31
0.0
  0
LINE
  5
129
330
1E
100
AcDbEntity
  8
0
100
AcDbLine
 10
34.5
 20
92.71008299999989
 30
0.0
 11
36.0
 21
92.9100829999999
 31
0.0
  0
LINE
  5
12A
330
1E
100
AcDbEntity
  8
0
100
AcDbLine
 10
33.0
 20
92.4100829999999
 30
0.0
 11
34.5
 21
93.0100829999999
 31
0.0
  0
LINE
  5
12B
330
1E
100
AcDbEntity
  8
0
100
AcDbLine
 10
35.13181818181819
 20
73.71008299999989
 30
0.0
 11
36.4
 21
76.81008299999991
 31
0.0
  0
LINE
  5
12E
330
1E
100
AcDbEntity
  8
0
100
AcDbLine
 10
65.2
 20
72.31008299999991
 30
0.0
 11
67.5
 21
70.7100829999999
 31
0.0
  0
LINE
  5
12F
330
1E
100
AcDbEntity
  8
0
100
AcDbLine
 10
67.5
 20
70.7100829999999
 30
0.0
 11
69.1
 21
68.4100829999999
 31
0.0
  0
LINE
  5
130
330
1E
100
AcDbEntity
  8
0
100
AcDbLine
 10
69.1
 20
68.4100829999999
 30
0.0
 11
70.2
 21
65.9100829999999
 31
0.0
  0
LINE
  5
131
330
1E
100
AcDbEntity
  8
0
100
AcDbLine
 10
92.0
 20
69.65808299999989
 30
0.0
 11
92.0
 21
66.5380829999999
 31
0.0
  0
LINE
  5
132
330
1E
100
AcDbEntity
  8
0
100
AcDbLine
 10
92.0
 20
69.65808299999989
 30
0.0
 11
92.0
 21
72.4140829999999
 31
0.0
  0
LINE
  5
133
330
1E
100
AcDbEntity
  8
0
100
AcDbLine
 10
92.0
 20
66.5380829999999
 30
0.0
 11
92.0
 21
63.2100829999999
 31
0.0
  0
LINE
  5
134
330
1E
100
AcDbEntity
  8
0
100
AcDbLine
 10
92.0
 20
66.5380829999999
 30
0.0
 11
92.0
 21
69.65808299999989
 31
0.0
  0
LINE
  5
135
330
1E
100
AcDbEntity
  8
0
100
AcDbLine
 10
92.0
 20
63.2100829999999
 30
0.0
 11
92.0
 21
59.88208299999989
 31
0.0
  0
LINE
  5
136
330
1E
100
AcDbEntity
  8
0
100
AcDbLine
 10
92.0
 20
63.2100829999999
 30
0.0
 11
92.0
 21
66.5380829999999
 31
0.0
  0
LINE
  5
138
330
1E
100
AcDbEntity
  8
0
100
AcDbLine
 10
145.3
 20
67.11008299999988
 30
0.0
 11
146.6999999999999
 21
70.8100829999999
 31
0.0
  0
LINE
  5
139
330
1E
100
AcDbEntity
  8
0
100
AcDbLine
 10
133.6999999999999
 20
70.2100829999999
 30
0.0
 11
136.4
 21
76.81008299999991
 31
0.0
  0
LINE
  5
13A
330
1E
100
AcDbEntity
  8
0
100
AcDbLine
 10
74.7
 20
67.11008299999988
 30
0.0
 11
75.3
 21
63.2100829999999
 31
0.0
  0
LINE
  5
13D
330
1E
100
AcDbEntity
  8
0
100
AcDbLine
 10
146.6999999999999
 20
70.8100829999999
 30
0.0
 11
149.1999999999999
 21
74.01008299999991
 31
0.0
  0
LINE
  5
13E
330
1E
100
AcDbEntity
  8
0
100
AcDbLine
 10
92.0
 20
72.4140829999999
 30
0.0
 11
92.0
 21
69.65808299999989
 31
0.0
  0
LINE
  5
13F
330
1E
100
AcDbEntity
  8
0
100
AcDbLine
 10
92.0
 20
72.4140829999999
 30
0.0
 11
92.0
 21
74.49408299999991
 31
0.0
  0
LINE
  5
141
330
1E
100
AcDbEntity
  8
0
100
AcDbLine
 10
73.3
 20
70.8100829999999
 30
0.0
 11
74.7
 21
67.11008299999988
 31
0.0
  0
LINE
  5
142
330
1E
100
AcDbEntity
  8
0
100
AcDbLine
 10
86.3
 20
70.2100829999999
 30
0.0
 11
87.3
 21
63.2100829999999
 31
0.0
  0
LINE
  5
143
330
1E
100
AcDbEntity
  8
0
100
AcDbLine
 10
70.2
 20
65.9100829999999
 30
0.0
 11
70.5
 21
63.2100829999999
 31
0.0
  0
LINE
  5
144
330
1E
100
AcDbEntity
  8
0
100
AcDbLine
 10
60.0
 20
73.71008299999989
 30
0.0
 11
62.7
 21
73.4100829999999
 31
0.0
  0
LINE
  5
148
330
1E
100
AcDbEntity
  8
0
100
AcDbLine
 10
149.1999999999999
 20
74.01008299999991
 30
0.0
 11
152.4
 21
76.51008299999991
 31
0.0
  0
LINE
  5
14A
330
1E
100
AcDbEntity
  8
0
100
AcDbLine
 10
70.8
 20
74.01008299999991
 30
0.0
 11
73.3
 21
70.8100829999999
 31
0.0
  0
LINE
  5
14B
330
1E
100
AcDbEntity
  8
0
100
AcDbLine
 10
90.0
 20
76.21008299999989
 30
0.0
 11
92.0
 21
76.21008299999989
 31
0.0
  0
LINE
  5
14C
330
1E
100
AcDbEntity
  8
0
100
AcDbLine
 10
92.0
 20
76.21008299999989
 30
0.0
 11
92.0
 21
75.74208299999991
 31
0.0
  0
LINE
  5
14D
330
1E
100
AcDbEntity
  8
0
100
AcDbLine
 10
92.0
 20
75.74208299999991
 30
0.0
 11
92.0
 21
74.49408299999991
 31
0.0
  0
LINE
  5
14E
330
1E
100
AcDbEntity
  8
0
100
AcDbLine
 10
92.0
 20
75.74208299999991
 30
0.0
 11
92.0
 21
76.21008299999989
 31
0.0
  0
LINE
  5
14F
330
1E
100
AcDbEntity
  8
0
100
AcDbLine
 10
92.0
 20
74.49408299999991
 30
0.0
 11
92.0
 21
72.4140829999999
 31
0.0
  0
LINE
  5
150
330
1E
100
AcDbEntity
  8
0
100
AcDbLine
 10
92.0
 20
74.49408299999991
 30
0.0
 11
92.0
 21
75.74208299999991
 31
0.0
  0
LINE
  5
151
330
1E
100
AcDbEntity
  8
0
100
AcDbLine
 10
92.0
 20
74.21008299999989
 30
0.0
 11
130.0
 21
74.21008299999989
 31
0.0
  0
LINE
  5
155
330
1E
100
AcDbEntity
  8
0
100
AcDbLine
 10
67.59999999999999
 20
76.51008299999991
 30
0.0
 11
70.8
 21
74.01008299999991
 31
0.0
  0
LINE
  5
157
330
1E
100
AcDbEntity
  8
0
100
AcDbLine
 10
49.2
 20
74.01008299999991
 30
0.0
 11
52.4
 21
76.51008299999991
 31
0.0
  0
LINE
  5
159
330
1E
100
AcDbEntity
  8
0
100
AcDbLine
 10
136.4
 20
76.81008299999991
 30
0.0
 11
140.6999999999999
 21
82.51008299999991
 31
0.0
  0
LINE
  5
15A
330
1E
100
AcDbEntity
  8
0
100
AcDbLine
 10
83.59999999999999
 20
76.81008299999991
 30
0.0
 11
86.3
 21
70.2100829999999
 31
0.0
  0
LINE
  5
15B
330
1E
100
AcDbEntity
  8
0
100
AcDbLine
 10
52.4
 20
76.51008299999991
 30
0.0
 11
56.1
 21
77.9100829999999
 31
0.0
  0
LINE
  5
15D
330
1E
100
AcDbEntity
  8
0
100
AcDbLine
 10
48.965625
 20
73.71008299999989
 30
0.0
 11
49.2
 21
74.01008299999991
 31
0.0
  0
LINE
  5
15F
330
1E
100
AcDbEntity
  8
0
100
AcDbLine
 10
40.7
 20
82.51008299999991
 30
0.0
 11
46.39999999999999
 21
86.81008299999991
 31
0.0
  0
LINE
  5
162
330
1E
100
AcDbEntity
  8
0
100
AcDbLine
 10
63.9
 20
77.9100829999999
 30
0.0
 11
67.59999999999999
 21
76.51008299999991
 31
0.0
  0
LINE
  5
163
330
1E
100
AcDbEntity
  8
0
100
AcDbLine
 10
60.0
 20
78.51008299999991
 30
0.0
 11
63.9
 21
77.9100829999999
 31
0.0
  0
LINE
  5
164
330
1E
100
AcDbEntity
  8
0
100
AcDbLine
 10
73.59999999999999
 20
86.81008299999991
 30
0.0
 11
79.29999999999999
 21
82.51008299999991
 31
0.0
  0
LINE
  5
165
330
1E
100
AcDbEntity
  8
0
100
AcDbLine
 10
67.0
 20
89.5100829999999
 30
0.0
 11
73.59999999999999
 21
86.81008299999991
 31
0.0
  0
LINE
  5
167
330
1E
100
AcDbEntity
  8
0
100
AcDbLine
 10
79.29999999999999
 20
82.51008299999991
 30
0.0
 11
83.59999999999999
 21
76.81008299999991
 31
0.0
  0
LINE
  5
168
330
1E
100
AcDbEntity
  8
0
100
AcDbLine
 10
130.3
 20
87.2100829999999
 30
0.0
 11
130.4999999999999
 21
88.7100829999999
 31
0.0
  0
LINE
  5
169
330
1E
100
AcDbEntity
  8
0
100
AcDbLine
 10
130.3
 20
87.2100829999999
 30
0.0
 11
130.3
 21
63.2100829999999
 31
0.0
  0
LINE
  5
16A
330
1E
100
AcDbEntity
  8
0
100
AcDbLine
 10
130.0
 20
87.2100829999999
 30
0.0
 11
130.1999999999999
 21
88.7100829999999
 31
0.0
  0
LINE
  5
16B
330
1E
100
AcDbEntity
  8
0
100
AcDbLine
 10
130.0
 20
87.2100829999999
 30
0.0
 11
130.0
 21
63.2100829999999
 31
0.0
  0
LINE
  5
16C
330
1E
100
AcDbEntity
  8
0
100
AcDbLine
 10
140.6999999999999
 20
82.51008299999991
 30
0.0
 11
146.4
 21
86.81008299999991
 31
0.0
  0
LINE
  5
16D
330
1E
100
AcDbEntity
  8
0
100
AcDbLine
 10
146.4
 20
86.81008299999991
 30
0.0
 11
153.0
 21
89.5100829999999
 31
0.0
  0
LINE
  5
16F
330
1E
100
AcDbEntity
  8
0
100
AcDbLine
 10
130.4999999999999
 20
88.7100829999999
 30
0.0
 11
131.0999999999999
 21
90.01008299999991
 31
0.0
  0
LINE
  5
170
330
1E
100
AcDbEntity
  8
0
100
AcDbLine
 10
130.1999999999999
 20
88.7100829999999
 30
0.0
 11
130.8
 21
90.21008299999989
 31
0.0
  0
LINE
  5
171
330
1E
100
AcDbEntity
  8
0
100
AcDbLine
 10
89.7
 20
87.2100829999999
 30
0.0
 11
89.7
 21
63.2100829999999
 31
0.0
  0
LINE
  5
172
330
1E
100
AcDbEntity
  8
0
100
AcDbLine
 10
89.50000000000001
 20
88.7100829999999
 30
0.0
 11
89.7
 21
87.2100829999999
 31
0.0
  0
LINE
  5
173
330
1E
100
AcDbEntity
  8
0
100
AcDbLine
 10
89.8
 20
88.7100829999999
 30
0.0
 11
90.0
 21
87.2100829999999
 31
0.0
  0
LINE
  5
175
330
1E
100
AcDbEntity
  8
0
100
AcDbLine
 10
56.1
 20
77.9100829999999
 30
0.0
 11
60.0
 21
78.51008299999991
 31
0.0
  0
LINE
  5
176
330
1E
100
AcDbEntity
  8
0
100
AcDbLine
 10
46.39999999999999
 20
86.81008299999991
 30
0.0
 11
53.0
 21
89.5100829999999
 31
0.0
  0
LINE
  5
177
330
1E
100
AcDbEntity
  8
0
100
AcDbLine
 10
60.0
 20
90.5100829999999
 30
0.0
 11
67.0
 21
89.5100829999999
 31
0.0
  0
LINE
  5
178
330
1E
100
AcDbEntity
  8
0
100
AcDbLine
 10
86.79999999999999
 20
92.1100829999999
 30
0.0
 11
88.0
 21
91.2100829999999
 31
0.0
  0
LINE
  5
179
330
1E
100
AcDbEntity
  8
0
100
AcDbLine
 10
85.5
 20
92.71008299999989
 30
0.0
 11
86.79999999999999
 21
92.1100829999999
 31
0.0
  0
LINE
  5
17A
330
1E
100
AcDbEntity
  8
0
100
AcDbLine
 10
84.0
 20
92.9100829999999
 30
0.0
 11
85.5
 21
92.71008299999989
 31
0.0
  0
LINE
  5
17B
330
1E
100
AcDbEntity
  8
0
100
AcDbLine
 10
60.0
 20
92.9100829999999
 30
0.0
 11
84.0
 21
92.9100829999999
 31
0.0
  0
LINE
  5
17C
330
1E
100
AcDbEntity
  8
0
100
AcDbLine
 10
88.0
 20
91.2100829999999
 30
0.0
 11
88.9
 21
90.01008299999991
 31
0.0
  0
LINE
  5
17D
330
1E
100
AcDbEntity
  8
0
100
AcDbLine
 10
88.9
 20
90.01008299999991
 30
0.0
 11
89.50000000000001
 21
88.7100829999999
 31
0.0
  0
LINE
  5
17E
330
1E
100
AcDbEntity
  8
0
100
AcDbLine
 10
131.0999999999999
 20
90.01008299999991
 30
0.0
 11
132.0
 21
91.2100829999999
 31
0.0
  0
LINE
  5
17F
330
1E
100
AcDbEntity
  8
0
100
AcDbLine
 10
130.8
 20
90.21008299999989
 30
0.0
 11
131.8
 21
91.4100829999999
 31
0.0
  0
LINE
  5
180
330
1E
100
AcDbEntity
  8
0
100
AcDbLine
 10
132.0
 20
91.2100829999999
 30
0.0
 11
133.1999999999999
 21
92.1100829999999
 31
0.0
  0
LINE
  5
181
330
1E
100
AcDbEntity
  8
0
100
AcDbLine
 10
131.8
 20
91.4100829999999
 30
0.0
 11
133.0
 21
92.4100829999999
 31
0.0
  0
LINE
  5
182
330
1E
100
AcDbEntity
  8
0
100
AcDbLine
 10
89.19999999999999
 20
90.21008299999989
 30
0.0
 11
89.8
 21
88.7100829999999
 31
0.0
  0
LINE
  5
183
330
1E
100
AcDbEntity
  8
0
100
AcDbLine
 10
133.1999999999999
 20
92.1100829999999
 30
0.0
 11
134.4999999999999
 21
92.71008299999989
 31
0.0
  0
LINE
  5
184
330
1E
100
AcDbEntity
  8
0
100
AcDbLine
 10
134.4999999999999
 20
92.71008299999989
 30
0.0
 11
136.0
 21
92.9100829999999
 31
0.0
  0
LINE
  5
185
330
1E
100
AcDbEntity
  8
0
100
AcDbLine
 10
136.0
 20
92.9100829999999
 30
0.0
 11
160.0
 21
92.9100829999999
 31
0.0
  0
LINE
  5
186
330
1E
100
AcDbEntity
  8
0
100
AcDbLine
 10
133.0
 20
92.4100829999999
 30
0.0
 11
134.4999999999999
 21
93.0100829999999
 31
0.0
  0
LINE
  5
187
330
1E
100
AcDbEntity
  8
0
100
AcDbLine
 10
88.2
 20
91.4100829999999
 30
0.0
 11
89.19999999999999
 21
90.21008299999989
 31
0.0
  0
LINE
  5
188
330
1E
100
AcDbEntity
  8
0
100
AcDbLine
 10
87.0
 20
92.4100829999999
 30
0.0
 11
88.2
 21
91.4100829999999
 31
0.0
  0
LINE
  5
189
330
1E
100
AcDbEntity
  8
0
100
AcDbLine
 10
53.0
 20
89.5100829999999
 30
0.0
 11
60.0
 21
90.5100829999999
 31
0.0
  0
LINE
  5
18B
330
1E
100
AcDbEntity
  8
0
100
AcDbLine
 10
36.4
 20
76.81008299999991
 30
0.0
 11
40.7
 21
82.51008299999991
 31
0.0
  0
LINE
  5
18D
330
1E
100
AcDbEntity
  8
0
100
AcDbLine
 10
52.134
 20
93.2100829999999
 30
0.0
 11
52.134
 21
95.21008299999989
 31
0.0
  0
LINE
  5
18E
330
1E
100
AcDbEntity
  8
0
100
AcDbLine
 10
53.86600000000001
 20
93.2100829999999
 30
0.0
 11
53.86600000000001
 21
95.21008299999989
 31
0.0
  0
LINE
  5
18F
330
1E
100
AcDbEntity
  8
0
100
AcDbLine
 10
46.0
 20
93.2100829999999
 30
0.0
 11
46.0
 21
95.21008299999989
 31
0.0
  0
LINE
  5
190
330
1E
100
AcDbEntity
  8
0
100
AcDbLine
 10
66.134
 20
93.2100829999999
 30
0.0
 11
66.134
 21
95.21008299999989
 31
0.0
  0
LINE
  5
191
330
1E
100
AcDbEntity
  8
0
100
AcDbLine
 10
67.86599999999999
 20
93.2100829999999
 30
0.0
 11
67.86599999999999
 21
95.21008299999989
 31
0.0
  0
LINE
  5
192
330
1E
100
AcDbEntity
  8
0
100
AcDbLine
 10
74.0
 20
93.2100829999999
 30
0.0
 11
74.0
 21
95.21008299999989
 31
0.0
  0
LINE
  5
193
330
1E
100
AcDbEntity
  8
0
100
AcDbLine
 10
134.4999999999999
 20
93.0100829999999
 30
0.0
 11
136.0
 21
93.2100829999999
 31
0.0
  0
LINE
  5
194
330
1E
100
AcDbEntity
  8
0
100
AcDbLine
 10
136.0
 20
93.2100829999999
 30
0.0
 11
160.0
 21
93.2100829999999
 31
0.0
  0
LINE
  5
195
330
1E
100
AcDbEntity
  8
0
100
AcDbLine
 10
85.5
 20
93.0100829999999
 30
0.0
 11
87.0
 21
92.4100829999999
 31
0.0
  0
LINE
  5
196
330
1E
100
AcDbEntity
  8
0
100
AcDbLine
 10
84.0
 20
93.2100829999999
 30
0.0
 11
85.5
 21
93.0100829999999
 31
0.0
  0
LINE
  5
197
330
1E
100
AcDbEntity
  8
0
100
AcDbLine
 10
60.0
 20
93.2100829999999
 30
0.0
 11
84.0
 21
93.2100829999999
 31
0.0
  0
LINE
  5
198
330
1E
100
AcDbEntity
  8
0
100
AcDbLine
 10
36.0
 20
92.9100829999999
 30
0.0
 11
60.0
 21
92.9100829999999
 31
0.0
  0
LINE
  5
199
330
1E
100
AcDbEntity
  8
0
100
AcDbLine
 10
34.5
 20
93.0100829999999
 30
0.0
 11
36.0
 21
93.2100829999999
 31
0.0
  0
LINE
  5
19A
330
1E
100
AcDbEntity
  8
0
100
AcDbLine
 10
46.0
 20
95.21008299999989
 30
0.0
 11
46.0
 21
93.2100829999999
 31
0.0
  0
LINE
  5
19B
330
1E
100
AcDbEntity
  8
0
100
AcDbLine
 10
46.0
 20
95.21008299999989
 30
0.0
 11
47.0
 21
95.21008299999989
 31
0.0
  0
LINE
  5
19C
330
1E
100
AcDbEntity
  8
0
100
AcDbLine
 10
52.134
 20
95.21008299999989
 30
0.0
 11
52.134
 21
93.2100829999999
 31
0.0
  0
LINE
  5
19D
330
1E
100
AcDbEntity
  8
0
100
AcDbLine
 10
52.134
 20
95.21008299999989
 30
0.0
 11
53.86600000000001
 21
95.21008299999989
 31
0.0
  0
LINE
  5
19E
330
1E
100
AcDbEntity
  8
0
100
AcDbLine
 10
53.86600000000001
 20
95.21008299999989
 30
0.0
 11
53.86600000000001
 21
93.2100829999999
 31
0.0
  0
LINE
  5
19F
330
1E
100
AcDbEntity
  8
0
100
AcDbLine
 10
53.86600000000001
 20
95.21008299999989
 30
0.0
 11
54.86600000000001
 21
95.21008299999989
 31
0.0
  0
LINE
  5
1A0
330
1E
100
AcDbEntity
  8
0
100
AcDbLine
 10
60.0
 20
95.21008299999989
 30
0.0
 11
63.328
 21
95.21008299999989
 31
0.0
  0
LINE
  5
1A1
330
1E
100
AcDbEntity
  8
0
100
AcDbLine
 10
65.134
 20
95.21008299999989
 30
0.0
 11
66.134
 21
95.21008299999989
 31
0.0
  0
LINE
  5
1A2
330
1E
100
AcDbEntity
  8
0
100
AcDbLine
 10
66.134
 20
95.21008299999989
 30
0.0
 11
66.134
 21
93.2100829999999
 31
0.0
  0
LINE
  5
1A3
330
1E
100
AcDbEntity
  8
0
100
AcDbLine
 10
66.134
 20
95.21008299999989
 30
0.0
 11
67.86599999999999
 21
95.21008299999989
 31
0.0
  0
LINE
  5
1A4
330
1E
100
AcDbEntity
  8
0
100
AcDbLine
 10
63.328
 20
95.21008299999989
 30
0.0
 11
65.134
 21
95.21008299999989
 31
0.0
  0
LINE
  5
1A5
330
1E
100
AcDbEntity
  8
0
100
AcDbLine
 10
67.86599999999999
 20
95.21008299999989
 30
0.0
 11
69.20399999999999
 21
95.21008299999989
 31
0.0
  0
LINE
  5
1A6
330
1E
100
AcDbEntity
  8
0
100
AcDbLine
 10
67.86599999999999
 20
95.21008299999989
 30
0.0
 11
67.86599999999999
 21
93.2100829999999
 31
0.0
  0
LINE
  5
1A7
330
1E
100
AcDbEntity
  8
0
100
AcDbLine
 10
69.20399999999999
 20
95.21008299999989
 30
0.0
 11
71.28399999999999
 21
95.21008299999989
 31
0.0
  0
LINE
  5
1A8
330
1E
100
AcDbEntity
  8
0
100
AcDbLine
 10
71.28399999999999
 20
95.21008299999989
 30
0.0
 11
72.53199999999999
 21
95.21008299999989
 31
0.0
  0
LINE
  5
1A9
330
1E
100
AcDbEntity
  8
0
100
AcDbLine
 10
73.0
 20
95.21008299999989
 30
0.0
 11
74.0
 21
95.21008299999989
 31
0.0
  0
LINE
  5
1AA
330
1E
100
AcDbEntity
  8
0
100
AcDbLine
 10
74.0
 20
95.21008299999989
 30
0.0
 11
74.0
 21
93.2100829999999
 31
0.0
  0
LINE
  5
1AB
330
1E
100
AcDbEntity
  8
0
100
AcDbLine
 10
72.53199999999999
 20
95.21008299999989
 30
0.0
 11
73.0
 21
95.21008299999989
 31
0.0
  0
LINE
  5
1AC
330
1E
100
AcDbEntity
  8
0
100
AcDbLine
 10
56.672
 20
95.21008299999989
 30
0.0
 11
60.0
 21
95.21008299999989
 31
0.0
  0
LINE
  5
1AD
330
1E
100
AcDbEntity
  8
0
100
AcDbLine
 10
54.86600000000001
 20
95.21008299999989
 30
0.0
 11
56.672
 21
95.21008299999989
 31
0.0
  0
LINE
  5
1AE
330
1E
100
AcDbEntity
  8
0
100
AcDbLine
 10
50.79600000000001
 20
95.21008299999989
 30
0.0
 11
52.134
 21
95.21008299999989
 31
0.0
  0
LINE
  5
1AF
330
1E
100
AcDbEntity
  8
0
100
AcDbLine
 10
48.716
 20
95.21008299999989
 30
0.0
 11
50.79600000000001
 21
95.21008299999989
 31
0.0
  0
LINE
  5
1B0
330
1E
100
AcDbEntity
  8
0
100
AcDbLine
 10
47.468
 20
95.21008299999989
 30
0.0
 11
48.716
 21
95.21008299999989
 31
0.0
  0
LINE
  5
1B1
330
1E
100
AcDbEntity
  8
0
100
AcDbLine
 10
47.0
 20
95.21008299999989
 30
0.0
 11
47.468
 21
95.21008299999989
 31
0.0
  0
LINE
  5
1B2
330
1E
100
AcDbEntity
  8
0
100
AcDbLine
 10
36.0
 20
93.2100829999999
 30
0.0
 11
60.0
 21
93.2100829999999
 31
0.0
  0
LINE
  5
1B3
330
1E
100
AcDbEntity
  8
0
100
AcDbLine
 10
149.5
 20
63.2100829999999
 30
0.0
 11
149.9
 21
65.9100829999999
 31
0.0
  0
LINE
  5
1B4
330
1E
100
AcDbEntity
  8
0
100
AcDbLine
 10
149.5
 20
63.2100829999999
 30
0.0
 11
149.521000948502
 21
63.06832659761189
 31
0.0
  0
LINE
  5
1B5
330
1E
100
AcDbEntity
  8
0
100
AcDbLine
 10
149.5
 20
63.2100829999999
 30
0.0
 11
149.5
 21
62.9277829999999
 31
0.0
  0
LINE
  5
1B6
330
1E
100
AcDbEntity
  8
0
100
AcDbLine
 10
157.4
 20
-0.0732750000001335
 30
0.0
 11
160.0
 21
-0.210083000000134
 31
0.0
  0
LINE
  5
1B7
330
1E
100
AcDbEntity
  8
0
100
AcDbLine
 10
150.4
 20
4.09937299999987
 30
0.0
 11
151.3
 21
4.92022299999987
 31
0.0
  0
LINE
  5
1B8
330
1E
100
AcDbEntity
  8
0
100
AcDbLine
 10
150.0
 20
3.21012299999987
 30
0.0
 11
150.4
 21
2.32086299999987
 31
0.0
  0
LINE
  5
1B9
330
1E
100
AcDbEntity
  8
0
100
AcDbLine
 10
150.0
 20
3.21012299999987
 30
0.0
 11
150.4
 21
4.09937299999987
 31
0.0
  0
LINE
  5
1BA
330
1E
100
AcDbEntity
  8
0
100
AcDbLine
 10
151.3
 20
3.996762999999869
 30
0.0
 11
152.2
 21
4.74921299999987
 31
0.0
  0
LINE
  5
1BB
330
1E
100
AcDbEntity
  8
0
100
AcDbLine
 10
151.3
 20
4.92022299999987
 30
0.0
 11
152.9
 21
5.63846299999987
 31
0.0
  0
LINE
  5
1BC
330
1E
100
AcDbEntity
  8
0
100
AcDbLine
 10
150.9
 20
5.45847299999987
 30
0.0
 11
152.5999999999999
 21
6.21091299999987
 31
0.0
  0
LINE
  5
1BD
330
1E
100
AcDbEntity
  8
0
100
AcDbLine
 10
151.0
 20
3.21012299999987
 30
0.0
 11
151.3
 21
2.423472999999869
 31
0.0
  0
LINE
  5
1BE
330
1E
100
AcDbEntity
  8
0
100
AcDbLine
 10
151.0
 20
3.21012299999987
 30
0.0
 11
151.3
 21
3.996762999999869
 31
0.0
  0
LINE
  5
1BF
330
1E
100
AcDbEntity
  8
0
100
AcDbLine
 10
152.2
 20
4.74921299999987
 30
0.0
 11
153.6
 21
5.39904299999987
 31
0.0
  0
LINE
  5
1C0
330
1E
100
AcDbEntity
  8
0
100
AcDbLine
 10
152.9
 20
5.63846299999987
 30
0.0
 11
155.0
 21
6.185692999999869
 31
0.0
  0
LINE
  5
1C1
330
1E
100
AcDbEntity
  8
0
100
AcDbLine
 10
152.5999999999999
 20
6.21091299999987
 30
0.0
 11
154.8
 21
6.79234299999987
 31
0.0
  0
LINE
  5
1C2
330
1E
100
AcDbEntity
  8
0
100
AcDbLine
 10
152.1571118992009
 20
4.71335616505959
 30
0.0
 11
152.3
 21
4.37126299999987
 31
0.0
  0
LINE
  5
1C3
330
1E
100
AcDbEntity
  8
0
100
AcDbLine
 10
152.3
 20
4.37126299999987
 30
0.0
 11
153.0999999999999
 21
3.72142299999987
 31
0.0
  0
LINE
  5
1C4
330
1E
100
AcDbEntity
  8
0
100
AcDbLine
 10
151.3
 20
2.423472999999869
 30
0.0
 11
152.2
 21
1.67102299999987
 31
0.0
  0
LINE
  5
1C5
330
1E
100
AcDbEntity
  8
0
100
AcDbLine
 10
152.2
 20
1.67102299999987
 30
0.0
 11
153.6
 21
1.02119299999987
 31
0.0
  0
LINE
  5
1C6
330
1E
100
AcDbEntity
  8
0
100
AcDbLine
 10
150.4
 20
2.32086299999987
 30
0.0
 11
151.3
 21
1.500022999999869
 31
0.0
  0
LINE
  5
1C7
330
1E
100
AcDbEntity
  8
0
100
AcDbLine
 10
151.3
 20
1.500022999999869
 30
0.0
 11
152.9
 21
0.7817729999998661
 31
0.0
  0
LINE
  5
1C8
330
1E
100
AcDbEntity
  8
0
100
AcDbLine
 10
153.6
 20
5.39904299999987
 30
0.0
 11
155.4999999999999
 21
5.87787299999987
 31
0.0
  0
LINE
  5
1C9
330
1E
100
AcDbEntity
  8
0
100
AcDbLine
 10
153.0999999999999
 20
3.72142299999987
 30
0.0
 11
154.4
 21
3.17419299999987
 31
0.0
  0
LINE
  5
1CA
330
1E
100
AcDbEntity
  8
0
100
AcDbLine
 10
155.4999999999999
 20
5.87787299999987
 30
0.0
 11
157.6999999999999
 21
6.185692999999869
 31
0.0
  0
LINE
  5
1CB
330
1E
100
AcDbEntity
  8
0
100
AcDbLine
 10
155.0
 20
6.185692999999869
 30
0.0
 11
157.4
 21
6.49351299999987
 31
0.0
  0
LINE
  5
1CC
330
1E
100
AcDbEntity
  8
0
100
AcDbLine
 10
157.4
 20
6.49351299999987
 30
0.0
 11
160.0
 21
6.63032299999987
 31
0.0
  0
LINE
  5
1CD
330
1E
100
AcDbEntity
  8
0
100
AcDbLine
 10
154.8
 20
6.79234299999987
 30
0.0
 11
157.3
 21
7.134362999999869
 31
0.0
  0
LINE
  5
1CE
330
1E
100
AcDbEntity
  8
0
100
AcDbLine
 10
157.3
 20
7.134362999999869
 30
0.0
 11
160.0
 21
7.27117299999987
 31
0.0
  0
LINE
  5
1CF
330
1E
100
AcDbEntity
  8
0
100
AcDbLine
 10
154.4
 20
3.17419299999987
 30
0.0
 11
156.0
 21
2.72956299999987
 31
0.0
  0
LINE
  5
1D0
330
1E
100
AcDbEntity
  8
0
100
AcDbLine
 10
156.0
 20
2.72956299999987
 30
0.0
 11
157.9
 21
2.455952999999869
 31
0.0
  0
LINE
  5
1D1
330
1E
100
AcDbEntity
  8
0
100
AcDbLine
 10
153.6
 20
1.02119299999987
 30
0.0
 11
155.4999999999999
 21
0.5423629999998671
 31
0.0
  0
LINE
  5
1D2
330
1E
100
AcDbEntity
  8
0
100
AcDbLine
 10
155.4999999999999
 20
0.5423629999998671
 30
0.0
 11
157.6999999999999
 21
0.234542999999866
 31
0.0
  0
LINE
  5
1D3
330
1E
100
AcDbEntity
  8
0
100
AcDbLine
 10
152.9
 20
0.7817729999998661
 30
0.0
 11
155.0
 21
0.234542999999866
 31
0.0
  0
LINE
  5
1D4
330
1E
100
AcDbEntity
  8
0
100
AcDbLine
 10
155.0
 20
0.234542999999866
 30
0.0
 11
157.4
 21
-0.0732750000001335
 31
0.0
  0
LINE
  5
1D5
330
1E
100
AcDbEntity
  8
0
100
AcDbLine
 10
155.0
 20
0.234542999999866
 30
0.0
 11
157.4
 21
-0.0732750000001335
 31
0.0
  0
LINE
  5
1D6
330
1E
100
AcDbEntity
  8
0
100
AcDbLine
 10
160.0
 20
0.131936999999867
 30
0.0
 11
162.3
 21
0.234542999999866
 31
0.0
  0
LINE
  5
1D7
330
1E
100
AcDbEntity
  8
0
100
AcDbLine
 10
162.5999999999999
 20
-0.0732750000001335
 30
0.0
 11
165.0
 21
0.234542999999866
 31
0.0
  0
LINE
  5
1D8
330
1E
100
AcDbEntity
  8
0
100
AcDbLine
 10
162.3
 20
0.234542999999866
 30
0.0
 11
164.5
 21
0.5423629999998671
 31
0.0
  0
LINE
  5
1D9
330
1E
100
AcDbEntity
  8
0
100
AcDbLine
 10
165.0
 20
0.234542999999866
 30
0.0
 11
167.1
 21
0.7817729999998661
 31
0.0
  0
LINE
  5
1DA
330
1E
100
AcDbEntity
  8
0
100
AcDbLine
 10
162.5999999999999
 20
-0.0732750000001335
 30
0.0
 11
165.0
 21
0.234542999999866
 31
0.0
  0
LINE
  5
1DB
330
1E
100
AcDbEntity
  8
0
100
AcDbLine
 10
160.0
 20
-0.210083000000134
 30
0.0
 11
162.5999999999999
 21
-0.0732750000001335
 31
0.0
  0
LINE
  5
1DC
330
1E
100
AcDbEntity
  8
0
100
AcDbLine
 10
160.0
 20
-0.210083000000134
 30
0.0
 11
162.5999999999999
 21
-0.0732750000001335
 31
0.0
  0
LINE
  5
1DD
330
1E
100
AcDbEntity
  8
0
100
AcDbLine
 10
157.6999999999999
 20
6.185692999999869
 30
0.0
 11
160.0
 21
6.28830299999987
 31
0.0
  0
LINE
  5
1DE
330
1E
100
AcDbEntity
  8
0
100
AcDbLine
 10
164.5
 20
0.5423629999998671
 30
0.0
 11
166.4
 21
1.02119299999987
 31
0.0
  0
LINE
  5
1DF
330
1E
100
AcDbEntity
  8
0
100
AcDbLine
 10
160.0
 20
6.28830299999987
 30
0.0
 11
162.3
 21
6.185692999999869
 31
0.0
  0
LINE
  5
1E0
330
1E
100
AcDbEntity
  8
0
100
AcDbLine
 10
160.0
 20
6.63032299999987
 30
0.0
 11
162.5999999999999
 21
6.49351299999987
 31
0.0
  0
LINE
  5
1E1
330
1E
100
AcDbEntity
  8
0
100
AcDbLine
 10
160.0
 20
7.27117299999987
 30
0.0
 11
162.6999999999999
 21
7.134362999999869
 31
0.0
  0
LINE
  5
1E2
330
1E
100
AcDbEntity
  8
0
100
AcDbLine
 10
164.5
 20
5.87787299999987
 30
0.0
 11
166.4
 21
5.39904299999987
 31
0.0
  0
LINE
  5
1E3
330
1E
100
AcDbEntity
  8
0
100
AcDbLine
 10
162.3
 20
6.185692999999869
 30
0.0
 11
164.5
 21
5.87787299999987
 31
0.0
  0
LINE
  5
1E4
330
1E
100
AcDbEntity
  8
0
100
AcDbLine
 10
165.0
 20
6.185692999999869
 30
0.0
 11
167.1
 21
5.63846299999987
 31
0.0
  0
LINE
  5
1E5
330
1E
100
AcDbEntity
  8
0
100
AcDbLine
 10
162.5999999999999
 20
6.49351299999987
 30
0.0
 11
165.0
 21
6.185692999999869
 31
0.0
  0
LINE
  5
1E6
330
1E
100
AcDbEntity
  8
0
100
AcDbLine
 10
165.1999999999999
 20
6.79234299999987
 30
0.0
 11
167.4
 21
6.21091299999987
 31
0.0
  0
LINE
  5
1E7
330
1E
100
AcDbEntity
  8
0
100
AcDbLine
 10
162.6999999999999
 20
7.134362999999869
 30
0.0
 11
165.1999999999999
 21
6.79234299999987
 31
0.0
  0
LINE
  5
1E8
330
1E
100
AcDbEntity
  8
0
100
AcDbLine
 10
166.4
 20
5.39904299999987
 30
0.0
 11
167.8
 21
4.74921299999987
 31
0.0
  0
LINE
  5
1E9
330
1E
100
AcDbEntity
  8
0
100
AcDbLine
 10
167.1
 20
5.63846299999987
 30
0.0
 11
168.6999999999999
 21
4.92022299999987
 31
0.0
  0
LINE
  5
1EA
330
1E
100
AcDbEntity
  8
0
100
AcDbLine
 10
167.4
 20
6.21091299999987
 30
0.0
 11
169.1
 21
5.45847299999987
 31
0.0
  0
LINE
  5
1EB
330
1E
100
AcDbEntity
  8
0
100
AcDbLine
 10
167.8
 20
4.74921299999987
 30
0.0
 11
168.6999999999999
 21
3.996762999999869
 31
0.0
  0
LINE
  5
1EC
330
1E
100
AcDbEntity
  8
0
100
AcDbLine
 10
167.6999999999999
 20
4.37126299999987
 30
0.0
 11
167.842888100799
 21
4.71335616505959
 31
0.0
  0
LINE
  5
1ED
330
1E
100
AcDbEntity
  8
0
100
AcDbLine
 10
166.9
 20
3.72142299999987
 30
0.0
 11
167.6999999999999
 21
4.37126299999987
 31
0.0
  0
LINE
  5
1EE
330
1E
100
AcDbEntity
  8
0
100
AcDbLine
 10
165.5999999999999
 20
3.17419299999987
 30
0.0
 11
166.9
 21
3.72142299999987
 31
0.0
  0
LINE
  5
1EF
330
1E
100
AcDbEntity
  8
0
100
AcDbLine
 10
164.0
 20
2.72956299999987
 30
0.0
 11
165.5999999999999
 21
3.17419299999987
 31
0.0
  0
LINE
  5
1F0
330
1E
100
AcDbEntity
  8
0
100
AcDbLine
 10
162.0999999999999
 20
2.455952999999869
 30
0.0
 11
164.0
 21
2.72956299999987
 31
0.0
  0
LINE
  5
1F1
330
1E
100
AcDbEntity
  8
0
100
AcDbLine
 10
160.0
 20
2.35334299999987
 30
0.0
 11
162.0999999999999
 21
2.455952999999869
 31
0.0
  0
LINE
  5
1F2
330
1E
100
AcDbEntity
  8
0
100
AcDbLine
 10
168.6999999999999
 20
3.996762999999869
 30
0.0
 11
169.0
 21
3.21012299999987
 31
0.0
  0
LINE
  5
1F3
330
1E
100
AcDbEntity
  8
0
100
AcDbLine
 10
168.6999999999999
 20
4.92022299999987
 30
0.0
 11
169.5999999999999
 21
4.09937299999987
 31
0.0
  0
LINE
  5
1F4
330
1E
100
AcDbEntity
  8
0
100
AcDbLine
 10
168.6999999999999
 20
2.423472999999869
 30
0.0
 11
169.0
 21
3.21012299999987
 31
0.0
  0
LINE
  5
1F5
330
1E
100
AcDbEntity
  8
0
100
AcDbLine
 10
167.8
 20
1.67102299999987
 30
0.0
 11
168.6999999999999
 21
2.423472999999869
 31
0.0
  0
LINE
  5
1F6
330
1E
100
AcDbEntity
  8
0
100
AcDbLine
 10
166.4
 20
1.02119299999987
 30
0.0
 11
167.8
 21
1.67102299999987
 31
0.0
  0
LINE
  5
1F7
330
1E
100
AcDbEntity
  8
0
100
AcDbLine
 10
169.5999999999999
 20
4.09937299999987
 30
0.0
 11
170.0
 21
3.21012299999987
 31
0.0
  0
LINE
  5
1F8
330
1E
100
AcDbEntity
  8
0
100
AcDbLine
 10
170.1
 20
4.603422999999869
 30
0.0
 11
170.5
 21
3.67996299999987
 31
0.0
  0
LINE
  5
1F9
330
1E
100
AcDbEntity
  8
0
100
AcDbLine
 10
169.1
 20
5.45847299999987
 30
0.0
 11
170.1
 21
4.603422999999869
 31
0.0
  0
LINE
  5
1FA
330
1E
100
AcDbEntity
  8
0
100
AcDbLine
 10
169.5999999999999
 20
2.32086299999987
 30
0.0
 11
170.1
 21
2.756512999999869
 31
0.0
  0
LINE
  5
1FB
330
1E
100
AcDbEntity
  8
0
100
AcDbLine
 10
169.5999999999999
 20
2.32086299999987
 30
0.0
 11
170.0
 21
3.21012299999987
 31
0.0
  0
LINE
  5
1FC
330
1E
100
AcDbEntity
  8
0
100
AcDbLine
 10
168.6999999999999
 20
1.500022999999869
 30
0.0
 11
169.5999999999999
 21
2.32086299999987
 31
0.0
  0
LINE
  5
1FD
330
1E
100
AcDbEntity
  8
0
100
AcDbLine
 10
167.1
 20
0.7817729999998661
 30
0.0
 11
168.6999999999999
 21
1.500022999999869
 31
0.0
  0
LINE
  5
1FE
330
1E
100
AcDbEntity
  8
0
100
AcDbLine
 10
170.5
 20
33.5100829999999
 30
0.0
 11
184.0
 21
33.5100829999999
 31
0.0
  0
LINE
  5
1FF
330
1E
100
AcDbEntity
  8
0
100
AcDbLine
 10
170.5
 20
38.3419011818181
 30
0.0
 11
173.5999999999999
 21
39.61008299999989
 31
0.0
  0
LINE
  5
200
330
1E
100
AcDbEntity
  8
0
100
AcDbLine
 10
170.5
 20
38.34190118181799
 30
0.0
 11
173.5999999999999
 21
39.61008299999989
 31
0.0
  0
LINE
  5
201
330
1E
100
AcDbEntity
  8
0
100
AcDbLine
 10
170.5
 20
33.2100829999999
 30
0.0
 11
184.0
 21
33.2100829999999
 31
0.0
  0
LINE
  5
202
330
1E
100
AcDbEntity
  8
0
100
AcDbLine
 10
186.8
 20
34.3100829999999
 30
0.0
 11
188.0
 21
35.21008299999989
 31
0.0
  0
LINE
  5
203
330
1E
100
AcDbEntity
  8
0
100
AcDbLine
 10
185.5
 20
33.71008299999989
 30
0.0
 11
186.8
 21
34.3100829999999
 31
0.0
  0
LINE
  5
204
330
1E
100
AcDbEntity
  8
0
100
AcDbLine
 10
184.0
 20
33.5100829999999
 30
0.0
 11
185.5
 21
33.71008299999989
 31
0.0
  0
LINE
  5
205
330
1E
100
AcDbEntity
  8
0
100
AcDbLine
 10
184.0
 20
33.2100829999999
 30
0.0
 11
185.5
 21
33.4100829999999
 31
0.0
  0
LINE
  5
206
330
1E
100
AcDbEntity
  8
0
100
AcDbLine
 10
188.0
 20
35.21008299999989
 30
0.0
 11
188.9
 21
36.4100829999999
 31
0.0
  0
LINE
  5
207
330
1E
100
AcDbEntity
  8
0
100
AcDbLine
 10
188.9
 20
36.4100829999999
 30
0.0
 11
189.4999999999999
 21
37.71008299999989
 31
0.0
  0
LINE
  5
26B
330
1E
100
AcDbEntity
  8
0
100
AcDbLine
 10
189.4999999999999
 20
37.71008299999989
 30
0.0
 11
189.7
 21
39.21008299999989
 31
0.0
  0
LINE
  5
26C
330
1E
100
AcDbEntity
  8
0
100
AcDbLine
 10
173.5999999999999
 20
39.61008299999989
 30
0.0
 11
179.3
 21
43.91008299999989
 31
0.0
  0
LINE
  5
26E
330
1E
100
AcDbEntity
  8
0
100
AcDbLine
 10
189.7
 20
39.21008299999989
 30
0.0
 11
189.7
 21
63.2100829999999
 31
0.0
  0
LINE
  5
278
330
1E
100
AcDbEntity
  8
0
100
AcDbLine
 10
190.0
 20
39.21008299999989
 30
0.0
 11
190.0
 21
63.2100829999999
 31
0.0
  0
LINE
  5
279
330
1E
100
AcDbEntity
  8
0
100
AcDbLine
 10
189.8
 20
37.71008299999989
 30
0.0
 11
190.0
 21
39.21008299999989
 31
0.0
  0
LINE
  5
27A
330
1E
100
AcDbEntity
  8
0
100
AcDbLine
 10
170.5
 20
3.67996299999987
 30
0.0
 11
170.5
 21
42.8386829999999
 31
0.0
  0
LINE
  5
27C
330
1E
100
AcDbEntity
  8
0
100
AcDbLine
 10
170.5
 20
52.1757079999999
 30
0.0
 11
170.8
 21
52.4100829999999
 31
0.0
  0
LINE
  5
27E
330
1E
100
AcDbEntity
  8
0
100
AcDbLine
 10
170.5
 20
50.29918299999989
 30
0.0
 11
170.5
 21
46.71008299999989
 31
0.0
  0
LINE
  5
27F
330
1E
100
AcDbEntity
  8
0
100
AcDbLine
 10
170.5
 20
50.29918299999989
 30
0.0
 11
170.5
 21
53.5445829999999
 31
0.0
  0
LINE
  5
280
330
1E
100
AcDbEntity
  8
0
100
AcDbLine
 10
170.5
 20
46.71008299999989
 30
0.0
 11
170.5
 21
42.8386829999999
 31
0.0
  0
LINE
  5
281
330
1E
100
AcDbEntity
  8
0
100
AcDbLine
 10
170.5
 20
46.71008299999989
 30
0.0
 11
170.5
 21
50.29918299999989
 31
0.0
  0
LINE
  5
282
330
1E
100
AcDbEntity
  8
0
100
AcDbLine
 10
170.5
 20
62.9277829999999
 30
0.0
 11
170.5
 21
62.08568299999989
 31
0.0
  0
LINE
  5
283
330
1E
100
AcDbEntity
  8
0
100
AcDbLine
 10
170.5
 20
62.9277829999999
 30
0.0
 11
170.5
 21
63.2100829999999
 31
0.0
  0
LINE
  5
284
330
1E
100
AcDbEntity
  8
0
100
AcDbLine
 10
170.5
 20
62.08568299999989
 30
0.0
 11
170.5
 21
60.6980829999999
 31
0.0
  0
LINE
  5
285
330
1E
100
AcDbEntity
  8
0
100
AcDbLine
 10
170.5
 20
62.08568299999989
 30
0.0
 11
170.5
 21
62.9277829999999
 31
0.0
  0
LINE
  5
286
330
1E
100
AcDbEntity
  8
0
100
AcDbLine
 10
170.5
 20
60.6980829999999
 30
0.0
 11
170.5
 21
58.78888299999989
 31
0.0
  0
LINE
  5
287
330
1E
100
AcDbEntity
  8
0
100
AcDbLine
 10
170.5
 20
60.6980829999999
 30
0.0
 11
170.5
 21
62.08568299999989
 31
0.0
  0
LINE
  5
288
330
1E
100
AcDbEntity
  8
0
100
AcDbLine
 10
170.5
 20
58.78888299999989
 30
0.0
 11
170.5
 21
60.6980829999999
 31
0.0
  0
LINE
  5
289
330
1E
100
AcDbEntity
  8
0
100
AcDbLine
 10
170.5
 20
58.78888299999989
 30
0.0
 11
170.5
 21
56.39078299999989
 31
0.0
  0
LINE
  5
28A
330
1E
100
AcDbEntity
  8
0
100
AcDbLine
 10
170.5
 20
56.39078299999989
 30
0.0
 11
170.5
 21
58.78888299999989
 31
0.0
  0
LINE
  5
28B
330
1E
100
AcDbEntity
  8
0
100
AcDbLine
 10
170.5
 20
56.39078299999989
 30
0.0
 11
170.5
 21
53.5445829999999
 31
0.0
  0
LINE
  5
28E
330
1E
100
AcDbEntity
  8
0
100
AcDbLine
 10
179.3
 20
43.91008299999989
 30
0.0
 11
183.6
 21
49.61008299999989
 31
0.0
  0
LINE
  5
290
330
1E
100
AcDbEntity
  8
0
100
AcDbLine
 10
170.8
 20
52.4100829999999
 30
0.0
 11
173.3
 21
55.6100829999999
 31
0.0
  0
LINE
  5
292
330
1E
100
AcDbEntity
  8
0
100
AcDbLine
 10
173.3
 20
55.6100829999999
 30
0.0
 11
174.6999999999999
 21
59.31008299999989
 31
0.0
  0
LINE
  5
293
330
1E
100
AcDbEntity
  8
0
100
AcDbLine
 10
174.6999999999999
 20
59.31008299999989
 30
0.0
 11
175.3
 21
63.2100829999999
 31
0.0
  0
LINE
  5
295
330
1E
100
AcDbEntity
  8
0
100
AcDbLine
 10
183.6
 20
49.61008299999989
 30
0.0
 11
186.3
 21
56.21008299999989
 31
0.0
  0
LINE
  5
2DE
330
1E
100
AcDbEntity
  8
0
100
AcDbLine
 10
186.3
 20
56.21008299999989
 30
0.0
 11
187.3
 21
63.2100829999999
 31
0.0
  0
LINE
  5
2E0
330
1E
100
AcDbEntity
  8
0
100
AcDbLine
 10
170.5
 20
53.5445829999999
 30
0.0
 11
170.5
 21
56.39078299999989
 31
0.0
  0
LINE
  5
2E1
330
1E
100
AcDbEntity
  8
0
100
AcDbLine
 10
170.5
 20
53.5445829999999
 30
0.0
 11
170.5
 21
50.29918299999989
 31
0.0
  0
LINE
  5
2E2
330
1E
100
AcDbEntity
  8
0
100
AcDbLine
 10
170.5
 20
42.8386829999999
 30
0.0
 11
170.5
 21
3.67996299999987
 31
0.0
  0
LINE
  5
2E3
330
1E
100
AcDbEntity
  8
0
100
AcDbLine
 10
170.5
 20
42.8386829999999
 30
0.0
 11
170.5
 21
46.71008299999989
 31
0.0
  0
LINE
  5
2E4
330
1E
100
AcDbEntity
  8
0
100
AcDbLine
 10
170.1
 20
2.756512999999869
 30
0.0
 11
170.5
 21
3.67996299999987
 31
0.0
  0
LINE
  5
2E5
330
1E
100
AcDbEntity
  8
0
100
AcDbLine
 10
169.1
 20
68.4100829999999
 30
0.0
 11
170.1
 21
65.9100829999999
 31
0.0
  0
LINE
  5
2E6
330
1E
100
AcDbEntity
  8
0
100
AcDbLine
 10
169.1
 20
68.4100829999999
 30
0.0
 11
170.1
 21
65.9100829999999
 31
0.0
  0
LINE
  5
2E7
330
1E
100
AcDbEntity
  8
0
100
AcDbLine
 10
189.7
 20
63.2100829999999
 30
0.0
 11
189.7
 21
87.2100829999999
 31
0.0
  0
LINE
  5
2E8
330
1E
100
AcDbEntity
  8
0
100
AcDbLine
 10
189.7
 20
63.2100829999999
 30
0.0
 11
189.7
 21
39.21008299999989
 31
0.0
  0
LINE
  5
2F6
330
1E
100
AcDbEntity
  8
0
100
AcDbLine
 10
190.0
 20
63.2100829999999
 30
0.0
 11
190.0
 21
87.2100829999999
 31
0.0
  0
LINE
  5
2F7
330
1E
100
AcDbEntity
  8
0
100
AcDbLine
 10
190.0
 20
63.2100829999999
 30
0.0
 11
190.0
 21
39.21008299999989
 31
0.0
  0
LINE
  5
301
330
1E
100
AcDbEntity
  8
0
100
AcDbLine
 10
174.6999999999999
 20
67.11008299999988
 30
0.0
 11
175.3
 21
63.2100829999999
 31
0.0
  0
LINE
  5
302
330
1E
100
AcDbEntity
  8
0
100
AcDbLine
 10
170.5
 20
63.2100829999999
 30
0.0
 11
170.5
 21
62.9277829999999
 31
0.0
  0
LINE
  5
303
330
1E
100
AcDbEntity
  8
0
100
AcDbLine
 10
170.1
 20
65.9100829999999
 30
0.0
 11
170.5
 21
63.2100829999999
 31
0.0
  0
LINE
  5
304
330
1E
100
AcDbEntity
  8
0
100
AcDbLine
 10
170.4789990514979
 20
63.06832659761189
 30
0.0
 11
170.5
 21
63.2100829999999
 31
0.0
  0
LINE
  5
305
330
1E
100
AcDbEntity
  8
0
100
AcDbLine
 10
157.9
 20
2.455952999999869
 30
0.0
 11
160.0
 21
2.35334299999987
 31
0.0
  0
LINE
  5
306
330
1E
100
AcDbEntity
  8
0
100
AcDbLine
 10
157.6999999999999
 20
0.234542999999866
 30
0.0
 11
160.0
 21
0.131936999999867
 31
0.0
  0
LINE
  5
307
330
1E
100
AcDbEntity
  8
0
100
AcDbLine
 10
157.4
 20
-0.0732750000001335
 30
0.0
 11
160.0
 21
-0.210083000000134
 31
0.0
  0
LINE
  5
309
330
1E
100
AcDbEntity
  8
0
100
AcDbLine
 10
152.4
 20
76.51008299999991
 30
0.0
 11
156.0999999999999
 21
77.9100829999999
 31
0.0
  0
LINE
  5
30A
330
1E
100
AcDbEntity
  8
0
100
AcDbLine
 10
165.1999999999999
 20
72.31008299999991
 30
0.0
 11
167.4
 21
70.6100829999999
 31
0.0
  0
LINE
  5
31B
330
1E
100
AcDbEntity
  8
0
100
AcDbLine
 10
173.3
 20
70.8100829999999
 30
0.0
 11
174.6999999999999
 21
67.11008299999988
 31
0.0
  0
LINE
  5
31C
330
1E
100
AcDbEntity
  8
0
100
AcDbLine
 10
186.3
 20
70.2100829999999
 30
0.0
 11
187.3
 21
63.2100829999999
 31
0.0
  0
LINE
  5
31D
330
1E
100
AcDbEntity
  8
0
100
AcDbLine
 10
167.4
 20
70.6100829999999
 30
0.0
 11
169.1
 21
68.4100829999999
 31
0.0
  0
LINE
  5
31E
330
1E
100
AcDbEntity
  8
0
100
AcDbLine
 10
156.0999999999999
 20
77.9100829999999
 30
0.0
 11
160.0
 21
78.51008299999991
 31
0.0
  0
LINE
  5
31F
330
1E
100
AcDbEntity
  8
0
100
AcDbLine
 10
153.0
 20
89.5100829999999
 30
0.0
 11
160.0
 21
90.5100829999999
 31
0.0
  0
LINE
  5
323
330
1E
100
AcDbEntity
  8
0
100
AcDbLine
 10
160.0
 20
78.51008299999991
 30
0.0
 11
163.9
 21
77.9100829999999
 31
0.0
  0
LINE
  5
324
330
1E
100
AcDbEntity
  8
0
100
AcDbLine
 10
160.0
 20
90.5100829999999
 30
0.0
 11
167.0
 21
89.5100829999999
 31
0.0
  0
LINE
  5
325
330
1E
100
AcDbEntity
  8
0
100
AcDbLine
 10
160.0
 20
92.9100829999999
 30
0.0
 11
184.0
 21
92.9100829999999
 31
0.0
  0
LINE
  5
326
330
1E
100
AcDbEntity
  8
0
100
AcDbLine
 10
160.0
 20
93.2100829999999
 30
0.0
 11
184.0
 21
93.2100829999999
 31
0.0
  0
LINE
  5
32A
330
1E
100
AcDbEntity
  8
0
100
AcDbLine
 10
167.5999999999999
 20
76.51008299999991
 30
0.0
 11
170.8
 21
74.01008299999991
 31
0.0
  0
LINE
  5
32B
330
1E
100
AcDbEntity
  8
0
100
AcDbLine
 10
163.9
 20
77.9100829999999
 30
0.0
 11
167.5999999999999
 21
76.51008299999991
 31
0.0
  0
LINE
  5
32D
330
1E
100
AcDbEntity
  8
0
100
AcDbLine
 10
170.8
 20
74.01008299999991
 30
0.0
 11
173.3
 21
70.8100829999999
 31
0.0
  0
LINE
  5
32F
330
1E
100
AcDbEntity
  8
0
100
AcDbLine
 10
179.3
 20
82.51008299999991
 30
0.0
 11
183.6
 21
76.81008299999991
 31
0.0
  0
LINE
  5
356
330
1E
100
AcDbEntity
  8
0
100
AcDbLine
 10
183.6
 20
76.81008299999991
 30
0.0
 11
186.3
 21
70.2100829999999
 31
0.0
  0
LINE
  5
357
330
1E
100
AcDbEntity
  8
0
100
AcDbLine
 10
173.5999999999999
 20
86.81008299999991
 30
0.0
 11
179.3
 21
82.51008299999991
 31
0.0
  0
LINE
  5
358
330
1E
100
AcDbEntity
  8
0
100
AcDbLine
 10
167.0
 20
89.5100829999999
 30
0.0
 11
173.5999999999999
 21
86.81008299999991
 31
0.0
  0
LINE
  5
35A
330
1E
100
AcDbEntity
  8
0
100
AcDbLine
 10
184.0
 20
92.9100829999999
 30
0.0
 11
185.5
 21
92.71008299999989
 31
0.0
  0
LINE
  5
35B
330
1E
100
AcDbEntity
  8
0
100
AcDbLine
 10
186.8
 20
92.1100829999999
 30
0.0
 11
188.0
 21
91.2100829999999
 31
0.0
  0
LINE
  5
35C
330
1E
100
AcDbEntity
  8
0
100
AcDbLine
 10
185.5
 20
92.71008299999989
 30
0.0
 11
186.8
 21
92.1100829999999
 31
0.0
  0
LINE
  5
35D
330
1E
100
AcDbEntity
  8
0
100
AcDbLine
 10
189.4999999999999
 20
88.7100829999999
 30
0.0
 11
189.7
 21
87.2100829999999
 31
0.0
  0
LINE
  5
35E
330
1E
100
AcDbEntity
  8
0
100
AcDbLine
 10
189.7
 20
87.2100829999999
 30
0.0
 11
189.7
 21
63.2100829999999
 31
0.0
  0
LINE
  5
36C
330
1E
100
AcDbEntity
  8
0
100
AcDbLine
 10
190.0
 20
87.2100829999999
 30
0.0
 11
190.0
 21
63.2100829999999
 31
0.0
  0
LINE
  5
36D
330
1E
100
AcDbEntity
  8
0
100
AcDbLine
 10
188.0
 20
91.2100829999999
 30
0.0
 11
188.9
 21
90.01008299999991
 31
0.0
  0
LINE
  5
36E
330
1E
100
AcDbEntity
  8
0
100
AcDbLine
 10
188.9
 20
90.01008299999991
 30
0.0
 11
189.4999999999999
 21
88.7100829999999
 31
0.0
  0
LINE
  5
36F
330
1E
100
AcDbEntity
  8
0
100
AcDbLine
 10
188.1999999999999
 20
91.4100829999999
 30
0.0
 11
189.1999999999999
 21
90.21008299999989
 31
0.0
  0
LINE
  5
386
330
1E
100
AcDbEntity
  8
0
100
AcDbLine
 10
189.1999999999999
 20
90.21008299999989
 30
0.0
 11
189.8
 21
88.7100829999999
 31
0.0
  0
LINE
  5
387
330
1E
100
AcDbEntity
  8
0
100
AcDbLine
 10
189.8
 20
88.7100829999999
 30
0.0
 11
190.0
 21
87.2100829999999
 31
0.0
  0
LINE
  5
388
330
1E
100
AcDbEntity
  8
0
100
AcDbLine
 10
187.0
 20
92.4100829999999
 30
0.0
 11
188.1999999999999
 21
91.4100829999999
 31
0.0
  0
LINE
  5
3AA
330
1E
100
AcDbEntity
  8
0
100
AcDbLine
 10
185.5
 20
93.0100829999999
 30
0.0
 11
187.0
 21
92.4100829999999
 31
0.0
  0
LINE
  5
3AB
330
1E
100
AcDbEntity
  8
0
100
AcDbLine
 10
184.0
 20
93.2100829999999
 30
0.0
 11
185.5
 21
93.0100829999999
 31
0.0
  0
LINE
  5
3AD
330
1E
100
AcDbEntity
  8
0
100
AcDbLine
 10
160.0
 20
73.71008299999989
 30
0.0
 11
162.6999999999999
 21
73.3100829999999
 31
0.0
  0
LINE
  5
3AE
330
1E
100
AcDbEntity
  8
0
100
AcDbLine
 10
162.6999999999999
 20
73.3100829999999
 30
0.0
 11
165.1999999999999
 21
72.31008299999991
 31
0.0
  0
LINE
  5
3AF
330
1E
100
AcDbEntity
  8
0
100
AcDbLine
 10
157.3
 20
73.3100829999999
 30
0.0
 11
160.0
 21
73.71008299999989
 31
0.0
  0
LINE
  5
3B0
330
1E
100
AcDbEntity
  8
0
100
AcDbLine
 10
154.8
 20
72.31008299999991
 30
0.0
 11
157.3
 21
73.3100829999999
 31
0.0
  0
LINE
  5
3B1
330
1E
100
AcDbEntity
  8
0
100
AcDbLine
 10
152.5999999999999
 20
70.6100829999999
 30
0.0
 11
154.8
 21
72.31008299999991
 31
0.0
  0
LINE
  5
3B2
330
1E
100
AcDbEntity
  8
0
100
AcDbLine
 10
150.9
 20
68.4100829999999
 30
0.0
 11
152.5999999999999
 21
70.6100829999999
 31
0.0
  0
LINE
  5
3B3
330
1E
100
AcDbEntity
  8
0
100
AcDbLine
 10
149.9
 20
65.9100829999999
 30
0.0
 11
150.9
 21
68.4100829999999
 31
0.0
  0
LINE
  5
3B4
330
1E
100
AcDbEntity
  8
0
100
AcDbLine
 10
149.9
 20
65.9100829999999
 30
0.0
 11
150.9
 21
68.4100829999999
 31
0.0
  0
LINE
  5
3B9
330
1E
100
AcDbEntity
  8
0
100
AcDbLine
 10
130.1999999999999
 20
37.71008299999989
 30
0.0
 11
130.9635359530941
 21
36.14232495492291
 31
0.0
  0
LINE
  5
3BA
330
1E
100
AcDbEntity
  8
0
100
AcDbLine
 10
130.9635359530941
 20
36.14232495492291
 30
0.0
 11
131.798671913208
 21
35.198874840987
 31
0.0
  0
LINE
  5
3BB
330
1E
100
AcDbEntity
  8
0
100
AcDbLine
 10
131.798671913208
 20
35.198874840987
 30
0.0
 11
132.9242898488584
 21
34.21913842349067
 31
0.0
  0
LINE
  5
3BC
330
1E
100
AcDbEntity
  8
0
100
AcDbLine
 10
132.9242898488584
 20
34.21913842349067
 30
0.0
 11
133.7957357754677
 21
33.74741318354137
 31
0.0
  0
LINE
  5
3BD
330
1E
100
AcDbEntity
  8
0
100
AcDbLine
 10
133.7957357754677
 20
33.74741318354137
 30
0.0
 11
134.4999999999999
 21
33.4100829999999
 31
0.0
  0
LINE
  5
3BE
330
1E
100
AcDbEntity
  8
0
100
AcDbLine
 10
185.5
 20
33.4100829999999
 30
0.0
 11
186.9305824637507
 21
34.06539784237463
 31
0.0
  0
LINE
  5
3BF
330
1E
100
AcDbEntity
  8
0
100
AcDbLine
 10
186.9305824637507
 20
34.06539784237463
 30
0.0
 11
188.1322500058629
 21
34.98371985669314
 31
0.0
  0
LINE
  5
3C0
330
1E
100
AcDbEntity
  8
0
100
AcDbLine
 10
188.1322500058629
 20
34.98371985669314
 30
0.0
 11
189.1454208692545
 21
36.25524275835346
 31
0.0
  0
LINE
  5
3C1
330
1E
100
AcDbEntity
  8
0
100
AcDbLine
 10
189.1454208692545
 20
36.25524275835346
 30
0.0
 11
189.8
 21
37.71008299999989
 31
0.0
  0
LINE
  5
3C2
330
1E
100
AcDbEntity
  8
0
100
AcDbLine
 10
89.19999999999999
 20
36.21008299999989
 30
0.0
 11
89.72087187651926
 21
37.62811721104629
 31
0.0
  0
LINE
  5
3C3
330
1E
100
AcDbEntity
  8
0
100
AcDbLine
 10
89.72087187651926
 20
37.62811721104629
 30
0.0
 11
89.89337562737887
 21
39.19462218351645
 31
0.0
  0
LINE
  5
3C4
330
1E
100
AcDbEntity
  8
0
100
AcDbLine
 10
89.89337562737887
 20
39.19462218351645
 30
0.0
 11
90.0
 21
87.2100829999999
 31
0.0
  0
LINE
  5
3C5
330
1E
100
AcDbEntity
  8
0
100
AcDbLine
 10
62.7
 20
73.4100829999999
 30
0.0
 11
65.2
 21
72.31008299999991
 31
0.0
  0
LINE
  5
3C6
330
1E
100
AcDbEntity
  8
0
100
AcDbLine
 10
33.0
 20
34.0100829999999
 30
0.0
 11
34.5
 21
33.4100829999999
 31
0.0
  0
LINE
  5
3C7
330
1E
100
AcDbEntity
  8
0
100
AcDbLine
 10
0.299999999999991
 20
65.9100829999999
 30
0.0
 11
-0.0000000000000089
 21
63.2100829999999
 31
0.0
  0
LINE
  5
3C8
330
1E
100
AcDbEntity
  8
0
100
AcDbLine
 10
230.1066243726211
 20
39.19462218351645
 30
0.0
 11
230.0
 21
87.2100829999999
 31
0.0
  0
LINE
  5
3C9
330
1E
100
AcDbEntity
  8
0
100
AcDbLine
 10
230.3
 20
63.2100829999999
 30
0.0
 11
230.3
 21
39.21008299999989
 31
0.0
  0
LINE
  5
3CA
330
1E
100
AcDbEntity
  8
0
100
AcDbLine
 10
290.0
 20
52.7100829999999
 30
0.0
 11
290.0
 21
39.21008299999989
 31
0.0
  0
LINE
  5
3CB
330
1E
100
AcDbEntity
  8
0
100
AcDbLine
 10
289.6999999999999
 20
52.7100829999999
 30
0.0
 11
289.6999999999999
 21
39.21008299999989
 31
0.0
  0
LINE
  5
3CC
330
1E
100
AcDbEntity
  8
0
100
AcDbLine
 10
240.7
 20
43.91008299999989
 30
0.0
 11
236.4
 21
49.61008299999989
 31
0.0
  0
LINE
  5
3CD
330
1E
100
AcDbEntity
  8
0
100
AcDbLine
 10
283.6
 20
49.61008299999989
 30
0.0
 11
279.3
 21
43.91008299999989
 31
0.0
  0
LINE
  5
3CE
330
1E
100
AcDbEntity
  8
0
100
AcDbLine
 10
230.3
 20
39.21008299999989
 30
0.0
 11
230.3
 21
63.2100829999999
 31
0.0
  0
LINE
  5
3CF
330
1E
100
AcDbEntity
  8
0
100
AcDbLine
 10
290.0
 20
39.21008299999989
 30
0.0
 11
290.0
 21
52.7100829999999
 31
0.0
  0
LINE
  5
3D0
330
1E
100
AcDbEntity
  8
0
100
AcDbLine
 10
289.6999999999999
 20
39.21008299999989
 30
0.0
 11
289.6999999999999
 21
52.7100829999999
 31
0.0
  0
LINE
  5
3D1
330
1E
100
AcDbEntity
  8
0
100
AcDbLine
 10
260.0
 20
35.9100829999999
 30
0.0
 11
253.0
 21
36.9100829999999
 31
0.0
  0
LINE
  5
3D2
330
1E
100
AcDbEntity
  8
0
100
AcDbLine
 10
260.0
 20
33.2100829999999
 30
0.0
 11
236.0
 21
33.2100829999999
 31
0.0
  0
LINE
  5
3D3
330
1E
100
AcDbEntity
  8
0
100
AcDbLine
 10
260.0
 20
33.5100829999999
 30
0.0
 11
236.0
 21
33.5100829999999
 31
0.0
  0
LINE
  5
3D4
330
1E
100
AcDbEntity
  8
0
100
AcDbLine
 10
260.0
 20
31.2100829999999
 30
0.0
 11
257.1474
 21
31.2100829999999
 31
0.0
  0
LINE
  5
3D5
330
1E
100
AcDbEntity
  8
0
100
AcDbLine
 10
260.0
 20
31.2100829999999
 30
0.0
 11
256.672
 21
31.2100829999999
 31
0.0
  0
LINE
  5
3D6
330
1E
100
AcDbEntity
  8
0
100
AcDbLine
 10
260.0
 20
31.2100829999999
 30
0.0
 11
257.1474
 21
31.2100829999999
 31
0.0
  0
LINE
  5
3D7
330
1E
100
AcDbEntity
  8
0
100
AcDbLine
 10
260.0
 20
31.2100829999999
 30
0.0
 11
256.672
 21
31.2100829999999
 31
0.0
  0
LINE
  5
3D8
330
1E
100
AcDbEntity
  8
0
100
AcDbLine
 10
266.134
 20
33.2100829999999
 30
0.0
 11
266.134
 21
31.2100829999999
 31
0.0
  0
LINE
  5
3D9
330
1E
100
AcDbEntity
  8
0
100
AcDbLine
 10
266.134
 20
31.2100829999999
 30
0.0
 11
266.134
 21
33.2100829999999
 31
0.0
  0
LINE
  5
3DA
330
1E
100
AcDbEntity
  8
0
100
AcDbLine
 10
267.8659999999999
 20
33.2100829999999
 30
0.0
 11
267.8659999999999
 21
31.2100829999999
 31
0.0
  0
LINE
  5
3DB
330
1E
100
AcDbEntity
  8
0
100
AcDbLine
 10
274.0
 20
33.2100829999999
 30
0.0
 11
274.0
 21
31.2100829999999
 31
0.0
  0
LINE
  5
3DC
330
1E
100
AcDbEntity
  8
0
100
AcDbLine
 10
267.8659999999999
 20
31.2100829999999
 30
0.0
 11
267.8659999999999
 21
33.2100829999999
 31
0.0
  0
LINE
  5
3DD
330
1E
100
AcDbEntity
  8
0
100
AcDbLine
 10
274.0
 20
31.2100829999999
 30
0.0
 11
274.0
 21
33.2100829999999
 31
0.0
  0
LINE
  5
3DE
330
1E
100
AcDbEntity
  8
0
100
AcDbLine
 10
272.5319999999999
 20
31.2100829999999
 30
0.0
 11
271.2839999999999
 21
31.2100829999999
 31
0.0
  0
LINE
  5
3DF
330
1E
100
AcDbEntity
  8
0
100
AcDbLine
 10
272.5319999999999
 20
31.2100829999999
 30
0.0
 11
271.2839999999999
 21
31.2100829999999
 31
0.0
  0
LINE
  5
3E0
330
1E
100
AcDbEntity
  8
0
100
AcDbLine
 10
274.0
 20
31.2100829999999
 30
0.0
 11
272.0
 21
31.2100829999999
 31
0.0
  0
LINE
  5
3E1
330
1E
100
AcDbEntity
  8
0
100
AcDbLine
 10
273.0
 20
31.2100829999999
 30
0.0
 11
272.5319999999999
 21
31.2100829999999
 31
0.0
  0
LINE
  5
3E2
330
1E
100
AcDbEntity
  8
0
100
AcDbLine
 10
273.0
 20
31.2100829999999
 30
0.0
 11
272.5319999999999
 21
31.2100829999999
 31
0.0
  0
LINE
  5
3E3
330
1E
100
AcDbEntity
  8
0
100
AcDbLine
 10
266.4479999999999
 20
31.2100829999999
 30
0.0
 11
263.3279999999999
 21
31.2100829999999
 31
0.0
  0
LINE
  5
3E4
330
1E
100
AcDbEntity
  8
0
100
AcDbLine
 10
266.4479999999999
 20
31.2100829999999
 30
0.0
 11
263.3279999999999
 21
31.2100829999999
 31
0.0
  0
LINE
  5
3E5
330
1E
100
AcDbEntity
  8
0
100
AcDbLine
 10
266.866
 20
31.2100829999999
 30
0.0
 11
265.134
 21
31.2100829999999
 31
0.0
  0
LINE
  5
3E6
330
1E
100
AcDbEntity
  8
0
100
AcDbLine
 10
266.866
 20
31.2100829999999
 30
0.0
 11
265.134
 21
31.2100829999999
 31
0.0
  0
LINE
  5
3E7
330
1E
100
AcDbEntity
  8
0
100
AcDbLine
 10
267.8890999999999
 20
31.2100829999999
 30
0.0
 11
265.5269
 21
31.2100829999999
 31
0.0
  0
LINE
  5
3E8
330
1E
100
AcDbEntity
  8
0
100
AcDbLine
 10
267.8890999999999
 20
31.2100829999999
 30
0.0
 11
265.5269
 21
31.2100829999999
 31
0.0
  0
LINE
  5
3E9
330
1E
100
AcDbEntity
  8
0
100
AcDbLine
 10
267.8659999999999
 20
31.2100829999999
 30
0.0
 11
266.134
 21
31.2100829999999
 31
0.0
  0
LINE
  5
3EA
330
1E
100
AcDbEntity
  8
0
100
AcDbLine
 10
267.8659999999999
 20
31.2100829999999
 30
0.0
 11
266.134
 21
31.2100829999999
 31
0.0
  0
LINE
  5
3EB
330
1E
100
AcDbEntity
  8
0
100
AcDbLine
 10
271.2839999999999
 20
31.2100829999999
 30
0.0
 11
269.2039999999999
 21
31.2100829999999
 31
0.0
  0
LINE
  5
3EC
330
1E
100
AcDbEntity
  8
0
100
AcDbLine
 10
269.672
 20
31.2100829999999
 30
0.0
 11
267.8890999999999
 21
31.2100829999999
 31
0.0
  0
LINE
  5
3ED
330
1E
100
AcDbEntity
  8
0
100
AcDbLine
 10
269.672
 20
31.2100829999999
 30
0.0
 11
267.8890999999999
 21
31.2100829999999
 31
0.0
  0
LINE
  5
3EE
330
1E
100
AcDbEntity
  8
0
100
AcDbLine
 10
271.2839999999999
 20
31.2100829999999
 30
0.0
 11
269.2039999999999
 21
31.2100829999999
 31
0.0
  0
LINE
  5
3EF
330
1E
100
AcDbEntity
  8
0
100
AcDbLine
 10
271.1428999999999
 20
31.2100829999999
 30
0.0
 11
270.7416999999999
 21
31.2100829999999
 31
0.0
  0
LINE
  5
3F0
330
1E
100
AcDbEntity
  8
0
100
AcDbLine
 10
270.7416999999999
 20
31.2100829999999
 30
0.0
 11
269.672
 21
31.2100829999999
 31
0.0
  0
LINE
  5
3F1
330
1E
100
AcDbEntity
  8
0
100
AcDbLine
 10
270.7416999999999
 20
31.2100829999999
 30
0.0
 11
269.672
 21
31.2100829999999
 31
0.0
  0
LINE
  5
3F2
330
1E
100
AcDbEntity
  8
0
100
AcDbLine
 10
269.2039999999999
 20
31.2100829999999
 30
0.0
 11
266.4479999999999
 21
31.2100829999999
 31
0.0
  0
LINE
  5
3F3
330
1E
100
AcDbEntity
  8
0
100
AcDbLine
 10
267.8659999999999
 20
31.2100829999999
 30
0.0
 11
266.866
 21
31.2100829999999
 31
0.0
  0
LINE
  5
3F4
330
1E
100
AcDbEntity
  8
0
100
AcDbLine
 10
267.8659999999999
 20
31.2100829999999
 30
0.0
 11
266.866
 21
31.2100829999999
 31
0.0
  0
LINE
  5
3F5
330
1E
100
AcDbEntity
  8
0
100
AcDbLine
 10
269.2039999999999
 20
31.2100829999999
 30
0.0
 11
266.4479999999999
 21
31.2100829999999
 31
0.0
  0
LINE
  5
3F6
330
1E
100
AcDbEntity
  8
0
100
AcDbLine
 10
263.3279999999999
 20
31.2100829999999
 30
0.0
 11
260.0
 21
31.2100829999999
 31
0.0
  0
LINE
  5
3F7
330
1E
100
AcDbEntity
  8
0
100
AcDbLine
 10
265.5269
 20
31.2100829999999
 30
0.0
 11
262.8525999999999
 21
31.2100829999999
 31
0.0
  0
LINE
  5
3F8
330
1E
100
AcDbEntity
  8
0
100
AcDbLine
 10
265.5269
 20
31.2100829999999
 30
0.0
 11
262.8525999999999
 21
31.2100829999999
 31
0.0
  0
LINE
  5
3F9
330
1E
100
AcDbEntity
  8
0
100
AcDbLine
 10
263.3279999999999
 20
31.2100829999999
 30
0.0
 11
260.0
 21
31.2100829999999
 31
0.0
  0
LINE
  5
3FA
330
1E
100
AcDbEntity
  8
0
100
AcDbLine
 10
266.134
 20
31.2100829999999
 30
0.0
 11
265.134
 21
31.2100829999999
 31
0.0
  0
LINE
  5
3FB
330
1E
100
AcDbEntity
  8
0
100
AcDbLine
 10
266.134
 20
31.2100829999999
 30
0.0
 11
265.134
 21
31.2100829999999
 31
0.0
  0
LINE
  5
3FC
330
1E
100
AcDbEntity
  8
0
100
AcDbLine
 10
262.8525999999999
 20
31.2100829999999
 30
0.0
 11
260.0
 21
31.2100829999999
 31
0.0
  0
LINE
  5
3FD
330
1E
100
AcDbEntity
  8
0
100
AcDbLine
 10
262.8525999999999
 20
31.2100829999999
 30
0.0
 11
260.0
 21
31.2100829999999
 31
0.0
  0
LINE
  5
3FE
330
1E
100
AcDbEntity
  8
0
100
AcDbLine
 10
285.5
 20
33.4100829999999
 30
0.0
 11
284.0
 21
33.2100829999999
 31
0.0
  0
LINE
  5
3FF
330
1E
100
AcDbEntity
  8
0
100
AcDbLine
 10
285.5
 20
33.71008299999989
 30
0.0
 11
284.0
 21
33.5100829999999
 31
0.0
  0
LINE
  5
400
330
1E
100
AcDbEntity
  8
0
100
AcDbLine
 10
289.8
 20
37.71008299999989
 30
0.0
 11
289.1999999999999
 21
36.21008299999989
 31
0.0
  0
LINE
  5
401
330
1E
100
AcDbEntity
  8
0
100
AcDbLine
 10
288.8999999999999
 20
36.4100829999999
 30
0.0
 11
288.0
 21
35.21008299999989
 31
0.0
  0
LINE
  5
402
330
1E
100
AcDbEntity
  8
0
100
AcDbLine
 10
288.2
 20
35.0100829999999
 30
0.0
 11
287.0
 21
34.0100829999999
 31
0.0
  0
LINE
  5
403
330
1E
100
AcDbEntity
  8
0
100
AcDbLine
 10
288.0
 20
35.21008299999989
 30
0.0
 11
286.8
 21
34.3100829999999
 31
0.0
  0
LINE
  5
404
330
1E
100
AcDbEntity
  8
0
100
AcDbLine
 10
287.0
 20
34.0100829999999
 30
0.0
 11
285.5
 21
33.4100829999999
 31
0.0
  0
LINE
  5
405
330
1E
100
AcDbEntity
  8
0
100
AcDbLine
 10
286.8
 20
34.3100829999999
 30
0.0
 11
285.5
 21
33.71008299999989
 31
0.0
  0
LINE
  5
406
330
1E
100
AcDbEntity
  8
0
100
AcDbLine
 10
289.1999999999999
 20
36.21008299999989
 30
0.0
 11
288.2
 21
35.0100829999999
 31
0.0
  0
LINE
  5
407
330
1E
100
AcDbEntity
  8
0
100
AcDbLine
 10
290.0
 20
39.21008299999989
 30
0.0
 11
289.8
 21
37.71008299999989
 31
0.0
  0
LINE
  5
408
330
1E
100
AcDbEntity
  8
0
100
AcDbLine
 10
289.6999999999999
 20
39.21008299999989
 30
0.0
 11
289.4999999999999
 21
37.71008299999989
 31
0.0
  0
LINE
  5
409
330
1E
100
AcDbEntity
  8
0
100
AcDbLine
 10
289.4999999999999
 20
37.71008299999989
 30
0.0
 11
288.8999999999999
 21
36.4100829999999
 31
0.0
  0
LINE
  5
40A
330
1E
100
AcDbEntity
  8
0
100
AcDbLine
 10
279.3
 20
43.91008299999989
 30
0.0
 11
273.6
 21
39.61008299999989
 31
0.0
  0
LINE
  5
40B
330
1E
100
AcDbEntity
  8
0
100
AcDbLine
 10
273.6
 20
39.61008299999989
 30
0.0
 11
267.0
 21
36.9100829999999
 31
0.0
  0
LINE
  5
40C
330
1E
100
AcDbEntity
  8
0
100
AcDbLine
 10
284.0
 20
33.2100829999999
 30
0.0
 11
260.0
 21
33.2100829999999
 31
0.0
  0
LINE
  5
40D
330
1E
100
AcDbEntity
  8
0
100
AcDbLine
 10
284.0
 20
33.5100829999999
 30
0.0
 11
260.0
 21
33.5100829999999
 31
0.0
  0
LINE
  5
40E
330
1E
100
AcDbEntity
  8
0
100
AcDbLine
 10
267.0
 20
36.9100829999999
 30
0.0
 11
260.0
 21
35.9100829999999
 31
0.0
  0
LINE
  5
40F
330
1E
100
AcDbEntity
  8
0
100
AcDbLine
 10
252.134
 20
33.2100829999999
 30
0.0
 11
252.134
 21
31.2100829999999
 31
0.0
  0
LINE
  5
410
330
1E
100
AcDbEntity
  8
0
100
AcDbLine
 10
253.8659999999999
 20
33.2100829999999
 30
0.0
 11
253.8659999999999
 21
31.2100829999999
 31
0.0
  0
LINE
  5
411
330
1E
100
AcDbEntity
  8
0
100
AcDbLine
 10
246.0
 20
33.2100829999999
 30
0.0
 11
246.0
 21
31.2100829999999
 31
0.0
  0
LINE
  5
412
330
1E
100
AcDbEntity
  8
0
100
AcDbLine
 10
246.0
 20
31.2100829999999
 30
0.0
 11
246.0
 21
33.2100829999999
 31
0.0
  0
LINE
  5
413
330
1E
100
AcDbEntity
  8
0
100
AcDbLine
 10
252.134
 20
31.2100829999999
 30
0.0
 11
252.134
 21
33.2100829999999
 31
0.0
  0
LINE
  5
414
330
1E
100
AcDbEntity
  8
0
100
AcDbLine
 10
253.8659999999999
 20
31.2100829999999
 30
0.0
 11
253.8659999999999
 21
33.2100829999999
 31
0.0
  0
LINE
  5
415
330
1E
100
AcDbEntity
  8
0
100
AcDbLine
 10
248.716
 20
31.2100829999999
 30
0.0
 11
247.468
 21
31.2100829999999
 31
0.0
  0
LINE
  5
416
330
1E
100
AcDbEntity
  8
0
100
AcDbLine
 10
248.0
 20
31.2100829999999
 30
0.0
 11
246.0
 21
31.2100829999999
 31
0.0
  0
LINE
  5
417
330
1E
100
AcDbEntity
  8
0
100
AcDbLine
 10
248.716
 20
31.2100829999999
 30
0.0
 11
247.468
 21
31.2100829999999
 31
0.0
  0
LINE
  5
418
330
1E
100
AcDbEntity
  8
0
100
AcDbLine
 10
254.4731
 20
31.2100829999999
 30
0.0
 11
252.1109
 21
31.2100829999999
 31
0.0
  0
LINE
  5
419
330
1E
100
AcDbEntity
  8
0
100
AcDbLine
 10
256.672
 20
31.2100829999999
 30
0.0
 11
253.5519999999999
 21
31.2100829999999
 31
0.0
  0
LINE
  5
41A
330
1E
100
AcDbEntity
  8
0
100
AcDbLine
 10
253.8659999999999
 20
31.2100829999999
 30
0.0
 11
252.134
 21
31.2100829999999
 31
0.0
  0
LINE
  5
41B
330
1E
100
AcDbEntity
  8
0
100
AcDbLine
 10
254.8659999999999
 20
31.2100829999999
 30
0.0
 11
253.134
 21
31.2100829999999
 31
0.0
  0
LINE
  5
41C
330
1E
100
AcDbEntity
  8
0
100
AcDbLine
 10
254.4731
 20
31.2100829999999
 30
0.0
 11
252.1109
 21
31.2100829999999
 31
0.0
  0
LINE
  5
41D
330
1E
100
AcDbEntity
  8
0
100
AcDbLine
 10
253.8659999999999
 20
31.2100829999999
 30
0.0
 11
252.134
 21
31.2100829999999
 31
0.0
  0
LINE
  5
41E
330
1E
100
AcDbEntity
  8
0
100
AcDbLine
 10
254.8659999999999
 20
31.2100829999999
 30
0.0
 11
253.134
 21
31.2100829999999
 31
0.0
  0
LINE
  5
41F
330
1E
100
AcDbEntity
  8
0
100
AcDbLine
 10
256.672
 20
31.2100829999999
 30
0.0
 11
253.5519999999999
 21
31.2100829999999
 31
0.0
  0
LINE
  5
420
330
1E
100
AcDbEntity
  8
0
100
AcDbLine
 10
257.1474
 20
31.2100829999999
 30
0.0
 11
254.4731
 21
31.2100829999999
 31
0.0
  0
LINE
  5
421
330
1E
100
AcDbEntity
  8
0
100
AcDbLine
 10
257.1474
 20
31.2100829999999
 30
0.0
 11
254.4731
 21
31.2100829999999
 31
0.0
  0
LINE
  5
422
330
1E
100
AcDbEntity
  8
0
100
AcDbLine
 10
254.8659999999999
 20
31.2100829999999
 30
0.0
 11
253.8659999999999
 21
31.2100829999999
 31
0.0
  0
LINE
  5
423
330
1E
100
AcDbEntity
  8
0
100
AcDbLine
 10
254.8659999999999
 20
31.2100829999999
 30
0.0
 11
253.8659999999999
 21
31.2100829999999
 31
0.0
  0
LINE
  5
424
330
1E
100
AcDbEntity
  8
0
100
AcDbLine
 10
250.796
 20
31.2100829999999
 30
0.0
 11
248.716
 21
31.2100829999999
 31
0.0
  0
LINE
  5
425
330
1E
100
AcDbEntity
  8
0
100
AcDbLine
 10
252.1109
 20
31.2100829999999
 30
0.0
 11
250.328
 21
31.2100829999999
 31
0.0
  0
LINE
  5
426
330
1E
100
AcDbEntity
  8
0
100
AcDbLine
 10
250.796
 20
31.2100829999999
 30
0.0
 11
248.716
 21
31.2100829999999
 31
0.0
  0
LINE
  5
427
330
1E
100
AcDbEntity
  8
0
100
AcDbLine
 10
252.1109
 20
31.2100829999999
 30
0.0
 11
250.328
 21
31.2100829999999
 31
0.0
  0
LINE
  5
428
330
1E
100
AcDbEntity
  8
0
100
AcDbLine
 10
253.5519999999999
 20
31.2100829999999
 30
0.0
 11
250.796
 21
31.2100829999999
 31
0.0
  0
LINE
  5
429
330
1E
100
AcDbEntity
  8
0
100
AcDbLine
 10
253.134
 20
31.2100829999999
 30
0.0
 11
252.134
 21
31.2100829999999
 31
0.0
  0
LINE
  5
42A
330
1E
100
AcDbEntity
  8
0
100
AcDbLine
 10
253.134
 20
31.2100829999999
 30
0.0
 11
252.134
 21
31.2100829999999
 31
0.0
  0
LINE
  5
42B
330
1E
100
AcDbEntity
  8
0
100
AcDbLine
 10
253.5519999999999
 20
31.2100829999999
 30
0.0
 11
250.796
 21
31.2100829999999
 31
0.0
  0
LINE
  5
42C
330
1E
100
AcDbEntity
  8
0
100
AcDbLine
 10
249.2583
 20
31.2100829999999
 30
0.0
 11
248.8570999999999
 21
31.2100829999999
 31
0.0
  0
LINE
  5
42D
330
1E
100
AcDbEntity
  8
0
100
AcDbLine
 10
250.328
 20
31.2100829999999
 30
0.0
 11
249.2583
 21
31.2100829999999
 31
0.0
  0
LINE
  5
42E
330
1E
100
AcDbEntity
  8
0
100
AcDbLine
 10
250.328
 20
31.2100829999999
 30
0.0
 11
249.2583
 21
31.2100829999999
 31
0.0
  0
LINE
  5
42F
330
1E
100
AcDbEntity
  8
0
100
AcDbLine
 10
247.468
 20
31.2100829999999
 30
0.0
 11
247.0
 21
31.2100829999999
 31
0.0
  0
LINE
  5
430
330
1E
100
AcDbEntity
  8
0
100
AcDbLine
 10
247.468
 20
31.2100829999999
 30
0.0
 11
247.0
 21
31.2100829999999
 31
0.0
  0
LINE
  5
431
330
1E
100
AcDbEntity
  8
0
100
AcDbLine
 10
236.0
 20
33.5100829999999
 30
0.0
 11
234.5
 21
33.71008299999989
 31
0.0
  0
LINE
  5
432
330
1E
100
AcDbEntity
  8
0
100
AcDbLine
 10
236.0
 20
33.2100829999999
 30
0.0
 11
234.5
 21
33.4100829999999
 31
0.0
  0
LINE
  5
433
330
1E
100
AcDbEntity
  8
0
100
AcDbLine
 10
246.3999999999999
 20
39.61008299999989
 30
0.0
 11
240.7
 21
43.91008299999989
 31
0.0
  0
LINE
  5
434
330
1E
100
AcDbEntity
  8
0
100
AcDbLine
 10
253.0
 20
36.9100829999999
 30
0.0
 11
246.3999999999999
 21
39.61008299999989
 31
0.0
  0
LINE
  5
435
330
1E
100
AcDbEntity
  8
0
100
AcDbLine
 10
230.8
 20
36.21008299999989
 30
0.0
 11
230.2791281234807
 21
37.62811721104629
 31
0.0
  0
LINE
  5
436
330
1E
100
AcDbEntity
  8
0
100
AcDbLine
 10
232.0
 20
35.21008299999989
 30
0.0
 11
231.0999999999999
 21
36.4100829999999
 31
0.0
  0
LINE
  5
437
330
1E
100
AcDbEntity
  8
0
100
AcDbLine
 10
233.0
 20
34.0100829999999
 30
0.0
 11
231.8
 21
35.0100829999999
 31
0.0
  0
LINE
  5
438
330
1E
100
AcDbEntity
  8
0
100
AcDbLine
 10
233.1999999999999
 20
34.3100829999999
 30
0.0
 11
232.0
 21
35.21008299999989
 31
0.0
  0
LINE
  5
439
330
1E
100
AcDbEntity
  8
0
100
AcDbLine
 10
234.5
 20
33.4100829999999
 30
0.0
 11
233.0
 21
34.0100829999999
 31
0.0
  0
LINE
  5
43A
330
1E
100
AcDbEntity
  8
0
100
AcDbLine
 10
234.5
 20
33.71008299999989
 30
0.0
 11
233.1999999999999
 21
34.3100829999999
 31
0.0
  0
LINE
  5
43B
330
1E
100
AcDbEntity
  8
0
100
AcDbLine
 10
231.8
 20
35.0100829999999
 30
0.0
 11
230.8
 21
36.21008299999989
 31
0.0
  0
LINE
  5
43C
330
1E
100
AcDbEntity
  8
0
100
AcDbLine
 10
230.2791281234807
 20
37.62811721104629
 30
0.0
 11
230.1066243726211
 21
39.19462218351645
 31
0.0
  0
LINE
  5
43D
330
1E
100
AcDbEntity
  8
0
100
AcDbLine
 10
230.5
 20
37.71008299999989
 30
0.0
 11
230.3
 21
39.21008299999989
 31
0.0
  0
LINE
  5
43E
330
1E
100
AcDbEntity
  8
0
100
AcDbLine
 10
231.0999999999999
 20
36.4100829999999
 30
0.0
 11
230.5
 21
37.71008299999989
 31
0.0
  0
LINE
  5
43F
330
1E
100
AcDbEntity
  8
0
100
AcDbLine
 10
260.0
 20
95.21008299999989
 30
0.0
 11
256.672
 21
95.21008299999989
 31
0.0
  0
LINE
  5
440
330
1E
100
AcDbEntity
  8
0
100
AcDbLine
 10
260.0
 20
93.2100829999999
 30
0.0
 11
236.0
 21
93.2100829999999
 31
0.0
  0
LINE
  5
441
330
1E
100
AcDbEntity
  8
0
100
AcDbLine
 10
260.0
 20
92.9100829999999
 30
0.0
 11
236.0
 21
92.9100829999999
 31
0.0
  0
LINE
  5
442
330
1E
100
AcDbEntity
  8
0
100
AcDbLine
 10
260.0
 20
90.5100829999999
 30
0.0
 11
253.0
 21
89.5100829999999
 31
0.0
  0
LINE
  5
443
330
1E
100
AcDbEntity
  8
0
100
AcDbLine
 10
260.0
 20
78.51008299999991
 30
0.0
 11
256.1
 21
77.9100829999999
 31
0.0
  0
LINE
  5
444
330
1E
100
AcDbEntity
  8
0
100
AcDbLine
 10
260.0
 20
73.71008299999989
 30
0.0
 11
257.2999999999999
 21
73.4100829999999
 31
0.0
  0
LINE
  5
445
330
1E
100
AcDbEntity
  8
0
100
AcDbLine
 10
260.0
 20
52.7100829999999
 30
0.0
 11
257.2999999999999
 21
53.01008299999989
 31
0.0
  0
LINE
  5
446
330
1E
100
AcDbEntity
  8
0
100
AcDbLine
 10
260.0
 20
47.91008299999989
 30
0.0
 11
256.1
 21
48.51008299999989
 31
0.0
  0
LINE
  5
447
330
1E
100
AcDbEntity
  8
0
100
AcDbLine
 10
283.6
 20
76.81008299999991
 30
0.0
 11
279.3
 21
82.51008299999991
 31
0.0
  0
LINE
  5
448
330
1E
100
AcDbEntity
  8
0
100
AcDbLine
 10
267.6
 20
76.51008299999991
 30
0.0
 11
263.8999999999999
 21
77.9100829999999
 31
0.0
  0
LINE
  5
449
330
1E
100
AcDbEntity
  8
0
100
AcDbLine
 10
290.0
 20
87.2100829999999
 30
0.0
 11
290.0
 21
73.71008299999989
 31
0.0
  0
LINE
  5
44A
330
1E
100
AcDbEntity
  8
0
100
AcDbLine
 10
290.0
 20
73.71008299999989
 30
0.0
 11
290.0
 21
87.2100829999999
 31
0.0
  0
LINE
  5
44B
330
1E
100
AcDbEntity
  8
0
100
AcDbLine
 10
289.6999999999999
 20
87.2100829999999
 30
0.0
 11
289.6999999999999
 21
73.71008299999989
 31
0.0
  0
LINE
  5
44C
330
1E
100
AcDbEntity
  8
0
100
AcDbLine
 10
289.6999999999999
 20
73.71008299999989
 30
0.0
 11
289.6999999999999
 21
87.2100829999999
 31
0.0
  0
LINE
  5
44D
330
1E
100
AcDbEntity
  8
0
100
AcDbLine
 10
312.1999999999999
 20
73.4100829999999
 30
0.0
 11
309.5
 21
73.71008299999989
 31
0.0
  0
LINE
  5
44E
330
1E
100
AcDbEntity
  8
0
100
AcDbLine
 10
312.1999999999999
 20
53.01008299999989
 30
0.0
 11
309.5
 21
52.7100829999999
 31
0.0
  0
LINE
  5
44F
330
1E
100
AcDbEntity
  8
0
100
AcDbLine
 10
320.0
 20
63.2100829999999
 30
0.0
 11
319.7
 21
60.51008299999989
 31
0.0
  0
LINE
  5
450
330
1E
100
AcDbEntity
  8
0
100
AcDbLine
 10
317.0
 20
55.7100829999999
 30
0.0
 11
314.6999999999999
 21
54.1100829999999
 31
0.0
  0
LINE
  5
451
330
1E
100
AcDbEntity
  8
0
100
AcDbLine
 10
314.6999999999999
 20
54.1100829999999
 30
0.0
 11
312.1999999999999
 21
53.01008299999989
 31
0.0
  0
LINE
  5
452
330
1E
100
AcDbEntity
  8
0
100
AcDbLine
 10
319.7
 20
60.51008299999989
 30
0.0
 11
318.6
 21
58.01008299999989
 31
0.0
  0
LINE
  5
453
330
1E
100
AcDbEntity
  8
0
100
AcDbLine
 10
319.7
 20
60.51008299999989
 30
0.0
 11
318.6
 21
58.01008299999989
 31
0.0
  0
LINE
  5
454
330
1E
100
AcDbEntity
  8
0
100
AcDbLine
 10
318.6
 20
58.01008299999989
 30
0.0
 11
317.0
 21
55.7100829999999
 31
0.0
  0
LINE
  5
455
330
1E
100
AcDbEntity
  8
0
100
AcDbLine
 10
318.6
 20
68.4100829999999
 30
0.0
 11
317.0
 21
70.7100829999999
 31
0.0
  0
LINE
  5
456
330
1E
100
AcDbEntity
  8
0
100
AcDbLine
 10
319.7
 20
65.9100829999999
 30
0.0
 11
318.6
 21
68.4100829999999
 31
0.0
  0
LINE
  5
457
330
1E
100
AcDbEntity
  8
0
100
AcDbLine
 10
319.7
 20
65.9100829999999
 30
0.0
 11
318.6
 21
68.4100829999999
 31
0.0
  0
LINE
  5
458
330
1E
100
AcDbEntity
  8
0
100
AcDbLine
 10
319.7
 20
65.9100829999999
 30
0.0
 11
320.0
 21
63.2100829999999
 31
0.0
  0
LINE
  5
459
330
1E
100
AcDbEntity
  8
0
100
AcDbLine
 10
317.0
 20
70.7100829999999
 30
0.0
 11
314.6999999999999
 21
72.31008299999991
 31
0.0
  0
LINE
  5
45A
330
1E
100
AcDbEntity
  8
0
100
AcDbLine
 10
314.6999999999999
 20
72.31008299999991
 30
0.0
 11
312.1999999999999
 21
73.4100829999999
 31
0.0
  0
LINE
  5
45B
330
1E
100
AcDbEntity
  8
0
100
AcDbLine
 10
309.5
 20
52.7100829999999
 30
0.0
 11
280.0
 21
52.7100829999999
 31
0.0
  0
LINE
  5
45C
330
1E
100
AcDbEntity
  8
0
100
AcDbLine
 10
309.5
 20
52.7100829999999
 30
0.0
 11
260.0
 21
52.7100829999999
 31
0.0
  0
LINE
  5
45D
330
1E
100
AcDbEntity
  8
0
100
AcDbLine
 10
280.0
 20
52.7100829999999
 30
0.0
 11
260.0
 21
52.7100829999999
 31
0.0
  0
LINE
  5
45E
330
1E
100
AcDbEntity
  8
0
100
AcDbLine
 10
273.0
 20
52.7100829999999
 30
0.0
 11
269.0
 21
52.7100829999999
 31
0.0
  0
LINE
  5
45F
330
1E
100
AcDbEntity
  8
0
100
AcDbLine
 10
284.8681818181818
 20
52.7100829999999
 30
0.0
 11
283.6
 21
49.61008299999989
 31
0.0
  0
LINE
  5
460
330
1E
100
AcDbEntity
  8
0
100
AcDbLine
 10
280.0
 20
52.7100829999999
 30
0.0
 11
276.6999999999999
 21
52.7100829999999
 31
0.0
  0
LINE
  5
461
330
1E
100
AcDbEntity
  8
0
100
AcDbLine
 10
270.8
 20
52.4100829999999
 30
0.0
 11
267.6
 21
49.9100829999999
 31
0.0
  0
LINE
  5
462
330
1E
100
AcDbEntity
  8
0
100
AcDbLine
 10
267.6
 20
49.9100829999999
 30
0.0
 11
263.8999999999999
 21
48.51008299999989
 31
0.0
  0
LINE
  5
463
330
1E
100
AcDbEntity
  8
0
100
AcDbLine
 10
263.8999999999999
 20
48.51008299999989
 30
0.0
 11
260.0
 21
47.91008299999989
 31
0.0
  0
LINE
  5
464
330
1E
100
AcDbEntity
  8
0
100
AcDbLine
 10
269.0
 20
52.7100829999999
 30
0.0
 11
264.6999999999999
 21
52.7100829999999
 31
0.0
  0
LINE
  5
465
330
1E
100
AcDbEntity
  8
0
100
AcDbLine
 10
271.034375
 20
52.7100829999999
 30
0.0
 11
270.8
 21
52.4100829999999
 31
0.0
  0
LINE
  5
466
330
1E
100
AcDbEntity
  8
0
100
AcDbLine
 10
261.8999999999999
 20
52.7100829999999
 30
0.0
 11
260.3999999999999
 21
52.7100829999999
 31
0.0
  0
LINE
  5
467
330
1E
100
AcDbEntity
  8
0
100
AcDbLine
 10
260.3999999999999
 20
52.7100829999999
 30
0.0
 11
260.0
 21
52.7100829999999
 31
0.0
  0
LINE
  5
468
330
1E
100
AcDbEntity
  8
0
100
AcDbLine
 10
309.5
 20
73.71008299999989
 30
0.0
 11
260.0
 21
73.71008299999989
 31
0.0
  0
LINE
  5
469
330
1E
100
AcDbEntity
  8
0
100
AcDbLine
 10
309.5
 20
73.71008299999989
 30
0.0
 11
260.0
 21
73.71008299999989
 31
0.0
  0
LINE
  5
46A
330
1E
100
AcDbEntity
  8
0
100
AcDbLine
 10
284.8681818181818
 20
73.71008299999989
 30
0.0
 11
283.6
 21
76.81008299999991
 31
0.0
  0
LINE
  5
46B
330
1E
100
AcDbEntity
  8
0
100
AcDbLine
 10
270.8
 20
74.01008299999991
 30
0.0
 11
267.6
 21
76.51008299999991
 31
0.0
  0
LINE
  5
46C
330
1E
100
AcDbEntity
  8
0
100
AcDbLine
 10
271.034375
 20
73.71008299999989
 30
0.0
 11
270.8
 21
74.01008299999991
 31
0.0
  0
LINE
  5
46D
330
1E
100
AcDbEntity
  8
0
100
AcDbLine
 10
288.2
 20
91.4100829999999
 30
0.0
 11
287.0
 21
92.4100829999999
 31
0.0
  0
LINE
  5
46E
330
1E
100
AcDbEntity
  8
0
100
AcDbLine
 10
286.8
 20
92.1100829999999
 30
0.0
 11
285.5
 21
92.71008299999989
 31
0.0
  0
LINE
  5
46F
330
1E
100
AcDbEntity
  8
0
100
AcDbLine
 10
290.0
 20
87.2100829999999
 30
0.0
 11
289.8
 21
88.7100829999999
 31
0.0
  0
LINE
  5
470
330
1E
100
AcDbEntity
  8
0
100
AcDbLine
 10
289.6999999999999
 20
87.2100829999999
 30
0.0
 11
289.4999999999999
 21
88.7100829999999
 31
0.0
  0
LINE
  5
471
330
1E
100
AcDbEntity
  8
0
100
AcDbLine
 10
289.1999999999999
 20
90.21008299999989
 30
0.0
 11
288.2
 21
91.4100829999999
 31
0.0
  0
LINE
  5
472
330
1E
100
AcDbEntity
  8
0
100
AcDbLine
 10
288.8999999999999
 20
90.01008299999991
 30
0.0
 11
288.0
 21
91.2100829999999
 31
0.0
  0
LINE
  5
473
330
1E
100
AcDbEntity
  8
0
100
AcDbLine
 10
289.8
 20
88.7100829999999
 30
0.0
 11
289.1999999999999
 21
90.21008299999989
 31
0.0
  0
LINE
  5
474
330
1E
100
AcDbEntity
  8
0
100
AcDbLine
 10
289.4999999999999
 20
88.7100829999999
 30
0.0
 11
288.8999999999999
 21
90.01008299999991
 31
0.0
  0
LINE
  5
475
330
1E
100
AcDbEntity
  8
0
100
AcDbLine
 10
288.0
 20
91.2100829999999
 30
0.0
 11
286.8
 21
92.1100829999999
 31
0.0
  0
LINE
  5
476
330
1E
100
AcDbEntity
  8
0
100
AcDbLine
 10
279.3
 20
82.51008299999991
 30
0.0
 11
273.6
 21
86.81008299999991
 31
0.0
  0
LINE
  5
477
330
1E
100
AcDbEntity
  8
0
100
AcDbLine
 10
263.8999999999999
 20
77.9100829999999
 30
0.0
 11
260.0
 21
78.51008299999991
 31
0.0
  0
LINE
  5
478
330
1E
100
AcDbEntity
  8
0
100
AcDbLine
 10
273.6
 20
86.81008299999991
 30
0.0
 11
267.0
 21
89.5100829999999
 31
0.0
  0
LINE
  5
479
330
1E
100
AcDbEntity
  8
0
100
AcDbLine
 10
267.0
 20
89.5100829999999
 30
0.0
 11
260.0
 21
90.5100829999999
 31
0.0
  0
LINE
  5
47A
330
1E
100
AcDbEntity
  8
0
100
AcDbLine
 10
285.5
 20
93.0100829999999
 30
0.0
 11
284.0
 21
93.2100829999999
 31
0.0
  0
LINE
  5
47B
330
1E
100
AcDbEntity
  8
0
100
AcDbLine
 10
285.5
 20
92.71008299999989
 30
0.0
 11
284.0
 21
92.9100829999999
 31
0.0
  0
LINE
  5
47C
330
1E
100
AcDbEntity
  8
0
100
AcDbLine
 10
287.0
 20
92.4100829999999
 30
0.0
 11
285.5
 21
93.0100829999999
 31
0.0
  0
LINE
  5
47D
330
1E
100
AcDbEntity
  8
0
100
AcDbLine
 10
284.0
 20
93.2100829999999
 30
0.0
 11
260.0
 21
93.2100829999999
 31
0.0
  0
LINE
  5
47E
330
1E
100
AcDbEntity
  8
0
100
AcDbLine
 10
272.5319999999999
 20
95.21008299999989
 30
0.0
 11
271.2839999999999
 21
95.21008299999989
 31
0.0
  0
LINE
  5
47F
330
1E
100
AcDbEntity
  8
0
100
AcDbLine
 10
284.0
 20
92.9100829999999
 30
0.0
 11
260.0
 21
92.9100829999999
 31
0.0
  0
LINE
  5
480
330
1E
100
AcDbEntity
  8
0
100
AcDbLine
 10
274.0
 20
95.21008299999989
 30
0.0
 11
274.0
 21
93.2100829999999
 31
0.0
  0
LINE
  5
481
330
1E
100
AcDbEntity
  8
0
100
AcDbLine
 10
274.0
 20
93.2100829999999
 30
0.0
 11
274.0
 21
95.21008299999989
 31
0.0
  0
LINE
  5
482
330
1E
100
AcDbEntity
  8
0
100
AcDbLine
 10
273.0
 20
95.21008299999989
 30
0.0
 11
272.5319999999999
 21
95.21008299999989
 31
0.0
  0
LINE
  5
483
330
1E
100
AcDbEntity
  8
0
100
AcDbLine
 10
274.0
 20
95.21008299999989
 30
0.0
 11
273.0
 21
95.21008299999989
 31
0.0
  0
LINE
  5
484
330
1E
100
AcDbEntity
  8
0
100
AcDbLine
 10
267.8659999999999
 20
95.21008299999989
 30
0.0
 11
266.134
 21
95.21008299999989
 31
0.0
  0
LINE
  5
485
330
1E
100
AcDbEntity
  8
0
100
AcDbLine
 10
267.8659999999999
 20
95.21008299999989
 30
0.0
 11
267.8659999999999
 21
93.2100829999999
 31
0.0
  0
LINE
  5
486
330
1E
100
AcDbEntity
  8
0
100
AcDbLine
 10
267.8659999999999
 20
93.2100829999999
 30
0.0
 11
267.8659999999999
 21
95.21008299999989
 31
0.0
  0
LINE
  5
487
330
1E
100
AcDbEntity
  8
0
100
AcDbLine
 10
271.2839999999999
 20
95.21008299999989
 30
0.0
 11
269.2039999999999
 21
95.21008299999989
 31
0.0
  0
LINE
  5
488
330
1E
100
AcDbEntity
  8
0
100
AcDbLine
 10
269.2039999999999
 20
95.21008299999989
 30
0.0
 11
267.8659999999999
 21
95.21008299999989
 31
0.0
  0
LINE
  5
489
330
1E
100
AcDbEntity
  8
0
100
AcDbLine
 10
266.134
 20
95.21008299999989
 30
0.0
 11
266.134
 21
93.2100829999999
 31
0.0
  0
LINE
  5
48A
330
1E
100
AcDbEntity
  8
0
100
AcDbLine
 10
266.134
 20
93.2100829999999
 30
0.0
 11
266.134
 21
95.21008299999989
 31
0.0
  0
LINE
  5
48B
330
1E
100
AcDbEntity
  8
0
100
AcDbLine
 10
263.3279999999999
 20
95.21008299999989
 30
0.0
 11
260.0
 21
95.21008299999989
 31
0.0
  0
LINE
  5
48C
330
1E
100
AcDbEntity
  8
0
100
AcDbLine
 10
265.134
 20
95.21008299999989
 30
0.0
 11
263.3279999999999
 21
95.21008299999989
 31
0.0
  0
LINE
  5
48D
330
1E
100
AcDbEntity
  8
0
100
AcDbLine
 10
266.134
 20
95.21008299999989
 30
0.0
 11
265.134
 21
95.21008299999989
 31
0.0
  0
LINE
  5
48E
330
1E
100
AcDbEntity
  8
0
100
AcDbLine
 10
230.3
 20
87.2100829999999
 30
0.0
 11
230.3
 21
63.2100829999999
 31
0.0
  0
LINE
  5
48F
330
1E
100
AcDbEntity
  8
0
100
AcDbLine
 10
240.7
 20
82.51008299999991
 30
0.0
 11
236.4
 21
76.81008299999991
 31
0.0
  0
LINE
  5
490
330
1E
100
AcDbEntity
  8
0
100
AcDbLine
 10
256.1
 20
77.9100829999999
 30
0.0
 11
252.4
 21
76.51008299999991
 31
0.0
  0
LINE
  5
491
330
1E
100
AcDbEntity
  8
0
100
AcDbLine
 10
230.3
 20
63.2100829999999
 30
0.0
 11
230.3
 21
87.2100829999999
 31
0.0
  0
LINE
  5
492
330
1E
100
AcDbEntity
  8
0
100
AcDbLine
 10
228.0
 20
74.21008299999989
 30
0.0
 11
190.0
 21
74.21008299999989
 31
0.0
  0
LINE
  5
493
330
1E
100
AcDbEntity
  8
0
100
AcDbLine
 10
228.0
 20
52.2100829999999
 30
0.0
 11
190.0
 21
52.2100829999999
 31
0.0
  0
LINE
  5
494
330
1E
100
AcDbEntity
  8
0
100
AcDbLine
 10
228.0
 20
63.2100829999999
 30
0.0
 11
228.0
 21
59.88208299999989
 31
0.0
  0
LINE
  5
495
330
1E
100
AcDbEntity
  8
0
100
AcDbLine
 10
233.6999999999999
 20
56.21008299999989
 30
0.0
 11
232.6999999999999
 21
63.2100829999999
 31
0.0
  0
LINE
  5
496
330
1E
100
AcDbEntity
  8
0
100
AcDbLine
 10
228.0
 20
59.88208299999989
 30
0.0
 11
228.0
 21
63.2100829999999
 31
0.0
  0
LINE
  5
497
330
1E
100
AcDbEntity
  8
0
100
AcDbLine
 10
245.3
 20
59.31008299999989
 30
0.0
 11
244.7
 21
63.2100829999999
 31
0.0
  0
LINE
  5
498
330
1E
100
AcDbEntity
  8
0
100
AcDbLine
 10
249.8
 20
60.51008299999989
 30
0.0
 11
249.5
 21
63.2100829999999
 31
0.0
  0
LINE
  5
499
330
1E
100
AcDbEntity
  8
0
100
AcDbLine
 10
236.4
 20
49.61008299999989
 30
0.0
 11
233.6999999999999
 21
56.21008299999989
 31
0.0
  0
LINE
  5
49A
330
1E
100
AcDbEntity
  8
0
100
AcDbLine
 10
254.8
 20
54.1100829999999
 30
0.0
 11
252.4999999999999
 21
55.7100829999999
 31
0.0
  0
LINE
  5
49B
330
1E
100
AcDbEntity
  8
0
100
AcDbLine
 10
249.1999999999999
 20
52.4100829999999
 30
0.0
 11
246.7
 21
55.6100829999999
 31
0.0
  0
LINE
  5
49C
330
1E
100
AcDbEntity
  8
0
100
AcDbLine
 10
252.4
 20
49.9100829999999
 30
0.0
 11
249.1999999999999
 21
52.4100829999999
 31
0.0
  0
LINE
  5
49D
330
1E
100
AcDbEntity
  8
0
100
AcDbLine
 10
256.1
 20
48.51008299999989
 30
0.0
 11
252.4
 21
49.9100829999999
 31
0.0
  0
LINE
  5
49E
330
1E
100
AcDbEntity
  8
0
100
AcDbLine
 10
257.2999999999999
 20
53.01008299999989
 30
0.0
 11
254.8
 21
54.1100829999999
 31
0.0
  0
LINE
  5
49F
330
1E
100
AcDbEntity
  8
0
100
AcDbLine
 10
250.8999999999999
 20
58.01008299999989
 30
0.0
 11
249.8
 21
60.51008299999989
 31
0.0
  0
LINE
  5
4A0
330
1E
100
AcDbEntity
  8
0
100
AcDbLine
 10
252.4999999999999
 20
55.7100829999999
 30
0.0
 11
250.8999999999999
 21
58.01008299999989
 31
0.0
  0
LINE
  5
4A1
330
1E
100
AcDbEntity
  8
0
100
AcDbLine
 10
246.7
 20
55.6100829999999
 30
0.0
 11
245.3
 21
59.31008299999989
 31
0.0
  0
LINE
  5
4A2
330
1E
100
AcDbEntity
  8
0
100
AcDbLine
 10
228.0
 20
56.7620829999999
 30
0.0
 11
228.0
 21
54.0060829999999
 31
0.0
  0
LINE
  5
4A3
330
1E
100
AcDbEntity
  8
0
100
AcDbLine
 10
228.0
 20
54.0060829999999
 30
0.0
 11
228.0
 21
56.7620829999999
 31
0.0
  0
LINE
  5
4A4
330
1E
100
AcDbEntity
  8
0
100
AcDbLine
 10
228.0
 20
51.92608299999989
 30
0.0
 11
228.0
 21
50.67808299999989
 31
0.0
  0
LINE
  5
4A5
330
1E
100
AcDbEntity
  8
0
100
AcDbLine
 10
228.0
 20
50.67808299999989
 30
0.0
 11
228.0
 21
51.92608299999989
 31
0.0
  0
LINE
  5
4A6
330
1E
100
AcDbEntity
  8
0
100
AcDbLine
 10
230.0
 20
50.2100829999999
 30
0.0
 11
228.0
 21
50.2100829999999
 31
0.0
  0
LINE
  5
4A7
330
1E
100
AcDbEntity
  8
0
100
AcDbLine
 10
228.0
 20
50.67808299999989
 30
0.0
 11
228.0
 21
50.2100829999999
 31
0.0
  0
LINE
  5
4A8
330
1E
100
AcDbEntity
  8
0
100
AcDbLine
 10
228.0
 20
50.2100829999999
 30
0.0
 11
228.0
 21
50.67808299999989
 31
0.0
  0
LINE
  5
4A9
330
1E
100
AcDbEntity
  8
0
100
AcDbLine
 10
228.0
 20
54.0060829999999
 30
0.0
 11
228.0
 21
51.92608299999989
 31
0.0
  0
LINE
  5
4AA
330
1E
100
AcDbEntity
  8
0
100
AcDbLine
 10
228.0
 20
51.92608299999989
 30
0.0
 11
228.0
 21
54.0060829999999
 31
0.0
  0
LINE
  5
4AB
330
1E
100
AcDbEntity
  8
0
100
AcDbLine
 10
228.0
 20
59.88208299999989
 30
0.0
 11
228.0
 21
56.7620829999999
 31
0.0
  0
LINE
  5
4AC
330
1E
100
AcDbEntity
  8
0
100
AcDbLine
 10
228.0
 20
56.7620829999999
 30
0.0
 11
228.0
 21
59.88208299999989
 31
0.0
  0
LINE
  5
4AD
330
1E
100
AcDbEntity
  8
0
100
AcDbLine
 10
236.4
 20
76.81008299999991
 30
0.0
 11
233.6999999999999
 21
70.2100829999999
 31
0.0
  0
LINE
  5
4AE
330
1E
100
AcDbEntity
  8
0
100
AcDbLine
 10
246.7
 20
70.8100829999999
 30
0.0
 11
245.3
 21
67.11008299999988
 31
0.0
  0
LINE
  5
4AF
330
1E
100
AcDbEntity
  8
0
100
AcDbLine
 10
252.4999999999999
 20
70.7100829999999
 30
0.0
 11
250.8999999999999
 21
68.4100829999999
 31
0.0
  0
LINE
  5
4B0
330
1E
100
AcDbEntity
  8
0
100
AcDbLine
 10
250.8999999999999
 20
68.4100829999999
 30
0.0
 11
249.8
 21
65.9100829999999
 31
0.0
  0
LINE
  5
4B1
330
1E
100
AcDbEntity
  8
0
100
AcDbLine
 10
249.8
 20
65.9100829999999
 30
0.0
 11
249.5
 21
63.2100829999999
 31
0.0
  0
LINE
  5
4B2
330
1E
100
AcDbEntity
  8
0
100
AcDbLine
 10
245.3
 20
67.11008299999988
 30
0.0
 11
244.7
 21
63.2100829999999
 31
0.0
  0
LINE
  5
4B3
330
1E
100
AcDbEntity
  8
0
100
AcDbLine
 10
249.1999999999999
 20
74.01008299999991
 30
0.0
 11
246.7
 21
70.8100829999999
 31
0.0
  0
LINE
  5
4B4
330
1E
100
AcDbEntity
  8
0
100
AcDbLine
 10
254.8
 20
72.31008299999991
 30
0.0
 11
252.4999999999999
 21
70.7100829999999
 31
0.0
  0
LINE
  5
4B5
330
1E
100
AcDbEntity
  8
0
100
AcDbLine
 10
257.2999999999999
 20
73.4100829999999
 30
0.0
 11
254.8
 21
72.31008299999991
 31
0.0
  0
LINE
  5
4B6
330
1E
100
AcDbEntity
  8
0
100
AcDbLine
 10
252.4
 20
76.51008299999991
 30
0.0
 11
249.1999999999999
 21
74.01008299999991
 31
0.0
  0
LINE
  5
4B7
330
1E
100
AcDbEntity
  8
0
100
AcDbLine
 10
233.6999999999999
 20
70.2100829999999
 30
0.0
 11
232.6999999999999
 21
63.2100829999999
 31
0.0
  0
LINE
  5
4B8
330
1E
100
AcDbEntity
  8
0
100
AcDbLine
 10
228.0
 20
72.4140829999999
 30
0.0
 11
228.0
 21
69.65808299999989
 31
0.0
  0
LINE
  5
4B9
330
1E
100
AcDbEntity
  8
0
100
AcDbLine
 10
228.0
 20
69.65808299999989
 30
0.0
 11
228.0
 21
72.4140829999999
 31
0.0
  0
LINE
  5
4BA
330
1E
100
AcDbEntity
  8
0
100
AcDbLine
 10
228.0
 20
63.2100829999999
 30
0.0
 11
228.0
 21
66.5380829999999
 31
0.0
  0
LINE
  5
4BB
330
1E
100
AcDbEntity
  8
0
100
AcDbLine
 10
228.0
 20
66.5380829999999
 30
0.0
 11
228.0
 21
63.2100829999999
 31
0.0
  0
LINE
  5
4BC
330
1E
100
AcDbEntity
  8
0
100
AcDbLine
 10
228.0
 20
66.5380829999999
 30
0.0
 11
228.0
 21
69.65808299999989
 31
0.0
  0
LINE
  5
4BD
330
1E
100
AcDbEntity
  8
0
100
AcDbLine
 10
228.0
 20
69.65808299999989
 30
0.0
 11
228.0
 21
66.5380829999999
 31
0.0
  0
LINE
  5
4BE
330
1E
100
AcDbEntity
  8
0
100
AcDbLine
 10
228.0
 20
74.49408299999991
 30
0.0
 11
228.0
 21
72.4140829999999
 31
0.0
  0
LINE
  5
4BF
330
1E
100
AcDbEntity
  8
0
100
AcDbLine
 10
228.0
 20
72.4140829999999
 30
0.0
 11
228.0
 21
74.49408299999991
 31
0.0
  0
LINE
  5
4C0
330
1E
100
AcDbEntity
  8
0
100
AcDbLine
 10
230.0
 20
76.21008299999989
 30
0.0
 11
228.0
 21
76.21008299999989
 31
0.0
  0
LINE
  5
4C1
330
1E
100
AcDbEntity
  8
0
100
AcDbLine
 10
228.0
 20
74.49408299999991
 30
0.0
 11
228.0
 21
75.74208299999991
 31
0.0
  0
LINE
  5
4C2
330
1E
100
AcDbEntity
  8
0
100
AcDbLine
 10
228.0
 20
75.74208299999991
 30
0.0
 11
228.0
 21
74.49408299999991
 31
0.0
  0
LINE
  5
4C3
330
1E
100
AcDbEntity
  8
0
100
AcDbLine
 10
228.0
 20
75.74208299999991
 30
0.0
 11
228.0
 21
76.21008299999989
 31
0.0
  0
LINE
  5
4C4
330
1E
100
AcDbEntity
  8
0
100
AcDbLine
 10
228.0
 20
76.21008299999989
 30
0.0
 11
228.0
 21
75.74208299999991
 31
0.0
  0
LINE
  5
4C5
330
1E
100
AcDbEntity
  8
0
100
AcDbLine
 10
233.0
 20
92.4100829999999
 30
0.0
 11
231.8
 21
91.4100829999999
 31
0.0
  0
LINE
  5
4C6
330
1E
100
AcDbEntity
  8
0
100
AcDbLine
 10
234.5
 20
92.71008299999989
 30
0.0
 11
233.1999999999999
 21
92.1100829999999
 31
0.0
  0
LINE
  5
4C7
330
1E
100
AcDbEntity
  8
0
100
AcDbLine
 10
246.3999999999999
 20
86.81008299999991
 30
0.0
 11
240.7
 21
82.51008299999991
 31
0.0
  0
LINE
  5
4C8
330
1E
100
AcDbEntity
  8
0
100
AcDbLine
 10
253.0
 20
89.5100829999999
 30
0.0
 11
246.3999999999999
 21
86.81008299999991
 31
0.0
  0
LINE
  5
4C9
330
1E
100
AcDbEntity
  8
0
100
AcDbLine
 10
230.2
 20
88.7100829999999
 30
0.0
 11
230.0
 21
87.2100829999999
 31
0.0
  0
LINE
  5
4CA
330
1E
100
AcDbEntity
  8
0
100
AcDbLine
 10
230.5
 20
88.7100829999999
 30
0.0
 11
230.3
 21
87.2100829999999
 31
0.0
  0
LINE
  5
4CB
330
1E
100
AcDbEntity
  8
0
100
AcDbLine
 10
231.8
 20
91.4100829999999
 30
0.0
 11
230.8
 21
90.21008299999989
 31
0.0
  0
LINE
  5
4CC
330
1E
100
AcDbEntity
  8
0
100
AcDbLine
 10
232.0
 20
91.2100829999999
 30
0.0
 11
231.0999999999999
 21
90.01008299999991
 31
0.0
  0
LINE
  5
4CD
330
1E
100
AcDbEntity
  8
0
100
AcDbLine
 10
230.8
 20
90.21008299999989
 30
0.0
 11
230.2
 21
88.7100829999999
 31
0.0
  0
LINE
  5
4CE
330
1E
100
AcDbEntity
  8
0
100
AcDbLine
 10
231.0999999999999
 20
90.01008299999991
 30
0.0
 11
230.5
 21
88.7100829999999
 31
0.0
  0
LINE
  5
4CF
330
1E
100
AcDbEntity
  8
0
100
AcDbLine
 10
233.1999999999999
 20
92.1100829999999
 30
0.0
 11
232.0
 21
91.2100829999999
 31
0.0
  0
LINE
  5
4D0
330
1E
100
AcDbEntity
  8
0
100
AcDbLine
 10
236.0
 20
93.2100829999999
 30
0.0
 11
234.5
 21
93.0100829999999
 31
0.0
  0
LINE
  5
4D1
330
1E
100
AcDbEntity
  8
0
100
AcDbLine
 10
236.0
 20
92.9100829999999
 30
0.0
 11
234.5
 21
92.71008299999989
 31
0.0
  0
LINE
  5
4D2
330
1E
100
AcDbEntity
  8
0
100
AcDbLine
 10
248.716
 20
95.21008299999989
 30
0.0
 11
247.468
 21
95.21008299999989
 31
0.0
  0
LINE
  5
4D3
330
1E
100
AcDbEntity
  8
0
100
AcDbLine
 10
253.8659999999999
 20
95.21008299999989
 30
0.0
 11
252.134
 21
95.21008299999989
 31
0.0
  0
LINE
  5
4D4
330
1E
100
AcDbEntity
  8
0
100
AcDbLine
 10
253.8659999999999
 20
95.21008299999989
 30
0.0
 11
253.8659999999999
 21
93.2100829999999
 31
0.0
  0
LINE
  5
4D5
330
1E
100
AcDbEntity
  8
0
100
AcDbLine
 10
253.8659999999999
 20
93.2100829999999
 30
0.0
 11
253.8659999999999
 21
95.21008299999989
 31
0.0
  0
LINE
  5
4D6
330
1E
100
AcDbEntity
  8
0
100
AcDbLine
 10
256.672
 20
95.21008299999989
 30
0.0
 11
254.8659999999999
 21
95.21008299999989
 31
0.0
  0
LINE
  5
4D7
330
1E
100
AcDbEntity
  8
0
100
AcDbLine
 10
254.8659999999999
 20
95.21008299999989
 30
0.0
 11
253.8659999999999
 21
95.21008299999989
 31
0.0
  0
LINE
  5
4D8
330
1E
100
AcDbEntity
  8
0
100
AcDbLine
 10
252.134
 20
95.21008299999989
 30
0.0
 11
252.134
 21
93.2100829999999
 31
0.0
  0
LINE
  5
4D9
330
1E
100
AcDbEntity
  8
0
100
AcDbLine
 10
252.134
 20
93.2100829999999
 30
0.0
 11
252.134
 21
95.21008299999989
 31
0.0
  0
LINE
  5
4DA
330
1E
100
AcDbEntity
  8
0
100
AcDbLine
 10
250.796
 20
95.21008299999989
 30
0.0
 11
248.716
 21
95.21008299999989
 31
0.0
  0
LINE
  5
4DB
330
1E
100
AcDbEntity
  8
0
100
AcDbLine
 10
252.134
 20
95.21008299999989
 30
0.0
 11
250.796
 21
95.21008299999989
 31
0.0
  0
LINE
  5
4DC
330
1E
100
AcDbEntity
  8
0
100
AcDbLine
 10
246.0
 20
95.21008299999989
 30
0.0
 11
246.0
 21
93.2100829999999
 31
0.0
  0
LINE
  5
4DD
330
1E
100
AcDbEntity
  8
0
100
AcDbLine
 10
246.0
 20
93.2100829999999
 30
0.0
 11
246.0
 21
95.21008299999989
 31
0.0
  0
LINE
  5
4DE
330
1E
100
AcDbEntity
  8
0
100
AcDbLine
 10
247.468
 20
95.21008299999989
 30
0.0
 11
247.0
 21
95.21008299999989
 31
0.0
  0
LINE
  5
4DF
330
1E
100
AcDbEntity
  8
0
100
AcDbLine
 10
247.0
 20
95.21008299999989
 30
0.0
 11
246.0
 21
95.21008299999989
 31
0.0
  0
LINE
  5
4E0
330
1E
100
AcDbEntity
  8
0
100
AcDbLine
 10
234.5
 20
93.0100829999999
 30
0.0
 11
233.0
 21
92.4100829999999
 31
0.0
  0
ENDSEC
  0
SECTION
  2
OBJECTS
  0
DICTIONARY
  5
C
330
0
100
AcDbDictionary
281
     1
  3
ACAD_GROUP
350
D
  3
ACAD_LAYOUT
350
19
  3
ACAD_MLINESTYLE
350
16
  3
ACAD_PLOTSETTINGS
350
18
  3
ACAD_PLOTSTYLENAME
350
E
  3
AcDbVariableDictionary
350
4E1
  0
DICTIONARY
  5
D
102
{ACAD_REACTORS
330
C
102
}
330
C
100
AcDbDictionary
281
     1
  0
DICTIONARY
  5
19
102
{ACAD_REACTORS
330
C
102
}
330
C
100
AcDbDictionary
281
     1
  3
Layout1
350
1D
  3
Model
350
21
  0
DICTIONARY
  5
16
102
{ACAD_REACTORS
330
C
102
}
330
C
100
AcDbDictionary
281
     1
  3
Standard
350
17
  0
DICTIONARY
  5
18
102
{ACAD_REACTORS
330
C
102
}
330
C
100
AcDbDictionary
281
     1
  0
ACDBDICTIONARYWDFLT
  5
E
102
{ACAD_REACTORS
330
C
102
}
330
C
100
AcDbDictionary
281
     1
  3
Normal
350
F
100
AcDbDictionaryWithDefault
340
F
  0
DICTIONARY
  5
4E1
102
{ACAD_REACTORS
330
C
102
}
330
C
100
AcDbDictionary
281
     1
  3
DIMASSOC
350
4E2
  0
LAYOUT
  5
1D
102
{ACAD_REACTORS
330
19
102
}
330
19
100
AcDbPlotSettings
  1

  2
hp deskjet 980c series
  4

  6

 40
0.0
 41
0.0
 42
0.0
 43
0.0
 44
0.0
 45
0.0
 46
0.0
 47
0.0
 48
0.0
 49
0.0
140
0.0
141
0.0
142
1.0
143
1.0
 70
   688
 72
     0
 73
     0
 74
     5
  7

 75
    16
147
1.0
148
0.0
149
0.0
100
AcDbLayout
  1
Layout1
 70
     1
 71
     1
 10
0.0
 20
0.0
 11
12.0
 21
9.0
 12
0.0
 22
0.0
 32
0.0
 14
1.000000000000000E+20
 24
1.000000000000000E+20
 34
1.000000000000000E+20
 15
-1.000000000000000E+20
 25
-1.000000000000000E+20
 35
-1.000000000000000E+20
146
0.0
 13
0.0
 23
0.0
 33
0.0
 16
1.0
 26
0.0
 36
0.0
 17
0.0
 27
1.0
 37
0.0
 76
     0
330
1A
  0
LAYOUT
  5
21
102
{ACAD_REACTORS
330
19
102
}
330
19
100
AcDbPlotSettings
  1

  2
hp deskjet 980c series
  4

  6

 40
0.0
 41
0.0
 42
0.0
 43
0.0
 44
0.0
 45
0.0
 46
0.0
 47
0.0
 48
0.0
 49
0.0
140
0.0
141
0.0
142
1.0
143
1.0
 70
  1712
 72
     0
 73
     0
 74
     0
  7

 75
     0
147
1.0
148
0.0
149
0.0
100
AcDbLayout
  1
Model
 70
     1
 71
     0
 10
0.0
 20
0.0
 11
12.0
 21
9.0
 12
0.0
 22
0.0
 32
0.0
 14
0.0
 24
0.0
 34
0.0
 15
0.0
 25
0.0
 35
0.0
146
0.0
 13
0.0
 23
0.0
 33
0.0
 16
1.0
 26
0.0
 36
0.0
 17
0.0
 27
1.0
 37
0.0
 76
     0
330
1E
  0
MLINESTYLE
  5
17
102
{ACAD_REACTORS
330
16
102
}
330
16
100
AcDbMlineStyle
  2
STANDARD
 70
     0
  3

 62
   256
 51
90.0
 52
90.0
 71
     2
 49
0.5
 62
   256
  6
BYLAYER
 49
-0.5
 62
   256
  6
BYLAYER
  0
ACDBPLACEHOLDER
  5
F
102
{ACAD_REACTORS
330
E
102
}
330
E
  0
DICTIONARYVAR
  5
4E2
102
{ACAD_REACTORS
330
4E1
102
}
330
4E1
100
DictionaryVariables
280
     0
  1
1
  0
ENDSEC
  0
EOF
