  0
SECTION
  2
HEADER
  9
$ACADVER
  1
AC1014
  9
$ACADMAINTVER
 70
     9
  9
$DWGCODEPAGE
  3
ANSI_1252
  9
$INSBASE
 10
0.0
 20
0.0
 30
0.0
  9
$EXTMIN
 10
-0.143699999999999
 20
0.113000000000018
 30
0.0
  9
$EXTMAX
 10
51.1437
 20
142.887
 30
0.0
  9
$LIMMIN
 10
0.0
 20
0.0
  9
$LIMMAX
 10
12.0
 20
9.0
  9
$ORTHOMODE
 70
     0
  9
$REGENMODE
 70
     1
  9
$FILLMODE
 70
     1
  9
$QTEXTMODE
 70
     0
  9
$MIRRTEXT
 70
     1
  9
$DRAGMODE
 70
     2
  9
$LTSCALE
 40
1.0
  9
$OSMODE
 70
    37
  9
$ATTMODE
 70
     1
  9
$TEXTSIZE
 40
0.2
  9
$TRACEWID
 40
0.05
  9
$TEXTSTYLE
  7
STANDARD
  9
$CLAYER
  8
0
  9
$CELTYPE
  6
CONTINUOUS
  9
$CECOLOR
 62
   256
  9
$CELTSCALE
 40
1.0
  9
$DELOBJ
 70
     1
  9
$DISPSILH
 70
     0
  9
$DIMSCALE
 40
1.0
  9
$DIMASZ
 40
0.18
  9
$DIMEXO
 40
0.0625
  9
$DIMDLI
 40
0.38
  9
$DIMRND
 40
0.0
  9
$DIMDLE
 40
0.0
  9
$DIMEXE
 40
0.18
  9
$DIMTP
 40
0.0
  9
$DIMTM
 40
0.0
  9
$DIMTXT
 40
0.18
  9
$DIMCEN
 40
0.09
  9
$DIMTSZ
 40
0.0
  9
$DIMTOL
 70
     0
  9
$DIMLIM
 70
     0
  9
$DIMTIH
 70
     1
  9
$DIMTOH
 70
     1
  9
$DIMSE1
 70
     0
  9
$DIMSE2
 70
     0
  9
$DIMTAD
 70
     0
  9
$DIMZIN
 70
     0
  9
$DIMBLK
  1

  9
$DIMASO
 70
     1
  9
$DIMSHO
 70
     1
  9
$DIMPOST
  1

  9
$DIMAPOST
  1

  9
$DIMALT
 70
     0
  9
$DIMALTD
 70
     2
  9
$DIMALTF
 40
25.4
  9
$DIMLFAC
 40
1.0
  9
$DIMTOFL
 70
     0
  9
$DIMTVP
 40
0.0
  9
$DIMTIX
 70
     0
  9
$DIMSOXD
 70
     0
  9
$DIMSAH
 70
     0
  9
$DIMBLK1
  1

  9
$DIMBLK2
  1

  9
$DIMSTYLE
  2
STANDARD
  9
$DIMCLRD
 70
     0
  9
$DIMCLRE
 70
     0
  9
$DIMCLRT
 70
     0
  9
$DIMTFAC
 40
1.0
  9
$DIMGAP
 40
0.09
  9
$DIMJUST
 70
     0
  9
$DIMSD1
 70
     0
  9
$DIMSD2
 70
     0
  9
$DIMTOLJ
 70
     1
  9
$DIMTZIN
 70
     0
  9
$DIMALTZ
 70
     0
  9
$DIMALTTZ
 70
     0
  9
$DIMFIT
 70
     3
  9
$DIMUPT
 70
     0
  9
$DIMUNIT
 70
     2
  9
$DIMDEC
 70
     4
  9
$DIMTDEC
 70
     4
  9
$DIMALTU
 70
     2
  9
$DIMALTTD
 70
     2
  9
$DIMTXSTY
  7
STANDARD
  9
$DIMAUNIT
 70
     0
  9
$LUNITS
 70
     2
  9
$LUPREC
 70
     4
  9
$SKETCHINC
 40
0.1
  9
$FILLETRAD
 40
0.0
  9
$AUNITS
 70
     0
  9
$AUPREC
 70
     0
  9
$MENU
  1
.
  9
$ELEVATION
 40
0.0
  9
$PELEVATION
 40
0.0
  9
$THICKNESS
 40
0.0
  9
$LIMCHECK
 70
     0
  9
$BLIPMODE
 70
     0
  9
$CHAMFERA
 40
0.0
  9
$CHAMFERB
 40
0.0
  9
$CHAMFERC
 40
0.0
  9
$CHAMFERD
 40
0.0
  9
$SKPOLY
 70
     0
  9
$TDCREATE
 40
2454637.828386655
  9
$TDUPDATE
 40
2454687.531501007
  9
$TDINDWG
 40
0.0660769329
  9
$TDUSRTIMER
 40
0.0660769329
  9
$USRTIMER
 70
     1
  9
$ANGBASE
 50
0.0
  9
$ANGDIR
 70
     0
  9
$PDMODE
 70
     0
  9
$PDSIZE
 40
0.0
  9
$PLINEWID
 40
0.0
  9
$COORDS
 70
     1
  9
$SPLFRAME
 70
     0
  9
$SPLINETYPE
 70
     6
  9
$SPLINESEGS
 70
     8
  9
$ATTDIA
 70
     0
  9
$ATTREQ
 70
     1
  9
$HANDLING
 70
 22529
  9
$HANDSEED
  5
1BC
  9
$SURFTAB1
 70
     6
  9
$SURFTAB2
 70
     6
  9
$SURFTYPE
 70
     6
  9
$SURFU
 70
     6
  9
$SURFV
 70
     6
  9
$UCSNAME
  2

  9
$UCSORG
 10
0.0
 20
0.0
 30
0.0
  9
$UCSXDIR
 10
1.0
 20
0.0
 30
0.0
  9
$UCSYDIR
 10
0.0
 20
1.0
 30
0.0
  9
$PUCSNAME
  2

  9
$PUCSORG
 10
0.0
 20
0.0
 30
0.0
  9
$PUCSXDIR
 10
1.0
 20
0.0
 30
0.0
  9
$PUCSYDIR
 10
0.0
 20
1.0
 30
0.0
  9
$USERI1
 70
     0
  9
$USERI2
 70
     0
  9
$USERI3
 70
     0
  9
$USERI4
 70
     0
  9
$USERI5
 70
     0
  9
$USERR1
 40
0.0
  9
$USERR2
 40
0.0
  9
$USERR3
 40
0.0
  9
$USERR4
 40
0.0
  9
$USERR5
 40
0.0
  9
$WORLDVIEW
 70
     1
  9
$SHADEDGE
 70
     3
  9
$SHADEDIF
 70
    70
  9
$TILEMODE
 70
     1
  9
$MAXACTVP
 70
    64
  9
$PINSBASE
 10
0.0
 20
0.0
 30
0.0
  9
$PLIMCHECK
 70
     0
  9
$PEXTMIN
 10
1.000000000000000E+20
 20
1.000000000000000E+20
 30
1.000000000000000E+20
  9
$PEXTMAX
 10
-1.000000000000000E+20
 20
-1.000000000000000E+20
 30
-1.000000000000000E+20
  9
$PLIMMIN
 10
0.0
 20
0.0
  9
$PLIMMAX
 10
12.0
 20
9.0
  9
$UNITMODE
 70
     0
  9
$VISRETAIN
 70
     1
  9
$PLINEGEN
 70
     0
  9
$PSLTSCALE
 70
     1
  9
$TREEDEPTH
 70
  3020
  9
$PICKSTYLE
 70
     1
  9
$CMLSTYLE
  2
STANDARD
  9
$CMLJUST
 70
     0
  9
$CMLSCALE
 40
1.0
  9
$PROXYGRAPHICS
 70
     1
  9
$MEASUREMENT
 70
     0
  0
ENDSEC
  0
SECTION
  2
CLASSES
  0
CLASS
  1
ACDBDICTIONARYWDFLT
  2
AcDbDictionaryWithDefault
  3
AutoCAD 2000
 90
        0
280
     0
281
     0
  0
CLASS
  1
ACDBPLACEHOLDER
  2
AcDbPlaceHolder
  3
AutoCAD 2000
 90
        0
280
     0
281
     0
  0
CLASS
  1
LAYOUT
  2
AcDbLayout
  3
AutoCAD 2000
 90
        0
280
     0
281
     0
  0
CLASS
  1
DICTIONARYVAR
  2
AcDbDictionaryVar
  3
AutoCAD 2000
 90
        0
280
     0
281
     0
  0
CLASS
  1
LONG_TRANSACTION
  2
AcDbLongTransaction
  3
AutoCAD 2000
 90
        0
280
     0
281
     0
  0
CLASS
  1
LWPOLYLINE
  2
AcDbPolyline
  3
AutoCAD 2000
 90
        0
280
     0
281
     1
  0
CLASS
  1
HATCH
  2
AcDbHatch
  3
AutoCAD 2000
 90
        0
280
     0
281
     1
  0
CLASS
  1
XRECORD
  2
AcDbXrecord
  3
AutoCAD 2000
 90
        0
280
     0
281
     0
  0
ENDSEC
  0
SECTION
  2
TABLES
  0
TABLE
  2
VPORT
  5
8
330
0
100
AcDbSymbolTable
 70
     2
  0
VPORT
  5
197
330
8
100
AcDbSymbolTableRecord
100
AcDbViewportTableRecord
  2
*ACTIVE
 70
     0
 10
0.0
 20
0.0
 11
1.0
 21
1.0
 12
25.5
 22
71.5
 13
0.0
 23
0.0
 14
1.0
 24
1.0
 15
0.0
 25
0.0
 16
0.0
 26
0.0
 36
1.0
 17
0.0
 27
0.0
 37
0.0
 40
143.8694526854219
 41
2.043533930857874
 42
50.0
 43
0.0
 44
0.0
 50
0.0
 51
0.0
 71
     0
 72
   100
 73
     1
 74
     3
 75
     0
 76
     0
 77
     0
 78
     0
  0
ENDTAB
  0
TABLE
  2
LTYPE
  5
5
330
0
100
AcDbSymbolTable
 70
     1
  0
LTYPE
  5
13
330
5
100
AcDbSymbolTableRecord
100
AcDbLinetypeTableRecord
  2
BYBLOCK
 70
     0
  3

 72
    65
 73
     0
 40
0.0
  0
LTYPE
  5
14
330
5
100
AcDbSymbolTableRecord
100
AcDbLinetypeTableRecord
  2
BYLAYER
 70
     0
  3

 72
    65
 73
     0
 40
0.0
  0
LTYPE
  5
15
330
5
100
AcDbSymbolTableRecord
100
AcDbLinetypeTableRecord
  2
CONTINUOUS
 70
     0
  3
Solid line
 72
    65
 73
     0
 40
0.0
  0
ENDTAB
  0
TABLE
  2
LAYER
  5
2
330
0
100
AcDbSymbolTable
 70
     1
  0
LAYER
  5
10
330
2
100
AcDbSymbolTableRecord
100
AcDbLayerTableRecord
  2
0
 70
     0
 62
     7
  6
CONTINUOUS
  0
ENDTAB
  0
TABLE
  2
STYLE
  5
3
330
0
100
AcDbSymbolTable
 70
     1
  0
STYLE
  5
11
330
3
100
AcDbSymbolTableRecord
100
AcDbTextStyleTableRecord
  2
STANDARD
 70
     0
 40
0.0
 41
1.0
 50
0.0
 71
     0
 42
0.2
  3
txt
  4

  0
ENDTAB
  0
TABLE
  2
VIEW
  5
6
330
0
100
AcDbSymbolTable
 70
     0
  0
ENDTAB
  0
TABLE
  2
UCS
  5
7
330
0
100
AcDbSymbolTable
 70
     0
  0
ENDTAB
  0
TABLE
  2
APPID
  5
9
330
0
100
AcDbSymbolTable
 70
     1
  0
APPID
  5
12
330
9
100
AcDbSymbolTableRecord
100
AcDbRegAppTableRecord
  2
ACAD
 70
     0
  0
ENDTAB
  0
TABLE
  2
DIMSTYLE
  5
A
330
0
100
AcDbSymbolTable
 70
     1
  0
DIMSTYLE
105
189
330
A
100
AcDbSymbolTableRecord
100
AcDbDimStyleTableRecord
  2
STANDARD
 70
     0
  3

  4

  5

  6

  7

 40
1.0
 41
0.18
 42
0.0625
 43
0.38
 44
0.18
 45
0.0
 46
0.0
 47
0.0
 48
0.0
140
0.18
141
0.09
142
0.0
143
25.4
144
1.0
145
0.0
146
1.0
147
0.09
 71
     0
 72
     0
 73
     1
 74
     1
 75
     0
 76
     0
 77
     0
 78
     0
170
     0
171
     2
172
     0
173
     0
174
     0
175
     0
176
     0
177
     0
178
     0
270
     2
271
     4
272
     4
273
     2
274
     2
340
11
275
     0
280
     0
281
     0
282
     0
283
     1
284
     0
285
     0
286
     0
287
     3
288
     0
  0
ENDTAB
  0
TABLE
  2
BLOCK_RECORD
  5
1
330
0
100
AcDbSymbolTable
 70
     0
  0
BLOCK_RECORD
  5
1E
102
{ACAD_XDICTIONARY
360
1BA
102
}
330
1
100
AcDbSymbolTableRecord
100
AcDbBlockTableRecord
  2
*MODEL_SPACE
  0
BLOCK_RECORD
  5
1A
102
{ACAD_XDICTIONARY
360
1B8
102
}
330
1
100
AcDbSymbolTableRecord
100
AcDbBlockTableRecord
  2
*PAPER_SPACE
  0
ENDTAB
  0
ENDSEC
  0
SECTION
  2
BLOCKS
  0
BLOCK
  5
1F
330
1E
100
AcDbEntity
  8
0
100
AcDbBlockBegin
  2
*MODEL_SPACE
 70
     0
 10
0.0
 20
0.0
 30
0.0
  3
*MODEL_SPACE
  1

  0
ENDBLK
  5
20
330
1E
100
AcDbEntity
  8
0
100
AcDbBlockEnd
  0
BLOCK
  5
1B
330
1A
100
AcDbEntity
 67
     1
  8
0
100
AcDbBlockBegin
  2
*PAPER_SPACE
 70
     0
 10
0.0
 20
0.0
 30
0.0
  3
*PAPER_SPACE
  1

  0
ENDBLK
  5
1C
330
1A
100
AcDbEntity
 67
     1
  8
0
100
AcDbBlockEnd
  0
ENDSEC
  0
SECTION
  2
ENTITIES
  0
LINE
  5
22
330
1E
100
AcDbEntity
  8
0
100
AcDbLine
 10
4.774329999999999
 20
91.11299999999999
 30
0.0
 11
8.80868095238096
 21
91.11299999999999
 31
0.0
  0
LINE
  5
23
330
1E
100
AcDbEntity
  8
0
100
AcDbLine
 10
3.544819999999998
 20
91.52280000000001
 30
0.0
 11
4.774329999999999
 21
91.35890000000001
 31
0.0
  0
LINE
  5
24
330
1E
100
AcDbEntity
  8
0
100
AcDbLine
 10
0.0202340000000013
 20
94.8015
 30
0.0
 11
0.5120380000000022
 21
93.572
 31
0.0
  0
LINE
  5
25
330
1E
100
AcDbEntity
  8
0
100
AcDbLine
 10
0.7579390000000012
 20
93.7359
 30
0.0
 11
1.495639999999999
 21
92.7523
 31
0.0
  0
LINE
  5
26
330
1E
100
AcDbEntity
  8
0
100
AcDbLine
 10
0.266136000000001
 20
94.8015
 30
0.0
 11
0.7579390000000012
 21
93.7359
 31
0.0
  0
LINE
  5
27
330
1E
100
AcDbEntity
  8
0
100
AcDbLine
 10
0.102202000000001
 20
96.03100000000001
 30
0.0
 11
0.102202000000001
 21
116.1129999999999
 31
0.0
  0
LINE
  5
28
330
1E
100
AcDbEntity
  8
0
100
AcDbLine
 10
0.102202000000001
 20
96.03100000000001
 30
0.0
 11
0.266136000000001
 21
94.8015
 31
0.0
  0
LINE
  5
29
330
1E
100
AcDbEntity
  8
0
100
AcDbLine
 10
0.5120380000000022
 20
93.572
 30
0.0
 11
1.331709999999999
 21
92.58839999999999
 31
0.0
  0
LINE
  5
2A
330
1E
100
AcDbEntity
  8
0
100
AcDbLine
 10
0.0202340000000014
 20
94.8015
 30
0.0
 11
0.5120380000000022
 21
93.572
 31
0.0
  0
LINE
  5
2B
330
1E
100
AcDbEntity
  8
0
100
AcDbLine
 10
0.102202000000001
 20
116.1129999999999
 30
0.0
 11
0.102202000000001
 21
96.03100000000001
 31
0.0
  0
LINE
  5
2C
330
1E
100
AcDbEntity
  8
0
100
AcDbLine
 10
0.102202000000001
 20
116.1129999999999
 30
0.0
 11
0.102202000000001
 21
136.1949999999999
 31
0.0
  0
LINE
  5
2D
330
1E
100
AcDbEntity
  8
0
100
AcDbLine
 10
-0.143699999999999
 20
116.1129999999999
 30
0.0
 11
-0.143699999999999
 21
96.03100000000001
 31
0.0
  0
LINE
  5
2E
330
1E
100
AcDbEntity
  8
0
100
AcDbLine
 10
-0.143699999999999
 20
116.1129999999999
 30
0.0
 11
-0.143699999999999
 21
136.1949999999999
 31
0.0
  0
LINE
  5
2F
330
1E
100
AcDbEntity
  8
0
100
AcDbLine
 10
-0.143699999999999
 20
96.03100000000001
 30
0.0
 11
-0.143699999999999
 21
116.1129999999999
 31
0.0
  0
LINE
  5
30
330
1E
100
AcDbEntity
  8
0
100
AcDbLine
 10
-0.143699999999999
 20
96.03100000000001
 30
0.0
 11
0.0202340000000014
 21
94.8015
 31
0.0
  0
LINE
  5
31
330
1E
100
AcDbEntity
  8
0
100
AcDbLine
 10
-0.143699999999999
 20
96.03100000000001
 30
0.0
 11
0.0202340000000014
 21
94.8015
 31
0.0
  0
LINE
  5
32
330
1E
100
AcDbEntity
  8
0
100
AcDbLine
 10
1.495639999999999
 20
92.7523
 30
0.0
 11
2.479249999999999
 21
92.0146
 31
0.0
  0
LINE
  5
33
330
1E
100
AcDbEntity
  8
0
100
AcDbLine
 10
2.479249999999999
 20
92.0146
 30
0.0
 11
3.544819999999998
 21
91.52280000000001
 31
0.0
  0
LINE
  5
34
330
1E
100
AcDbEntity
  8
0
100
AcDbLine
 10
1.331709999999999
 20
92.58839999999999
 30
0.0
 11
2.31532
 21
91.76869999999999
 31
0.0
  0
LINE
  5
35
330
1E
100
AcDbEntity
  8
0
100
AcDbLine
 10
2.31532
 20
91.76869999999999
 30
0.0
 11
3.544819999999998
 21
91.27689999999999
 31
0.0
  0
LINE
  5
36
330
1E
100
AcDbEntity
  8
0
100
AcDbLine
 10
4.774329999999999
 20
91.35890000000001
 30
0.0
 11
8.799313333333337
 21
91.35890000000001
 31
0.0
  0
LINE
  5
37
330
1E
100
AcDbEntity
  8
0
100
AcDbLine
 10
7.8563
 20
115.246
 30
0.0
 11
7.99171
 21
113.595
 31
0.0
  0
LINE
  5
38
330
1E
100
AcDbEntity
  8
0
100
AcDbLine
 10
7.8563
 20
115.246
 30
0.0
 11
7.8563
 21
116.1129999999999
 31
0.0
  0
LINE
  5
39
330
1E
100
AcDbEntity
  8
0
100
AcDbLine
 10
6.2563
 20
111.0129999999999
 30
0.0
 11
8.156299999999998
 21
106.413
 31
0.0
  0
LINE
  5
3A
330
1E
100
AcDbEntity
  8
0
100
AcDbLine
 10
5.7563
 20
116.1129999999999
 30
0.0
 11
6.2563
 21
121.2129999999999
 31
0.0
  0
LINE
  5
3B
330
1E
100
AcDbEntity
  8
0
100
AcDbLine
 10
5.7563
 20
116.1129999999999
 30
0.0
 11
6.2563
 21
111.0129999999999
 31
0.0
  0
LINE
  5
3C
330
1E
100
AcDbEntity
  8
0
100
AcDbLine
 10
4.774329999999999
 20
91.35890000000001
 30
0.0
 11
8.799313333333337
 21
91.35890000000001
 31
0.0
  0
LINE
  5
3D
330
1E
100
AcDbEntity
  8
0
100
AcDbLine
 10
3.544819999999998
 20
91.27689999999999
 30
0.0
 11
4.774329999999999
 21
91.11299999999999
 31
0.0
  0
LINE
  5
3E
330
1E
100
AcDbEntity
  8
0
100
AcDbLine
 10
4.774329999999999
 20
91.11299999999999
 30
0.0
 11
8.808680952380949
 21
91.11299999999999
 31
0.0
  0
LINE
  5
40
330
1E
100
AcDbEntity
  8
0
100
AcDbLine
 10
0.102202000000001
 20
136.1949999999999
 30
0.0
 11
0.266136000000001
 21
137.424
 31
0.0
  0
LINE
  5
41
330
1E
100
AcDbEntity
  8
0
100
AcDbLine
 10
0.102202000000001
 20
136.1949999999999
 30
0.0
 11
0.102202000000001
 21
116.1129999999999
 31
0.0
  0
LINE
  5
42
330
1E
100
AcDbEntity
  8
0
100
AcDbLine
 10
0.0202340000000013
 20
137.424
 30
0.0
 11
0.5120380000000022
 21
138.6539999999999
 31
0.0
  0
LINE
  5
43
330
1E
100
AcDbEntity
  8
0
100
AcDbLine
 10
0.7579390000000012
 20
138.49
 30
0.0
 11
1.495639999999999
 21
139.4739999999998
 31
0.0
  0
LINE
  5
44
330
1E
100
AcDbEntity
  8
0
100
AcDbLine
 10
0.266136000000001
 20
137.424
 30
0.0
 11
0.7579390000000012
 21
138.49
 31
0.0
  0
LINE
  5
45
330
1E
100
AcDbEntity
  8
0
100
AcDbLine
 10
0.5120380000000022
 20
138.6539999999999
 30
0.0
 11
1.331709999999999
 21
139.638
 31
0.0
  0
LINE
  5
46
330
1E
100
AcDbEntity
  8
0
100
AcDbLine
 10
0.0202340000000014
 20
137.424
 30
0.0
 11
0.5120380000000022
 21
138.6539999999999
 31
0.0
  0
LINE
  5
47
330
1E
100
AcDbEntity
  8
0
100
AcDbLine
 10
-0.143699999999999
 20
136.1949999999999
 30
0.0
 11
-0.143699999999999
 21
116.1129999999999
 31
0.0
  0
LINE
  5
48
330
1E
100
AcDbEntity
  8
0
100
AcDbLine
 10
-0.143699999999999
 20
136.1949999999999
 30
0.0
 11
0.0202340000000014
 21
137.424
 31
0.0
  0
LINE
  5
49
330
1E
100
AcDbEntity
  8
0
100
AcDbLine
 10
-0.143699999999999
 20
136.1949999999999
 30
0.0
 11
0.0202340000000014
 21
137.424
 31
0.0
  0
LINE
  5
4A
330
1E
100
AcDbEntity
  8
0
100
AcDbLine
 10
1.495639999999999
 20
139.4739999999998
 30
0.0
 11
2.479249999999999
 21
140.211
 31
0.0
  0
LINE
  5
4B
330
1E
100
AcDbEntity
  8
0
100
AcDbLine
 10
2.479249999999999
 20
140.211
 30
0.0
 11
3.544819999999998
 21
140.7029999999999
 31
0.0
  0
LINE
  5
4C
330
1E
100
AcDbEntity
  8
0
100
AcDbLine
 10
1.331709999999999
 20
139.638
 30
0.0
 11
2.31532
 21
140.4569999999999
 31
0.0
  0
LINE
  5
4D
330
1E
100
AcDbEntity
  8
0
100
AcDbLine
 10
3.544819999999998
 20
140.7029999999999
 30
0.0
 11
4.774329999999999
 21
140.867
 31
0.0
  0
LINE
  5
4E
330
1E
100
AcDbEntity
  8
0
100
AcDbLine
 10
2.31532
 20
140.4569999999999
 30
0.0
 11
3.544819999999998
 21
140.9489999999999
 31
0.0
  0
LINE
  5
4F
330
1E
100
AcDbEntity
  8
0
100
AcDbLine
 10
4.774329999999999
 20
140.867
 30
0.0
 11
24.8563
 21
140.867
 31
0.0
  0
LINE
  5
50
330
1E
100
AcDbEntity
  8
0
100
AcDbLine
 10
4.774329999999999
 20
141.1129999999999
 30
0.0
 11
24.8563
 21
141.1129999999999
 31
0.0
  0
LINE
  5
51
330
1E
100
AcDbEntity
  8
0
100
AcDbLine
 10
4.774329999999999
 20
140.867
 30
0.0
 11
24.8563
 21
140.867
 31
0.0
  0
LINE
  5
52
330
1E
100
AcDbEntity
  8
0
100
AcDbLine
 10
3.544819999999998
 20
140.9489999999999
 30
0.0
 11
4.774329999999999
 21
141.1129999999999
 31
0.0
  0
LINE
  5
53
330
1E
100
AcDbEntity
  8
0
100
AcDbLine
 10
4.774329999999999
 20
141.1129999999999
 30
0.0
 11
24.8563
 21
141.1129999999999
 31
0.0
  0
LINE
  5
54
330
1E
100
AcDbEntity
  8
0
100
AcDbLine
 10
7.8563
 20
116.7729999999999
 30
0.0
 11
8.34201
 21
120.977
 31
0.0
  0
LINE
  5
55
330
1E
100
AcDbEntity
  8
0
100
AcDbLine
 10
7.8563
 20
116.7729999999999
 30
0.0
 11
7.8563
 21
116.1129999999999
 31
0.0
  0
LINE
  5
57
330
1E
100
AcDbEntity
  8
0
100
AcDbLine
 10
6.2563
 20
121.2129999999999
 30
0.0
 11
8.156299999999998
 21
125.8129999999999
 31
0.0
  0
LINE
  5
58
330
1E
100
AcDbEntity
  8
0
100
AcDbLine
 10
7.8563
 20
116.1129999999999
 30
0.0
 11
7.8563
 21
116.7729999999999
 31
0.0
  0
LINE
  5
59
330
1E
100
AcDbEntity
  8
0
100
AcDbLine
 10
7.8563
 20
116.1129999999999
 30
0.0
 11
7.8563
 21
115.246
 31
0.0
  0
LINE
  5
5A
330
1E
100
AcDbEntity
  8
0
100
AcDbLine
 10
10.85629999999998
 20
0.6130000000000191
 30
0.0
 11
10.85629999999998
 21
9.613000000000019
 31
0.0
  0
LINE
  5
5B
330
1E
100
AcDbEntity
  8
0
100
AcDbLine
 10
10.85629999999998
 20
0.6130000000000191
 30
0.0
 11
11.35629999999999
 21
0.113000000000019
 31
0.0
  0
LINE
  5
5C
330
1E
100
AcDbEntity
  8
0
100
AcDbLine
 10
10.85629999999998
 20
0.6130000000000191
 30
0.0
 11
11.35629999999999
 21
0.6130000000000201
 31
0.0
  0
LINE
  5
5D
330
1E
100
AcDbEntity
  8
0
100
AcDbLine
 10
10.85629999999998
 20
9.613000000000019
 30
0.0
 11
11.85629999999999
 21
10.113
 31
0.0
  0
LINE
  5
5E
330
1E
100
AcDbEntity
  8
0
100
AcDbLine
 10
10.85629999999998
 20
9.613000000000019
 30
0.0
 11
11.35629999999999
 21
9.613000000000019
 31
0.0
  0
LINE
  5
5F
330
1E
100
AcDbEntity
  8
0
100
AcDbLine
 10
10.85629999999998
 20
9.613000000000019
 30
0.0
 11
10.85629999999998
 21
0.6130000000000201
 31
0.0
  0
LINE
  5
60
330
1E
100
AcDbEntity
  8
0
100
AcDbLine
 10
10.85629999999998
 20
10.61299999999999
 30
0.0
 11
10.85629999999998
 21
24.113
 31
0.0
  0
LINE
  5
61
330
1E
100
AcDbEntity
  8
0
100
AcDbLine
 10
10.85629999999998
 20
10.61299999999999
 30
0.0
 11
11.85629999999999
 21
10.113
 31
0.0
  0
LINE
  5
62
330
1E
100
AcDbEntity
  8
0
100
AcDbLine
 10
10.85629999999998
 20
10.61299999999999
 30
0.0
 11
11.35629999999999
 21
10.61299999999999
 31
0.0
  0
LINE
  5
63
330
1E
100
AcDbEntity
  8
0
100
AcDbLine
 10
10.85629999999998
 20
32.113
 30
0.0
 11
10.85629999999998
 21
30.613
 31
0.0
  0
LINE
  5
64
330
1E
100
AcDbEntity
  8
0
100
AcDbLine
 10
10.85629999999998
 20
32.113
 30
0.0
 11
10.85629999999998
 21
36.97169999999999
 31
0.0
  0
LINE
  5
65
330
1E
100
AcDbEntity
  8
0
100
AcDbLine
 10
10.85629999999998
 20
24.113
 30
0.0
 11
11.35629999999999
 21
26.113
 31
0.0
  0
LINE
  5
66
330
1E
100
AcDbEntity
  8
0
100
AcDbLine
 10
10.85629999999998
 20
24.113
 30
0.0
 11
10.85629999999998
 21
10.61299999999999
 31
0.0
  0
LINE
  5
67
330
1E
100
AcDbEntity
  8
0
100
AcDbLine
 10
11.35629999999999
 20
0.6130000000000201
 30
0.0
 11
12.7563
 21
0.6130000000000201
 31
0.0
  0
LINE
  5
68
330
1E
100
AcDbEntity
  8
0
100
AcDbLine
 10
11.35629999999999
 20
9.613000000000019
 30
0.0
 11
12.7563
 21
9.613000000000019
 31
0.0
  0
LINE
  5
69
330
1E
100
AcDbEntity
  8
0
100
AcDbLine
 10
11.35629999999999
 20
10.61299999999999
 30
0.0
 11
12.7563
 21
10.61299999999999
 31
0.0
  0
LINE
  5
6A
330
1E
100
AcDbEntity
  8
0
100
AcDbLine
 10
11.35629999999999
 20
0.113000000000019
 30
0.0
 11
11.85629999999999
 21
0.113000000000019
 31
0.0
  0
LINE
  5
6B
330
1E
100
AcDbEntity
  8
0
100
AcDbLine
 10
11.35629999999999
 20
0.113000000000019
 30
0.0
 11
11.85629999999999
 21
0.113000000000019
 31
0.0
  0
LINE
  5
6C
330
1E
100
AcDbEntity
  8
0
100
AcDbLine
 10
11.85629999999999
 20
0.113000000000019
 30
0.0
 11
13.1563
 21
0.11300000000002
 31
0.0
  0
LINE
  5
6D
330
1E
100
AcDbEntity
  8
0
100
AcDbLine
 10
11.85629999999999
 20
10.113
 30
0.0
 11
12.3563
 21
10.113
 31
0.0
  0
LINE
  5
6E
330
1E
100
AcDbEntity
  8
0
100
AcDbLine
 10
11.85629999999999
 20
0.113000000000019
 30
0.0
 11
13.1563
 21
0.113000000000019
 31
0.0
  0
LINE
  5
6F
330
1E
100
AcDbEntity
  8
0
100
AcDbLine
 10
11.35629999999999
 20
26.113
 30
0.0
 11
12.8563
 21
28.613
 31
0.0
  0
LINE
  5
70
330
1E
100
AcDbEntity
  8
0
100
AcDbLine
 10
12.3563
 20
10.113
 30
0.0
 11
13.5563
 21
10.113
 31
0.0
  0
LINE
  5
71
330
1E
100
AcDbEntity
  8
0
100
AcDbLine
 10
12.3563
 20
0.113000000000019
 30
0.0
 11
12.8563
 21
0.113000000000019
 31
0.0
  0
LINE
  5
72
330
1E
100
AcDbEntity
  8
0
100
AcDbLine
 10
12.3563
 20
0.113000000000019
 30
0.0
 11
12.8563
 21
0.113000000000019
 31
0.0
  0
LINE
  5
73
330
1E
100
AcDbEntity
  8
0
100
AcDbLine
 10
12.7563
 20
0.6130000000000201
 30
0.0
 11
14.9563
 21
0.6130000000000201
 31
0.0
  0
LINE
  5
74
330
1E
100
AcDbEntity
  8
0
100
AcDbLine
 10
12.7563
 20
9.613000000000019
 30
0.0
 11
14.9563
 21
9.613000000000019
 31
0.0
  0
LINE
  5
75
330
1E
100
AcDbEntity
  8
0
100
AcDbLine
 10
12.8563
 20
0.113000000000019
 30
0.0
 11
14.0563
 21
0.11300000000002
 31
0.0
  0
LINE
  5
76
330
1E
100
AcDbEntity
  8
0
100
AcDbLine
 10
13.1563
 20
0.11300000000002
 30
0.0
 11
15.3563
 21
0.11300000000002
 31
0.0
  0
LINE
  5
77
330
1E
100
AcDbEntity
  8
0
100
AcDbLine
 10
12.7563
 20
10.61299999999999
 30
0.0
 11
14.9563
 21
10.61299999999999
 31
0.0
  0
LINE
  5
78
330
1E
100
AcDbEntity
  8
0
100
AcDbLine
 10
12.8563
 20
0.113000000000019
 30
0.0
 11
14.0563
 21
0.113000000000019
 31
0.0
  0
LINE
  5
79
330
1E
100
AcDbEntity
  8
0
100
AcDbLine
 10
14.0563
 20
0.11300000000002
 30
0.0
 11
16.0563
 21
0.11300000000002
 31
0.0
  0
LINE
  5
7A
330
1E
100
AcDbEntity
  8
0
100
AcDbLine
 10
13.5563
 20
10.113
 30
0.0
 11
15.6563
 21
10.113
 31
0.0
  0
LINE
  5
7B
330
1E
100
AcDbEntity
  8
0
100
AcDbLine
 10
14.0563
 20
0.113000000000019
 30
0.0
 11
16.0563
 21
0.113000000000019
 31
0.0
  0
LINE
  5
7C
330
1E
100
AcDbEntity
  8
0
100
AcDbLine
 10
13.1563
 20
0.113000000000019
 30
0.0
 11
15.3563
 21
0.113000000000019
 31
0.0
  0
LINE
  5
7D
330
1E
100
AcDbEntity
  8
0
100
AcDbLine
 10
12.8563
 20
28.613
 30
0.0
 11
14.35629999999999
 21
30.113
 31
0.0
  0
LINE
  5
7E
330
1E
100
AcDbEntity
  8
0
100
AcDbLine
 10
15.3563
 20
0.11300000000002
 30
0.0
 11
18.1563
 21
0.11300000000002
 31
0.0
  0
LINE
  5
7F
330
1E
100
AcDbEntity
  8
0
100
AcDbLine
 10
14.9563
 20
0.6130000000000201
 30
0.0
 11
17.8563
 21
0.6130000000000201
 31
0.0
  0
LINE
  5
80
330
1E
100
AcDbEntity
  8
0
100
AcDbLine
 10
14.9563
 20
9.613000000000019
 30
0.0
 11
17.8563
 21
9.613000000000019
 31
0.0
  0
LINE
  5
81
330
1E
100
AcDbEntity
  8
0
100
AcDbLine
 10
16.0563
 20
0.11300000000002
 30
0.0
 11
18.6563
 21
0.11300000000002
 31
0.0
  0
LINE
  5
82
330
1E
100
AcDbEntity
  8
0
100
AcDbLine
 10
15.6563
 20
10.113
 30
0.0
 11
18.3563
 21
10.113
 31
0.0
  0
LINE
  5
83
330
1E
100
AcDbEntity
  8
0
100
AcDbLine
 10
16.0563
 20
30.113
 30
0.0
 11
18.6563
 21
30.113
 31
0.0
  0
LINE
  5
84
330
1E
100
AcDbEntity
  8
0
100
AcDbLine
 10
14.9563
 20
10.61299999999999
 30
0.0
 11
17.8563
 21
10.61299999999999
 31
0.0
  0
LINE
  5
85
330
1E
100
AcDbEntity
  8
0
100
AcDbLine
 10
17.8563
 20
0.6130000000000201
 30
0.0
 11
21.2563
 21
0.6130000000000201
 31
0.0
  0
LINE
  5
86
330
1E
100
AcDbEntity
  8
0
100
AcDbLine
 10
18.1563
 20
0.11300000000002
 30
0.0
 11
21.3563
 21
0.11300000000002
 31
0.0
  0
LINE
  5
87
330
1E
100
AcDbEntity
  8
0
100
AcDbLine
 10
17.8563
 20
9.613000000000019
 30
0.0
 11
21.2563
 21
9.613000000000019
 31
0.0
  0
LINE
  5
88
330
1E
100
AcDbEntity
  8
0
100
AcDbLine
 10
17.8563
 20
10.61299999999999
 30
0.0
 11
21.2563
 21
10.61299999999999
 31
0.0
  0
LINE
  5
89
330
1E
100
AcDbEntity
  8
0
100
AcDbLine
 10
16.0563
 20
0.113000000000019
 30
0.0
 11
18.6563
 21
0.113000000000019
 31
0.0
  0
LINE
  5
8A
330
1E
100
AcDbEntity
  8
0
100
AcDbLine
 10
15.3563
 20
0.113000000000019
 30
0.0
 11
18.1563
 21
0.113000000000019
 31
0.0
  0
LINE
  5
8B
330
1E
100
AcDbEntity
  8
0
100
AcDbLine
 10
18.6563
 20
0.11300000000002
 30
0.0
 11
21.6563
 21
0.11300000000002
 31
0.0
  0
LINE
  5
8C
330
1E
100
AcDbEntity
  8
0
100
AcDbLine
 10
21.2563
 20
0.6130000000000201
 30
0.0
 11
24.8563
 21
0.6130000000000201
 31
0.0
  0
LINE
  5
8D
330
1E
100
AcDbEntity
  8
0
100
AcDbLine
 10
21.2563
 20
9.613000000000019
 30
0.0
 11
24.8563
 21
9.613000000000019
 31
0.0
  0
LINE
  5
8E
330
1E
100
AcDbEntity
  8
0
100
AcDbLine
 10
18.3563
 20
10.113
 30
0.0
 11
21.55629999999999
 21
10.113
 31
0.0
  0
LINE
  5
8F
330
1E
100
AcDbEntity
  8
0
100
AcDbLine
 10
21.3563
 20
0.11300000000002
 30
0.0
 11
24.8563
 21
0.11300000000002
 31
0.0
  0
LINE
  5
90
330
1E
100
AcDbEntity
  8
0
100
AcDbLine
 10
21.2563
 20
10.61299999999999
 30
0.0
 11
24.8563
 21
10.61299999999999
 31
0.0
  0
LINE
  5
91
330
1E
100
AcDbEntity
  8
0
100
AcDbLine
 10
18.6563
 20
0.113000000000019
 30
0.0
 11
21.6563
 21
0.113000000000019
 31
0.0
  0
LINE
  5
92
330
1E
100
AcDbEntity
  8
0
100
AcDbLine
 10
18.1563
 20
0.113000000000019
 30
0.0
 11
21.3563
 21
0.113000000000018
 31
0.0
  0
LINE
  5
93
330
1E
100
AcDbEntity
  8
0
100
AcDbLine
 10
21.3563
 20
0.113000000000018
 30
0.0
 11
24.8563
 21
0.113000000000018
 31
0.0
  0
LINE
  5
94
330
1E
100
AcDbEntity
  8
0
100
AcDbLine
 10
14.0563
 20
30.113
 30
0.0
 11
14.35629999999999
 21
30.113
 31
0.0
  0
LINE
  5
95
330
1E
100
AcDbEntity
  8
0
100
AcDbLine
 10
14.0563
 20
30.113
 30
0.0
 11
16.0563
 21
30.113
 31
0.0
  0
LINE
  5
96
330
1E
100
AcDbEntity
  8
0
100
AcDbLine
 10
12.8563
 20
30.113
 30
0.0
 11
14.0563
 21
30.113
 31
0.0
  0
LINE
  5
97
330
1E
100
AcDbEntity
  8
0
100
AcDbLine
 10
12.3563
 20
30.113
 30
0.0
 11
12.8563
 21
30.113
 31
0.0
  0
LINE
  5
98
330
1E
100
AcDbEntity
  8
0
100
AcDbLine
 10
13.1563
 20
30.113
 30
0.0
 11
14.35629999999999
 21
30.113
 31
0.0
  0
LINE
  5
99
330
1E
100
AcDbEntity
  8
0
100
AcDbLine
 10
13.1563
 20
30.113
 30
0.0
 11
15.3563
 21
30.113
 31
0.0
  0
LINE
  5
9A
330
1E
100
AcDbEntity
  8
0
100
AcDbLine
 10
11.85629999999999
 20
30.113
 30
0.0
 11
13.1563
 21
30.113
 31
0.0
  0
LINE
  5
9B
330
1E
100
AcDbEntity
  8
0
100
AcDbLine
 10
18.6563
 20
30.113
 30
0.0
 11
21.6563
 21
30.113
 31
0.0
  0
LINE
  5
9C
330
1E
100
AcDbEntity
  8
0
100
AcDbLine
 10
15.3563
 20
30.113
 30
0.0
 11
18.1563
 21
30.113
 31
0.0
  0
LINE
  5
9D
330
1E
100
AcDbEntity
  8
0
100
AcDbLine
 10
18.1563
 20
30.113
 30
0.0
 11
21.3563
 21
30.113
 31
0.0
  0
LINE
  5
9E
330
1E
100
AcDbEntity
  8
0
100
AcDbLine
 10
14.9563
 20
30.613
 30
0.0
 11
17.8563
 21
30.613
 31
0.0
  0
LINE
  5
9F
330
1E
100
AcDbEntity
  8
0
100
AcDbLine
 10
17.8563
 20
30.613
 30
0.0
 11
21.2563
 21
30.613
 31
0.0
  0
LINE
  5
A0
330
1E
100
AcDbEntity
  8
0
100
AcDbLine
 10
21.3563
 20
30.113
 30
0.0
 11
24.8563
 21
30.113
 31
0.0
  0
LINE
  5
A1
330
1E
100
AcDbEntity
  8
0
100
AcDbLine
 10
21.2563
 20
30.613
 30
0.0
 11
24.8563
 21
30.613
 31
0.0
  0
LINE
  5
A2
330
1E
100
AcDbEntity
  8
0
100
AcDbLine
 10
12.7563
 20
30.613
 30
0.0
 11
14.9563
 21
30.613
 31
0.0
  0
LINE
  5
A3
330
1E
100
AcDbEntity
  8
0
100
AcDbLine
 10
11.35629999999999
 20
30.613
 30
0.0
 11
12.7563
 21
30.613
 31
0.0
  0
LINE
  5
A4
330
1E
100
AcDbEntity
  8
0
100
AcDbLine
 10
11.35629999999999
 20
30.113
 30
0.0
 11
11.85629999999999
 21
30.113
 31
0.0
  0
LINE
  5
A5
330
1E
100
AcDbEntity
  8
0
100
AcDbLine
 10
10.85629999999998
 20
30.613
 30
0.0
 11
10.85629999999998
 21
32.113
 31
0.0
  0
LINE
  5
A6
330
1E
100
AcDbEntity
  8
0
100
AcDbLine
 10
10.85629999999998
 20
30.613
 30
0.0
 11
11.35629999999999
 21
30.113
 31
0.0
  0
LINE
  5
A7
330
1E
100
AcDbEntity
  8
0
100
AcDbLine
 10
10.85629999999998
 20
30.613
 30
0.0
 11
11.35629999999999
 21
30.613
 31
0.0
  0
LINE
  5
A8
330
1E
100
AcDbEntity
  8
0
100
AcDbLine
 10
10.85629999999998
 20
36.97169999999999
 30
0.0
 11
10.85629999999998
 21
41.4139
 31
0.0
  0
LINE
  5
A9
330
1E
100
AcDbEntity
  8
0
100
AcDbLine
 10
10.85629999999998
 20
36.97169999999999
 30
0.0
 11
10.85629999999998
 21
32.113
 31
0.0
  0
LINE
  5
AA
330
1E
100
AcDbEntity
  8
0
100
AcDbLine
 10
10.85629999999998
 20
48.7713
 30
0.0
 11
10.85629999999998
 21
49.2466
 31
0.0
  0
LINE
  5
AB
330
1E
100
AcDbEntity
  8
0
100
AcDbLine
 10
10.85629999999998
 20
48.7713
 30
0.0
 11
10.85629999999998
 21
45.5784
 31
0.0
  0
LINE
  5
AC
330
1E
100
AcDbEntity
  8
0
100
AcDbLine
 10
10.85629999999998
 20
45.5784
 30
0.0
 11
10.85629999999998
 21
48.7713
 31
0.0
  0
LINE
  5
AD
330
1E
100
AcDbEntity
  8
0
100
AcDbLine
 10
10.85629999999998
 20
45.5784
 30
0.0
 11
10.85629999999998
 21
41.4139
 31
0.0
  0
LINE
  5
AE
330
1E
100
AcDbEntity
  8
0
100
AcDbLine
 10
10.85629999999998
 20
41.4139
 30
0.0
 11
10.85629999999998
 21
45.5784
 31
0.0
  0
LINE
  5
AF
330
1E
100
AcDbEntity
  8
0
100
AcDbLine
 10
10.85629999999998
 20
41.4139
 30
0.0
 11
10.85629999999998
 21
36.97169999999999
 31
0.0
  0
LINE
  5
B1
330
1E
100
AcDbEntity
  8
0
100
AcDbLine
 10
12.72299999999999
 20
42.8823
 30
0.0
 11
14.8563
 21
40.0677
 31
0.0
  0
LINE
  5
B2
330
1E
100
AcDbEntity
  8
0
100
AcDbLine
 10
11.25629999999999
 20
45.9423
 30
0.0
 11
12.72299999999999
 21
42.8823
 31
0.0
  0
LINE
  5
B4
330
1E
100
AcDbEntity
  8
0
100
AcDbLine
 10
17.923
 20
38.1099
 30
0.0
 11
21.2563
 21
36.7637
 31
0.0
  0
LINE
  5
B5
330
1E
100
AcDbEntity
  8
0
100
AcDbLine
 10
14.8563
 20
40.0677
 30
0.0
 11
17.923
 21
38.1099
 31
0.0
  0
LINE
  5
B7
330
1E
100
AcDbEntity
  8
0
100
AcDbLine
 10
10.85629999999998
 20
49.2466
 30
0.0
 11
11.25629999999999
 21
45.9423
 31
0.0
  0
LINE
  5
B8
330
1E
100
AcDbEntity
  8
0
100
AcDbLine
 10
10.85629999999998
 20
49.2466
 30
0.0
 11
10.85629999999998
 21
48.7713
 31
0.0
  0
LINE
  5
BA
330
1E
100
AcDbEntity
  8
0
100
AcDbLine
 10
21.2563
 20
36.7637
 30
0.0
 11
21.3896
 21
36.72789999999999
 31
0.0
  0
LINE
  5
BB
330
1E
100
AcDbEntity
  8
0
100
AcDbLine
 10
24.8563
 20
0.113000000000019
 30
0.0
 11
28.0563
 21
0.113000000000019
 31
0.0
  0
LINE
  5
BC
330
1E
100
AcDbEntity
  8
0
100
AcDbLine
 10
28.0563
 20
0.113000000000019
 30
0.0
 11
31.0563
 21
0.113000000000019
 31
0.0
  0
LINE
  5
BD
330
1E
100
AcDbEntity
  8
0
100
AcDbLine
 10
28.3563
 20
0.113000000000018
 30
0.0
 11
31.5563
 21
0.113000000000019
 31
0.0
  0
LINE
  5
BE
330
1E
100
AcDbEntity
  8
0
100
AcDbLine
 10
24.8563
 20
0.113000000000018
 30
0.0
 11
28.3563
 21
0.113000000000018
 31
0.0
  0
LINE
  5
BF
330
1E
100
AcDbEntity
  8
0
100
AcDbLine
 10
31.0563
 20
0.113000000000019
 30
0.0
 11
33.6563
 21
0.113000000000019
 31
0.0
  0
LINE
  5
C0
330
1E
100
AcDbEntity
  8
0
100
AcDbLine
 10
31.5563
 20
0.113000000000019
 30
0.0
 11
34.35629999999999
 21
0.113000000000019
 31
0.0
  0
LINE
  5
C1
330
1E
100
AcDbEntity
  8
0
100
AcDbLine
 10
33.6563
 20
0.113000000000019
 30
0.0
 11
35.6563
 21
0.113000000000019
 31
0.0
  0
LINE
  5
C2
330
1E
100
AcDbEntity
  8
0
100
AcDbLine
 10
34.35629999999999
 20
0.113000000000019
 30
0.0
 11
36.5563
 21
0.113000000000019
 31
0.0
  0
LINE
  5
C3
330
1E
100
AcDbEntity
  8
0
100
AcDbLine
 10
33.6563
 20
0.11300000000002
 30
0.0
 11
35.6563
 21
0.11300000000002
 31
0.0
  0
LINE
  5
C4
330
1E
100
AcDbEntity
  8
0
100
AcDbLine
 10
35.6563
 20
0.11300000000002
 30
0.0
 11
36.85629999999999
 21
0.113000000000019
 31
0.0
  0
LINE
  5
C5
330
1E
100
AcDbEntity
  8
0
100
AcDbLine
 10
31.0563
 20
0.11300000000002
 30
0.0
 11
33.6563
 21
0.11300000000002
 31
0.0
  0
LINE
  5
C6
330
1E
100
AcDbEntity
  8
0
100
AcDbLine
 10
28.0563
 20
0.11300000000002
 30
0.0
 11
31.0563
 21
0.11300000000002
 31
0.0
  0
LINE
  5
C7
330
1E
100
AcDbEntity
  8
0
100
AcDbLine
 10
31.5563
 20
0.11300000000002
 30
0.0
 11
34.35629999999999
 21
0.11300000000002
 31
0.0
  0
LINE
  5
C8
330
1E
100
AcDbEntity
  8
0
100
AcDbLine
 10
34.35629999999999
 20
0.11300000000002
 30
0.0
 11
36.5563
 21
0.11300000000002
 31
0.0
  0
LINE
  5
C9
330
1E
100
AcDbEntity
  8
0
100
AcDbLine
 10
36.85629999999999
 20
0.113000000000019
 30
0.0
 11
37.3563
 21
0.113000000000019
 31
0.0
  0
LINE
  5
CA
330
1E
100
AcDbEntity
  8
0
100
AcDbLine
 10
36.5563
 20
0.11300000000002
 30
0.0
 11
37.85629999999999
 21
0.113000000000019
 31
0.0
  0
LINE
  5
CB
330
1E
100
AcDbEntity
  8
0
100
AcDbLine
 10
35.6563
 20
0.113000000000019
 30
0.0
 11
36.85629999999999
 21
0.113000000000019
 31
0.0
  0
LINE
  5
CC
330
1E
100
AcDbEntity
  8
0
100
AcDbLine
 10
37.85629999999999
 20
0.113000000000019
 30
0.0
 11
38.3563
 21
0.113000000000019
 31
0.0
  0
LINE
  5
CD
330
1E
100
AcDbEntity
  8
0
100
AcDbLine
 10
36.85629999999999
 20
0.113000000000019
 30
0.0
 11
37.3563
 21
0.113000000000019
 31
0.0
  0
LINE
  5
CE
330
1E
100
AcDbEntity
  8
0
100
AcDbLine
 10
36.5563
 20
0.113000000000019
 30
0.0
 11
37.85629999999999
 21
0.113000000000019
 31
0.0
  0
LINE
  5
CF
330
1E
100
AcDbEntity
  8
0
100
AcDbLine
 10
38.3563
 20
0.113000000000019
 30
0.0
 11
38.85629999999999
 21
0.6130000000000191
 31
0.0
  0
LINE
  5
D0
330
1E
100
AcDbEntity
  8
0
100
AcDbLine
 10
37.85629999999999
 20
0.113000000000019
 30
0.0
 11
38.3563
 21
0.113000000000019
 31
0.0
  0
LINE
  5
D1
330
1E
100
AcDbEntity
  8
0
100
AcDbLine
 10
24.8563
 20
0.11300000000002
 30
0.0
 11
28.0563
 21
0.11300000000002
 31
0.0
  0
LINE
  5
D2
330
1E
100
AcDbEntity
  8
0
100
AcDbLine
 10
24.8563
 20
0.11300000000002
 30
0.0
 11
28.3563
 21
0.11300000000002
 31
0.0
  0
LINE
  5
D3
330
1E
100
AcDbEntity
  8
0
100
AcDbLine
 10
24.8563
 20
0.6130000000000201
 30
0.0
 11
28.45629999999999
 21
0.6130000000000201
 31
0.0
  0
LINE
  5
D4
330
1E
100
AcDbEntity
  8
0
100
AcDbLine
 10
24.8563
 20
9.613000000000019
 30
0.0
 11
28.45629999999999
 21
9.613000000000019
 31
0.0
  0
LINE
  5
D5
330
1E
100
AcDbEntity
  8
0
100
AcDbLine
 10
24.8563
 20
10.113
 30
0.0
 11
28.1563
 21
10.113
 31
0.0
  0
LINE
  5
D6
330
1E
100
AcDbEntity
  8
0
100
AcDbLine
 10
28.3563
 20
0.11300000000002
 30
0.0
 11
31.5563
 21
0.11300000000002
 31
0.0
  0
LINE
  5
D7
330
1E
100
AcDbEntity
  8
0
100
AcDbLine
 10
28.1563
 20
10.113
 30
0.0
 11
31.3563
 21
10.113
 31
0.0
  0
LINE
  5
D8
330
1E
100
AcDbEntity
  8
0
100
AcDbLine
 10
24.8563
 20
10.61299999999999
 30
0.0
 11
28.45629999999999
 21
10.61299999999999
 31
0.0
  0
LINE
  5
D9
330
1E
100
AcDbEntity
  8
0
100
AcDbLine
 10
28.0563
 20
30.113
 30
0.0
 11
31.0563
 21
30.113
 31
0.0
  0
LINE
  5
DA
330
1E
100
AcDbEntity
  8
0
100
AcDbLine
 10
28.45629999999999
 20
0.6130000000000201
 30
0.0
 11
31.8563
 21
0.6130000000000201
 31
0.0
  0
LINE
  5
DB
330
1E
100
AcDbEntity
  8
0
100
AcDbLine
 10
28.45629999999999
 20
9.613000000000019
 30
0.0
 11
31.8563
 21
9.613000000000019
 31
0.0
  0
LINE
  5
DC
330
1E
100
AcDbEntity
  8
0
100
AcDbLine
 10
28.45629999999999
 20
10.61299999999999
 30
0.0
 11
31.8563
 21
10.61299999999999
 31
0.0
  0
LINE
  5
DD
330
1E
100
AcDbEntity
  8
0
100
AcDbLine
 10
31.8563
 20
0.6130000000000201
 30
0.0
 11
34.7563
 21
0.6130000000000201
 31
0.0
  0
LINE
  5
DE
330
1E
100
AcDbEntity
  8
0
100
AcDbLine
 10
31.8563
 20
9.613000000000019
 30
0.0
 11
34.7563
 21
9.613000000000019
 31
0.0
  0
LINE
  5
DF
330
1E
100
AcDbEntity
  8
0
100
AcDbLine
 10
31.3563
 20
10.113
 30
0.0
 11
34.0563
 21
10.113
 31
0.0
  0
LINE
  5
E0
330
1E
100
AcDbEntity
  8
0
100
AcDbLine
 10
31.8563
 20
10.61299999999999
 30
0.0
 11
34.7563
 21
10.61299999999999
 31
0.0
  0
LINE
  5
E1
330
1E
100
AcDbEntity
  8
0
100
AcDbLine
 10
31.0563
 20
30.113
 30
0.0
 11
33.6563
 21
30.113
 31
0.0
  0
LINE
  5
E2
330
1E
100
AcDbEntity
  8
0
100
AcDbLine
 10
31.5563
 20
30.113
 30
0.0
 11
34.35629999999999
 21
30.113
 31
0.0
  0
LINE
  5
E3
330
1E
100
AcDbEntity
  8
0
100
AcDbLine
 10
28.3563
 20
30.113
 30
0.0
 11
31.5563
 21
30.113
 31
0.0
  0
LINE
  5
E4
330
1E
100
AcDbEntity
  8
0
100
AcDbLine
 10
24.8563
 20
30.113
 30
0.0
 11
28.3563
 21
30.113
 31
0.0
  0
LINE
  5
E5
330
1E
100
AcDbEntity
  8
0
100
AcDbLine
 10
24.8563
 20
30.113
 30
0.0
 11
28.0563
 21
30.113
 31
0.0
  0
LINE
  5
E6
330
1E
100
AcDbEntity
  8
0
100
AcDbLine
 10
34.7563
 20
0.6130000000000201
 30
0.0
 11
36.95629999999999
 21
0.6130000000000201
 31
0.0
  0
LINE
  5
E7
330
1E
100
AcDbEntity
  8
0
100
AcDbLine
 10
34.7563
 20
9.613000000000019
 30
0.0
 11
36.95629999999999
 21
9.613000000000019
 31
0.0
  0
LINE
  5
E8
330
1E
100
AcDbEntity
  8
0
100
AcDbLine
 10
34.0563
 20
10.113
 30
0.0
 11
36.1563
 21
10.113
 31
0.0
  0
LINE
  5
E9
330
1E
100
AcDbEntity
  8
0
100
AcDbLine
 10
34.7563
 20
10.61299999999999
 30
0.0
 11
36.95629999999999
 21
10.61299999999999
 31
0.0
  0
LINE
  5
EA
330
1E
100
AcDbEntity
  8
0
100
AcDbLine
 10
33.6563
 20
30.113
 30
0.0
 11
35.6563
 21
30.113
 31
0.0
  0
LINE
  5
EB
330
1E
100
AcDbEntity
  8
0
100
AcDbLine
 10
31.8563
 20
30.613
 30
0.0
 11
34.7563
 21
30.613
 31
0.0
  0
LINE
  5
EC
330
1E
100
AcDbEntity
  8
0
100
AcDbLine
 10
28.45629999999999
 20
30.613
 30
0.0
 11
31.8563
 21
30.613
 31
0.0
  0
LINE
  5
ED
330
1E
100
AcDbEntity
  8
0
100
AcDbLine
 10
24.8563
 20
30.613
 30
0.0
 11
28.45629999999999
 21
30.613
 31
0.0
  0
LINE
  5
EE
330
1E
100
AcDbEntity
  8
0
100
AcDbLine
 10
34.35629999999999
 20
30.113
 30
0.0
 11
36.5563
 21
30.113
 31
0.0
  0
LINE
  5
EF
330
1E
100
AcDbEntity
  8
0
100
AcDbLine
 10
36.1563
 20
10.113
 30
0.0
 11
37.3563
 21
10.113
 31
0.0
  0
LINE
  5
F0
330
1E
100
AcDbEntity
  8
0
100
AcDbLine
 10
36.85629999999999
 20
28.613
 30
0.0
 11
38.3563
 21
26.113
 31
0.0
  0
LINE
  5
F1
330
1E
100
AcDbEntity
  8
0
100
AcDbLine
 10
35.35629999999999
 20
30.113
 30
0.0
 11
36.85629999999999
 21
28.613
 31
0.0
  0
LINE
  5
F2
330
1E
100
AcDbEntity
  8
0
100
AcDbLine
 10
35.35629999999999
 20
30.113
 30
0.0
 11
36.5563
 21
30.113
 31
0.0
  0
LINE
  5
F3
330
1E
100
AcDbEntity
  8
0
100
AcDbLine
 10
35.35629999999999
 20
30.113
 30
0.0
 11
35.6563
 21
30.113
 31
0.0
  0
LINE
  5
F4
330
1E
100
AcDbEntity
  8
0
100
AcDbLine
 10
35.6563
 20
30.113
 30
0.0
 11
36.85629999999999
 21
30.113
 31
0.0
  0
LINE
  5
F5
330
1E
100
AcDbEntity
  8
0
100
AcDbLine
 10
36.95629999999999
 20
0.6130000000000201
 30
0.0
 11
38.3563
 21
0.6130000000000201
 31
0.0
  0
LINE
  5
F6
330
1E
100
AcDbEntity
  8
0
100
AcDbLine
 10
36.95629999999999
 20
9.613000000000019
 30
0.0
 11
38.3563
 21
9.613000000000019
 31
0.0
  0
LINE
  5
F7
330
1E
100
AcDbEntity
  8
0
100
AcDbLine
 10
37.3563
 20
10.113
 30
0.0
 11
37.85629999999999
 21
10.113
 31
0.0
  0
LINE
  5
F8
330
1E
100
AcDbEntity
  8
0
100
AcDbLine
 10
36.95629999999999
 20
10.61299999999999
 30
0.0
 11
38.3563
 21
10.61299999999999
 31
0.0
  0
LINE
  5
F9
330
1E
100
AcDbEntity
  8
0
100
AcDbLine
 10
37.85629999999999
 20
10.113
 30
0.0
 11
38.85629999999999
 21
10.61299999999999
 31
0.0
  0
LINE
  5
FA
330
1E
100
AcDbEntity
  8
0
100
AcDbLine
 10
37.85629999999999
 20
10.113
 30
0.0
 11
38.85629999999999
 21
9.613000000000019
 31
0.0
  0
LINE
  5
FB
330
1E
100
AcDbEntity
  8
0
100
AcDbLine
 10
36.85629999999999
 20
30.113
 30
0.0
 11
37.3563
 21
30.113
 31
0.0
  0
LINE
  5
FC
330
1E
100
AcDbEntity
  8
0
100
AcDbLine
 10
36.5563
 20
30.113
 30
0.0
 11
37.85629999999999
 21
30.113
 31
0.0
  0
LINE
  5
FD
330
1E
100
AcDbEntity
  8
0
100
AcDbLine
 10
38.3563
 20
0.6130000000000201
 30
0.0
 11
38.85629999999999
 21
0.6130000000000191
 31
0.0
  0
LINE
  5
FE
330
1E
100
AcDbEntity
  8
0
100
AcDbLine
 10
38.3563
 20
9.613000000000019
 30
0.0
 11
38.85629999999999
 21
9.613000000000019
 31
0.0
  0
LINE
  5
FF
330
1E
100
AcDbEntity
  8
0
100
AcDbLine
 10
38.3563
 20
10.61299999999999
 30
0.0
 11
38.85629999999999
 21
10.61299999999999
 31
0.0
  0
LINE
  5
100
330
1E
100
AcDbEntity
  8
0
100
AcDbLine
 10
38.3563
 20
26.113
 30
0.0
 11
38.85629999999999
 21
24.113
 31
0.0
  0
LINE
  5
101
330
1E
100
AcDbEntity
  8
0
100
AcDbLine
 10
37.85629999999999
 20
30.113
 30
0.0
 11
38.3563
 21
30.113
 31
0.0
  0
LINE
  5
102
330
1E
100
AcDbEntity
  8
0
100
AcDbLine
 10
38.3563
 20
30.113
 30
0.0
 11
38.85629999999999
 21
30.613
 31
0.0
  0
LINE
  5
103
330
1E
100
AcDbEntity
  8
0
100
AcDbLine
 10
34.7563
 20
30.613
 30
0.0
 11
36.95629999999999
 21
30.613
 31
0.0
  0
LINE
  5
104
330
1E
100
AcDbEntity
  8
0
100
AcDbLine
 10
36.95629999999999
 20
30.613
 30
0.0
 11
38.3563
 21
30.613
 31
0.0
  0
LINE
  5
105
330
1E
100
AcDbEntity
  8
0
100
AcDbLine
 10
38.85629999999999
 20
0.6130000000000191
 30
0.0
 11
38.85629999999999
 21
9.613000000000019
 31
0.0
  0
LINE
  5
106
330
1E
100
AcDbEntity
  8
0
100
AcDbLine
 10
38.85629999999999
 20
10.61299999999999
 30
0.0
 11
38.85629999999999
 21
24.113
 31
0.0
  0
LINE
  5
107
330
1E
100
AcDbEntity
  8
0
100
AcDbLine
 10
38.85629999999999
 20
9.613000000000019
 30
0.0
 11
38.85629999999999
 21
0.6130000000000201
 31
0.0
  0
LINE
  5
108
330
1E
100
AcDbEntity
  8
0
100
AcDbLine
 10
38.85629999999999
 20
24.113
 30
0.0
 11
38.85629999999999
 21
10.61299999999999
 31
0.0
  0
LINE
  5
109
330
1E
100
AcDbEntity
  8
0
100
AcDbLine
 10
38.3563
 20
30.613
 30
0.0
 11
38.85629999999999
 21
30.613
 31
0.0
  0
LINE
  5
10A
330
1E
100
AcDbEntity
  8
0
100
AcDbLine
 10
24.8563
 20
36.39639999999999
 30
0.0
 11
28.323
 21
36.72789999999999
 31
0.0
  0
LINE
  5
10B
330
1E
100
AcDbEntity
  8
0
100
AcDbLine
 10
28.323
 20
36.72789999999999
 30
0.0
 11
28.45629999999999
 21
36.7637
 31
0.0
  0
LINE
  5
10D
330
1E
100
AcDbEntity
  8
0
100
AcDbLine
 10
31.7896
 20
38.1099
 30
0.0
 11
34.8563
 21
40.0677
 31
0.0
  0
LINE
  5
10E
330
1E
100
AcDbEntity
  8
0
100
AcDbLine
 10
34.8563
 20
40.0677
 30
0.0
 11
36.9896
 21
42.8823
 31
0.0
  0
LINE
  5
111
330
1E
100
AcDbEntity
  8
0
100
AcDbLine
 10
28.45629999999999
 20
36.7637
 30
0.0
 11
31.7896
 21
38.1099
 31
0.0
  0
LINE
  5
112
330
1E
100
AcDbEntity
  8
0
100
AcDbLine
 10
38.85629999999999
 20
30.613
 30
0.0
 11
38.85629999999999
 21
32.113
 31
0.0
  0
LINE
  5
113
330
1E
100
AcDbEntity
  8
0
100
AcDbLine
 10
38.85629999999999
 20
32.113
 30
0.0
 11
38.85629999999999
 21
36.97169999999999
 31
0.0
  0
LINE
  5
114
330
1E
100
AcDbEntity
  8
0
100
AcDbLine
 10
38.85629999999999
 20
32.113
 30
0.0
 11
38.85629999999999
 21
30.613
 31
0.0
  0
LINE
  5
115
330
1E
100
AcDbEntity
  8
0
100
AcDbLine
 10
36.9896
 20
42.8823
 30
0.0
 11
38.45629999999999
 21
45.9423
 31
0.0
  0
LINE
  5
116
330
1E
100
AcDbEntity
  8
0
100
AcDbLine
 10
38.85629999999999
 20
45.5784
 30
0.0
 11
38.85629999999999
 21
41.4139
 31
0.0
  0
LINE
  5
117
330
1E
100
AcDbEntity
  8
0
100
AcDbLine
 10
38.85629999999999
 20
45.5784
 30
0.0
 11
38.85629999999999
 21
48.7713
 31
0.0
  0
LINE
  5
118
330
1E
100
AcDbEntity
  8
0
100
AcDbLine
 10
38.85629999999999
 20
41.4139
 30
0.0
 11
38.85629999999999
 21
36.97169999999999
 31
0.0
  0
LINE
  5
119
330
1E
100
AcDbEntity
  8
0
100
AcDbLine
 10
38.85629999999999
 20
41.4139
 30
0.0
 11
38.85629999999999
 21
45.5784
 31
0.0
  0
LINE
  5
11A
330
1E
100
AcDbEntity
  8
0
100
AcDbLine
 10
38.85629999999999
 20
36.97169999999999
 30
0.0
 11
38.85629999999999
 21
32.113
 31
0.0
  0
LINE
  5
11B
330
1E
100
AcDbEntity
  8
0
100
AcDbLine
 10
38.85629999999999
 20
36.97169999999999
 30
0.0
 11
38.85629999999999
 21
41.4139
 31
0.0
  0
LINE
  5
11D
330
1E
100
AcDbEntity
  8
0
100
AcDbLine
 10
38.85629999999999
 20
49.2466
 30
0.0
 11
38.85629999999999
 21
48.7713
 31
0.0
  0
LINE
  5
120
330
1E
100
AcDbEntity
  8
0
100
AcDbLine
 10
38.85629999999999
 20
48.7713
 30
0.0
 11
38.85629999999999
 21
49.2466
 31
0.0
  0
LINE
  5
125
330
1E
100
AcDbEntity
  8
0
100
AcDbLine
 10
21.6563
 20
30.113
 30
0.0
 11
24.8563
 21
30.113
 31
0.0
  0
LINE
  5
126
330
1E
100
AcDbEntity
  8
0
100
AcDbLine
 10
21.6563
 20
0.11300000000002
 30
0.0
 11
24.8563
 21
0.11300000000002
 31
0.0
  0
LINE
  5
127
330
1E
100
AcDbEntity
  8
0
100
AcDbLine
 10
21.55629999999999
 20
10.113
 30
0.0
 11
24.8563
 21
10.113
 31
0.0
  0
LINE
  5
128
330
1E
100
AcDbEntity
  8
0
100
AcDbLine
 10
21.6563
 20
0.113000000000019
 30
0.0
 11
24.8563
 21
0.113000000000019
 31
0.0
  0
LINE
  5
129
330
1E
100
AcDbEntity
  8
0
100
AcDbLine
 10
21.3896
 20
36.72789999999999
 30
0.0
 11
24.8563
 21
36.39639999999999
 31
0.0
  0
LINE
  5
12A
330
1E
100
AcDbEntity
  8
0
100
AcDbLine
 10
7.99171
 20
113.595
 30
0.0
 11
8.16683
 21
110.2619999999999
 31
0.0
  0
LINE
  5
12B
330
1E
100
AcDbEntity
  8
0
100
AcDbLine
 10
8.156299999999998
 20
125.8129999999999
 30
0.0
 11
11.25629999999999
 21
129.7129999999999
 31
0.0
  0
LINE
  5
12C
330
1E
100
AcDbEntity
  8
0
100
AcDbLine
 10
8.34201
 20
120.977
 30
0.0
 11
10.12299999999999
 21
124.869
 31
0.0
  0
LINE
  5
131
330
1E
100
AcDbEntity
  8
0
100
AcDbLine
 10
10.12299999999999
 20
124.869
 30
0.0
 11
12.7134
 21
128.4499999999999
 31
0.0
  0
LINE
  5
132
330
1E
100
AcDbEntity
  8
0
100
AcDbLine
 10
12.7134
 20
128.4499999999999
 30
0.0
 11
16.4372
 21
130.9409999999999
 31
0.0
  0
LINE
  5
134
330
1E
100
AcDbEntity
  8
0
100
AcDbLine
 10
11.25629999999999
 20
129.7129999999999
 30
0.0
 11
15.15629999999999
 21
132.8129999999999
 31
0.0
  0
LINE
  5
138
330
1E
100
AcDbEntity
  8
0
100
AcDbLine
 10
38.06370942087699
 20
126.9784094208769
 30
0.0
 11
40.6433
 21
129.5579999999999
 31
0.0
  0
LINE
  5
139
330
1E
100
AcDbEntity
  8
0
100
AcDbLine
 10
39.58959999999999
 20
124.869
 30
0.0
 11
41.3706
 21
120.977
 31
0.0
  0
LINE
  5
13A
330
1E
100
AcDbEntity
  8
0
100
AcDbLine
 10
39.4934714285714
 20
128.4081714285709
 30
0.0
 11
41.5563
 21
125.8129999999999
 31
0.0
  0
LINE
  5
13B
330
1E
100
AcDbEntity
  8
0
100
AcDbLine
 10
40.9132866666667
 20
91.35890000000001
 30
0.0
 11
44.93829999999999
 21
91.35890000000001
 31
0.0
  0
LINE
  5
13C
330
1E
100
AcDbEntity
  8
0
100
AcDbLine
 10
40.903919047619
 20
91.11299999999999
 30
0.0
 11
44.93829999999999
 21
91.11299999999999
 31
0.0
  0
LINE
  5
13D
330
1E
100
AcDbEntity
  8
0
100
AcDbLine
 10
46.1678
 20
91.52280000000001
 30
0.0
 11
47.23329999999999
 21
92.0146
 31
0.0
  0
LINE
  5
13E
330
1E
100
AcDbEntity
  8
0
100
AcDbLine
 10
44.93829999999999
 20
91.35890000000001
 30
0.0
 11
46.1678
 21
91.52280000000001
 31
0.0
  0
LINE
  5
13F
330
1E
100
AcDbEntity
  8
0
100
AcDbLine
 10
48.21699999999999
 20
92.7523
 30
0.0
 11
48.9547
 21
93.7359
 31
0.0
  0
LINE
  5
140
330
1E
100
AcDbEntity
  8
0
100
AcDbLine
 10
48.9547
 20
93.7359
 30
0.0
 11
49.4465
 21
94.8015
 31
0.0
  0
LINE
  5
141
330
1E
100
AcDbEntity
  8
0
100
AcDbLine
 10
49.4465
 20
94.8015
 30
0.0
 11
49.6104
 21
96.03100000000001
 31
0.0
  0
LINE
  5
142
330
1E
100
AcDbEntity
  8
0
100
AcDbLine
 10
49.2006
 20
93.572
 30
0.0
 11
49.6924
 21
94.8015
 31
0.0
  0
LINE
  5
143
330
1E
100
AcDbEntity
  8
0
100
AcDbLine
 10
49.6104
 20
96.03100000000001
 30
0.0
 11
49.6104
 21
116.1129999999999
 31
0.0
  0
LINE
  5
144
330
1E
100
AcDbEntity
  8
0
100
AcDbLine
 10
49.8563
 20
96.03100000000001
 30
0.0
 11
49.8563
 21
136.1949999999999
 31
0.0
  0
LINE
  5
145
330
1E
100
AcDbEntity
  8
0
100
AcDbLine
 10
49.6924
 20
94.8015
 30
0.0
 11
49.8563
 21
96.03100000000001
 31
0.0
  0
LINE
  5
146
330
1E
100
AcDbEntity
  8
0
100
AcDbLine
 10
47.23329999999999
 20
92.0146
 30
0.0
 11
48.21699999999999
 21
92.7523
 31
0.0
  0
LINE
  5
147
330
1E
100
AcDbEntity
  8
0
100
AcDbLine
 10
47.3973
 20
91.76869999999999
 30
0.0
 11
48.3809
 21
92.58839999999999
 31
0.0
  0
LINE
  5
148
330
1E
100
AcDbEntity
  8
0
100
AcDbLine
 10
46.1678
 20
91.27689999999999
 30
0.0
 11
47.3973
 21
91.76869999999999
 31
0.0
  0
LINE
  5
14B
330
1E
100
AcDbEntity
  8
0
100
AcDbLine
 10
41.3706
 20
120.977
 30
0.0
 11
41.85629999999998
 21
115.246
 31
0.0
  0
LINE
  5
14D
330
1E
100
AcDbEntity
  8
0
100
AcDbLine
 10
41.5563
 20
125.8129999999999
 30
0.0
 11
43.45629999999998
 21
121.2129999999999
 31
0.0
  0
LINE
  5
14E
330
1E
100
AcDbEntity
  8
0
100
AcDbLine
 10
41.72089999999999
 20
113.595
 30
0.0
 11
41.85629999999998
 21
115.246
 31
0.0
  0
LINE
  5
14F
330
1E
100
AcDbEntity
  8
0
100
AcDbLine
 10
43.45629999999998
 20
121.2129999999999
 30
0.0
 11
43.95629999999999
 21
116.1129999999999
 31
0.0
  0
LINE
  5
150
330
1E
100
AcDbEntity
  8
0
100
AcDbLine
 10
49.6104
 20
116.1129999999999
 30
0.0
 11
49.6104
 21
96.03100000000001
 31
0.0
  0
LINE
  5
151
330
1E
100
AcDbEntity
  8
0
100
AcDbLine
 10
49.6104
 20
116.1129999999999
 30
0.0
 11
49.6104
 21
136.1949999999999
 31
0.0
  0
LINE
  5
152
330
1E
100
AcDbEntity
  8
0
100
AcDbLine
 10
49.8563
 20
136.1949999999999
 30
0.0
 11
49.8563
 21
96.03100000000001
 31
0.0
  0
LINE
  5
153
330
1E
100
AcDbEntity
  8
0
100
AcDbLine
 10
43.45629999999998
 20
111.0129999999999
 30
0.0
 11
43.95629999999999
 21
116.1129999999999
 31
0.0
  0
LINE
  5
154
330
1E
100
AcDbEntity
  8
0
100
AcDbLine
 10
41.5563
 20
106.413
 30
0.0
 11
43.45629999999998
 21
111.0129999999999
 31
0.0
  0
LINE
  5
156
330
1E
100
AcDbEntity
  8
0
100
AcDbLine
 10
40.6433
 20
129.5579999999999
 30
0.0
 11
40.8552
 21
129.77
 31
0.0
  0
LINE
  5
157
330
1E
100
AcDbEntity
  8
0
100
AcDbLine
 10
41.1923
 20
130.108
 30
0.0
 11
41.6317
 21
130.5469999999999
 31
0.0
  0
LINE
  5
158
330
1E
100
AcDbEntity
  8
0
100
AcDbLine
 10
41.6317
 20
130.5469999999999
 30
0.0
 11
42.1433
 21
131.0579999999999
 31
0.0
  0
LINE
  5
159
330
1E
100
AcDbEntity
  8
0
100
AcDbLine
 10
40.8552
 20
129.77
 30
0.0
 11
41.1923
 21
130.108
 31
0.0
  0
LINE
  5
15A
330
1E
100
AcDbEntity
  8
0
100
AcDbLine
 10
35.1289713619103
 20
129.70107136191
 30
0.0
 11
37.8149
 21
132.387
 31
0.0
  0
LINE
  5
15B
330
1E
100
AcDbEntity
  8
0
100
AcDbLine
 10
42.6923
 20
131.608
 30
0.0
 11
51.08699999999998
 21
140.002
 31
0.0
  0
LINE
  5
15C
330
1E
100
AcDbEntity
  8
0
100
AcDbLine
 10
42.1433
 20
131.0579999999999
 30
0.0
 11
42.6923
 21
131.608
 31
0.0
  0
LINE
  5
15D
330
1E
100
AcDbEntity
  8
0
100
AcDbLine
 10
38.0268
 20
132.599
 30
0.0
 11
38.3639
 21
132.936
 31
0.0
  0
LINE
  5
15E
330
1E
100
AcDbEntity
  8
0
100
AcDbLine
 10
37.8149
 20
132.387
 30
0.0
 11
38.0268
 21
132.599
 31
0.0
  0
LINE
  5
15F
330
1E
100
AcDbEntity
  8
0
100
AcDbLine
 10
33.27539999999999
 20
130.9409999999999
 30
0.0
 11
36.9992
 21
128.4499999999999
 31
0.0
  0
LINE
  5
160
330
1E
100
AcDbEntity
  8
0
100
AcDbLine
 10
29.22769999999999
 20
132.6529999999999
 30
0.0
 11
33.27539999999999
 21
130.9409999999999
 31
0.0
  0
LINE
  5
161
330
1E
100
AcDbEntity
  8
0
100
AcDbLine
 10
36.9992
 20
128.4499999999999
 30
0.0
 11
39.58959999999999
 21
124.869
 31
0.0
  0
LINE
  5
162
330
1E
100
AcDbEntity
  8
0
100
AcDbLine
 10
16.4372
 20
130.9409999999999
 30
0.0
 11
20.4849
 21
132.6529999999999
 31
0.0
  0
LINE
  5
163
330
1E
100
AcDbEntity
  8
0
100
AcDbLine
 10
24.8563
 20
133.12
 30
0.0
 11
29.22769999999999
 21
132.6529999999999
 31
0.0
  0
LINE
  5
164
330
1E
100
AcDbEntity
  8
0
100
AcDbLine
 10
38.80319999999999
 20
133.3749999999999
 30
0.0
 11
39.3148
 21
133.887
 31
0.0
  0
LINE
  5
165
330
1E
100
AcDbEntity
  8
0
100
AcDbLine
 10
39.3148
 20
133.887
 30
0.0
 11
39.8639
 21
134.4359999999998
 31
0.0
  0
LINE
  5
166
330
1E
100
AcDbEntity
  8
0
100
AcDbLine
 10
38.3639
 20
132.936
 30
0.0
 11
38.80319999999999
 21
133.3749999999999
 31
0.0
  0
LINE
  5
167
330
1E
100
AcDbEntity
  8
0
100
AcDbLine
 10
39.8639
 20
134.4359999999998
 30
0.0
 11
48.25849999999999
 21
142.831
 31
0.0
  0
LINE
  5
168
330
1E
100
AcDbEntity
  8
0
100
AcDbLine
 10
34.5563
 20
132.8129999999999
 30
0.0
 11
36.60914857142859
 21
131.1812485714289
 31
0.0
  0
LINE
  5
169
330
1E
100
AcDbEntity
  8
0
100
AcDbLine
 10
29.9563
 20
134.7129999999999
 30
0.0
 11
34.5563
 21
132.8129999999999
 31
0.0
  0
LINE
  5
16A
330
1E
100
AcDbEntity
  8
0
100
AcDbLine
 10
20.4849
 20
132.6529999999999
 30
0.0
 11
24.8563
 21
133.12
 31
0.0
  0
LINE
  5
16B
330
1E
100
AcDbEntity
  8
0
100
AcDbLine
 10
15.15629999999999
 20
132.8129999999999
 30
0.0
 11
19.75629999999998
 21
134.7129999999999
 31
0.0
  0
LINE
  5
16C
330
1E
100
AcDbEntity
  8
0
100
AcDbLine
 10
24.8563
 20
140.867
 30
0.0
 11
44.93829999999999
 21
140.867
 31
0.0
  0
LINE
  5
16D
330
1E
100
AcDbEntity
  8
0
100
AcDbLine
 10
24.8563
 20
141.1129999999999
 30
0.0
 11
44.93829999999999
 21
141.1129999999999
 31
0.0
  0
LINE
  5
16E
330
1E
100
AcDbEntity
  8
0
100
AcDbLine
 10
44.93829999999999
 20
140.867
 30
0.0
 11
46.1349790865228
 21
140.707377901432
 31
0.0
  0
LINE
  5
16F
330
1E
100
AcDbEntity
  8
0
100
AcDbLine
 10
49.4465
 20
137.424
 30
0.0
 11
49.6104
 21
136.1949999999999
 31
0.0
  0
LINE
  5
170
330
1E
100
AcDbEntity
  8
0
100
AcDbLine
 10
49.6104
 20
136.1949999999999
 30
0.0
 11
49.6104
 21
116.1129999999999
 31
0.0
  0
LINE
  5
171
330
1E
100
AcDbEntity
  8
0
100
AcDbLine
 10
49.1504787423267
 20
138.0656402209839
 30
0.0
 11
49.4465
 21
137.424
 31
0.0
  0
LINE
  5
172
330
1E
100
AcDbEntity
  8
0
100
AcDbLine
 10
51.0928
 20
140.178
 30
0.0
 11
51.1437
 21
140.127
 31
0.0
  0
LINE
  5
173
330
1E
100
AcDbEntity
  8
0
100
AcDbLine
 10
51.08699999999998
 20
140.002
 30
0.0
 11
51.1437
 21
140.127
 31
0.0
  0
LINE
  5
174
330
1E
100
AcDbEntity
  8
0
100
AcDbLine
 10
50.73640000000001
 20
140.5339999999999
 30
0.0
 11
50.957
 21
140.3129999999999
 31
0.0
  0
LINE
  5
175
330
1E
100
AcDbEntity
  8
0
100
AcDbLine
 10
50.44789999999998
 20
140.8229999999998
 30
0.0
 11
50.73640000000001
 21
140.5339999999999
 31
0.0
  0
LINE
  5
176
330
1E
100
AcDbEntity
  8
0
100
AcDbLine
 10
50.957
 20
140.3129999999999
 30
0.0
 11
51.0928
 21
140.178
 31
0.0
  0
LINE
  5
177
330
1E
100
AcDbEntity
  8
0
100
AcDbLine
 10
49.3543426327642
 20
138.269487112038
 30
0.0
 11
49.6924
 21
137.424
 31
0.0
  0
LINE
  5
178
330
1E
100
AcDbEntity
  8
0
100
AcDbLine
 10
49.6924
 20
137.424
 30
0.0
 11
49.8563
 21
136.1949999999999
 31
0.0
  0
LINE
  5
179
330
1E
100
AcDbEntity
  8
0
100
AcDbLine
 10
46.1678
 20
140.9489999999999
 30
0.0
 11
46.3169201847221
 21
140.889327669066
 31
0.0
  0
LINE
  5
17A
330
1E
100
AcDbEntity
  8
0
100
AcDbLine
 10
48.5698
 20
142.7009999999999
 30
0.0
 11
48.79039999999999
 21
142.4799999999999
 31
0.0
  0
LINE
  5
17B
330
1E
100
AcDbEntity
  8
0
100
AcDbLine
 10
48.79039999999999
 20
142.4799999999999
 30
0.0
 11
49.0789
 21
142.191
 31
0.0
  0
LINE
  5
17C
330
1E
100
AcDbEntity
  8
0
100
AcDbLine
 10
48.38309999999999
 20
142.887
 30
0.0
 11
48.43399999999999
 21
142.836
 31
0.0
  0
LINE
  5
17D
330
1E
100
AcDbEntity
  8
0
100
AcDbLine
 10
48.43399999999999
 20
142.836
 30
0.0
 11
48.5698
 21
142.7009999999999
 31
0.0
  0
LINE
  5
17E
330
1E
100
AcDbEntity
  8
0
100
AcDbLine
 10
48.25849999999999
 20
142.831
 30
0.0
 11
48.38309999999999
 21
142.887
 31
0.0
  0
LINE
  5
17F
330
1E
100
AcDbEntity
  8
0
100
AcDbLine
 10
50.1198
 20
141.1509999999998
 30
0.0
 11
50.44789999999998
 21
140.8229999999998
 31
0.0
  0
LINE
  5
180
330
1E
100
AcDbEntity
  8
0
100
AcDbLine
 10
49.7634
 20
141.507
 30
0.0
 11
50.1198
 21
141.1509999999998
 31
0.0
  0
LINE
  5
181
330
1E
100
AcDbEntity
  8
0
100
AcDbLine
 10
49.40699999999999
 20
141.863
 30
0.0
 11
49.7634
 21
141.507
 31
0.0
  0
LINE
  5
182
330
1E
100
AcDbEntity
  8
0
100
AcDbLine
 10
49.0789
 20
142.191
 30
0.0
 11
49.40699999999999
 21
141.863
 31
0.0
  0
LINE
  5
183
330
1E
100
AcDbEntity
  8
0
100
AcDbLine
 10
44.93829999999999
 20
141.1129999999999
 30
0.0
 11
46.1678
 21
140.9489999999999
 31
0.0
  0
LINE
  5
184
330
1E
100
AcDbEntity
  8
0
100
AcDbLine
 10
24.8563
 20
135.213
 30
0.0
 11
29.9563
 21
134.7129999999999
 31
0.0
  0
LINE
  5
185
330
1E
100
AcDbEntity
  8
0
100
AcDbLine
 10
19.75629999999998
 20
134.7129999999999
 30
0.0
 11
24.8563
 21
135.213
 31
0.0
  0
LINE
  5
187
330
1E
100
AcDbEntity
  8
0
100
AcDbLine
 10
8.16683
 20
110.2619999999999
 30
0.0
 11
10.85629999999998
 21
49.2466
 31
0.0
  0
LINE
  5
18D
330
1E
100
AcDbEntity
  8
0
100
AcDbLine
 10
44.93829999999999
 20
91.11299999999999
 30
0.0
 11
46.1678
 21
91.27689999999999
 31
0.0
  0
LINE
  5
18E
330
1E
100
AcDbEntity
  8
0
100
AcDbLine
 10
48.3809
 20
92.58839999999999
 30
0.0
 11
49.2006
 21
93.572
 31
0.0
  0
LINE
  5
18F
330
1E
100
AcDbEntity
  8
0
100
AcDbLine
 10
38.45629999999999
 20
45.9423
 30
0.0
 11
41.72089999999999
 21
113.595
 31
0.0
  0
ENDSEC
  0
SECTION
  2
OBJECTS
  0
DICTIONARY
  5
C
330
0
100
AcDbDictionary
  3
ACAD_GROUP
350
D
  3
ACAD_LAYOUT
350
19
  3
ACAD_MLINESTYLE
350
16
  3
ACAD_PLOTSETTINGS
350
18
  3
ACAD_PLOTSTYLENAME
350
E
  3
ACDBHEADERROUNDTRIPXREC
350
198
  3
ACDBVARIABLEDICTIONARY
350
190
  0
DICTIONARY
  5
1BA
330
1E
100
AcDbDictionary
280
     1
  3
ACAD_LAYOUTSELFREF
360
1BB
  0
DICTIONARY
  5
1B8
330
1A
100
AcDbDictionary
280
     1
  3
ACAD_LAYOUTSELFREF
360
1B9
  0
DICTIONARY
  5
D
102
{ACAD_REACTORS
330
C
102
}
330
C
100
AcDbDictionary
  0
DICTIONARY
  5
19
102
{ACAD_REACTORS
330
C
102
}
330
C
100
AcDbDictionary
  0
DICTIONARY
  5
16
102
{ACAD_REACTORS
330
C
102
}
330
C
100
AcDbDictionary
  3
STANDARD
350
17
  0
DICTIONARY
  5
18
102
{ACAD_REACTORS
330
C
102
}
330
C
100
AcDbDictionary
  0
ACDBDICTIONARYWDFLT
  5
E
102
{ACAD_REACTORS
330
C
102
}
330
C
100
AcDbDictionary
281
     1
  3
Normal
350
F
100
AcDbDictionaryWithDefault
340
F
  0
DICTIONARY
  5
198
102
{ACAD_REACTORS
330
C
102
}
330
C
100
AcDbDictionary
  3
CEPSNTYPE
350
1A2
  3
FINGERPRINTGUID
350
1A3
  3
HYPERLINKBASE
350
19B
  3
INSUNITS
350
1A1
  3
LAYOUTDICT
350
19D
  3
LWETCUNION
350
1A0
  3
PLOTSETDICT
350
19E
  3
PLOTSTYLNAMDICT
350
19F
  3
PSVPSCALE
350
1A5
  3
PUCSBASE
350
1A8
  3
PUCSORGBACK
350
1AE
  3
PUCSORGBOTTOM
350
1AA
  3
PUCSORGFRONT
350
1AD
  3
PUCSORGLEFT
350
1AB
  3
PUCSORGRIGHT
350
1AC
  3
PUCSORGTOP
350
1A9
  3
PUCSORTHOREF
350
1A6
  3
PUCSORTHOVIEW
350
1A7
  3
STYLESHEET
350
19C
  3
TSTACKALIGN
350
199
  3
TSTACKSIZE
350
19A
  3
UCSBASE
350
1B1
  3
UCSORGBACK
350
1B7
  3
UCSORGBOTTOM
350
1B3
  3
UCSORGFRONT
350
1B6
  3
UCSORGLEFT
350
1B4
  3
UCSORGRIGHT
350
1B5
  3
UCSORGTOP
350
1B2
  3
UCSORTHOREF
350
1AF
  3
UCSORTHOVIEW
350
1B0
  3
VERSIONGUID
350
1A4
  0
DICTIONARY
  5
190
102
{ACAD_REACTORS
330
C
102
}
330
C
100
AcDbDictionary
  3
DIMASSOC
350
191
  0
XRECORD
  5
1BB
102
{ACAD_REACTORS
330
1BA
102
}
330
1BA
100
AcDbXrecord
340
1E
  0
XRECORD
  5
1B9
102
{ACAD_REACTORS
330
1B8
102
}
330
1B8
100
AcDbXrecord
340
1A
  0
MLINESTYLE
  5
17
102
{ACAD_REACTORS
330
16
102
}
330
16
100
AcDbMlineStyle
  2
STANDARD
 70
     0
  3

 62
   256
 51
90.0
 52
90.0
 71
     2
 49
0.5
 62
   256
  6
BYLAYER
 49
-0.5
 62
   256
  6
BYLAYER
  0
ACDBPLACEHOLDER
  5
F
102
{ACAD_REACTORS
330
E
102
}
330
E
100
AcDbPlaceHolder
280
     0
  0
XRECORD
  5
1A2
102
{ACAD_REACTORS
330
198
102
}
330
198
100
AcDbXrecord
 90
        0
  0
XRECORD
  5
1A3
102
{ACAD_REACTORS
330
198
102
}
330
198
100
AcDbXrecord
  1
{823F487E-E52E-42D2-8053-13E6C18F1353}
  0
XRECORD
  5
19B
102
{ACAD_REACTORS
330
198
102
}
330
198
100
AcDbXrecord
  1

  0
XRECORD
  5
1A1
102
{ACAD_REACTORS
330
198
102
}
330
198
100
AcDbXrecord
 90
        0
  0
XRECORD
  5
19D
102
{ACAD_REACTORS
330
198
102
}
330
198
100
AcDbXrecord
340
19
  0
XRECORD
  5
1A0
102
{ACAD_REACTORS
330
198
102
}
330
198
100
AcDbXrecord
 90
    10781
  0
XRECORD
  5
19E
102
{ACAD_REACTORS
330
198
102
}
330
198
100
AcDbXrecord
340
18
  0
XRECORD
  5
19F
102
{ACAD_REACTORS
330
198
102
}
330
198
100
AcDbXrecord
340
E
  0
XRECORD
  5
1A5
102
{ACAD_REACTORS
330
198
102
}
330
198
100
AcDbXrecord
 40
0.0
  0
XRECORD
  5
1A8
102
{ACAD_REACTORS
330
198
102
}
330
198
100
AcDbXrecord
340
0
  0
XRECORD
  5
1AE
102
{ACAD_REACTORS
330
198
102
}
330
198
100
AcDbXrecord
 10
0.0
 20
0.0
 30
0.0
  0
XRECORD
  5
1AA
102
{ACAD_REACTORS
330
198
102
}
330
198
100
AcDbXrecord
 10
0.0
 20
0.0
 30
0.0
  0
XRECORD
  5
1AD
102
{ACAD_REACTORS
330
198
102
}
330
198
100
AcDbXrecord
 10
0.0
 20
0.0
 30
0.0
  0
XRECORD
  5
1AB
102
{ACAD_REACTORS
330
198
102
}
330
198
100
AcDbXrecord
 10
0.0
 20
0.0
 30
0.0
  0
XRECORD
  5
1AC
102
{ACAD_REACTORS
330
198
102
}
330
198
100
AcDbXrecord
 10
0.0
 20
0.0
 30
0.0
  0
XRECORD
  5
1A9
102
{ACAD_REACTORS
330
198
102
}
330
198
100
AcDbXrecord
 10
0.0
 20
0.0
 30
0.0
  0
XRECORD
  5
1A6
102
{ACAD_REACTORS
330
198
102
}
330
198
100
AcDbXrecord
340
0
  0
XRECORD
  5
1A7
102
{ACAD_REACTORS
330
198
102
}
330
198
100
AcDbXrecord
 70
     0
  0
XRECORD
  5
19C
102
{ACAD_REACTORS
330
198
102
}
330
198
100
AcDbXrecord
  1

  0
XRECORD
  5
199
102
{ACAD_REACTORS
330
198
102
}
330
198
100
AcDbXrecord
 90
        1
  0
XRECORD
  5
19A
102
{ACAD_REACTORS
330
198
102
}
330
198
100
AcDbXrecord
 90
       70
  0
XRECORD
  5
1B1
102
{ACAD_REACTORS
330
198
102
}
330
198
100
AcDbXrecord
340
0
  0
XRECORD
  5
1B7
102
{ACAD_REACTORS
330
198
102
}
330
198
100
AcDbXrecord
 10
0.0
 20
0.0
 30
0.0
  0
XRECORD
  5
1B3
102
{ACAD_REACTORS
330
198
102
}
330
198
100
AcDbXrecord
 10
0.0
 20
0.0
 30
0.0
  0
XRECORD
  5
1B6
102
{ACAD_REACTORS
330
198
102
}
330
198
100
AcDbXrecord
 10
0.0
 20
0.0
 30
0.0
  0
XRECORD
  5
1B4
102
{ACAD_REACTORS
330
198
102
}
330
198
100
AcDbXrecord
 10
0.0
 20
0.0
 30
0.0
  0
XRECORD
  5
1B5
102
{ACAD_REACTORS
330
198
102
}
330
198
100
AcDbXrecord
 10
0.0
 20
0.0
 30
0.0
  0
XRECORD
  5
1B2
102
{ACAD_REACTORS
330
198
102
}
330
198
100
AcDbXrecord
 10
0.0
 20
0.0
 30
0.0
  0
XRECORD
  5
1AF
102
{ACAD_REACTORS
330
198
102
}
330
198
100
AcDbXrecord
340
0
  0
XRECORD
  5
1B0
102
{ACAD_REACTORS
330
198
102
}
330
198
100
AcDbXrecord
 70
     1
  0
XRECORD
  5
1A4
102
{ACAD_REACTORS
330
198
102
}
330
198
100
AcDbXrecord
  1
{FDFC0310-5B9A-4ADD-A0C2-E417B0540642}
  0
DICTIONARYVAR
  5
191
102
{ACAD_REACTORS
330
190
102
}
330
190
100
DictionaryVariables
280
     0
  1
1
  0
ENDSEC
  0
EOF
