  0
SECTION
  2
HEADER
  9
$ACADVER
  1
AC1015
  9
$ACADMAINTVER
 70
    13
  9
$DWGCODEPAGE
  3
ANSI_1252
  9
$INSBASE
 10
0.0
 20
0.0
 30
0.0
  9
$EXTMIN
 10
0.113000000000018
 20
0.0849999999999825
 30
0.0
  9
$EXTMAX
 10
142.887
 20
152.915
 30
0.0
  9
$LIMMIN
 10
0.0
 20
0.0
  9
$LIMMAX
 10
12.0
 20
9.0
  9
$ORTHOMODE
 70
     0
  9
$REGENMODE
 70
     1
  9
$FILLMODE
 70
     1
  9
$QTEXTMODE
 70
     0
  9
$MIRRTEXT
 70
     1
  9
$LTSCALE
 40
1.0
  9
$ATTMODE
 70
     1
  9
$TEXTSIZE
 40
0.2
  9
$TRACEWID
 40
0.05
  9
$TEXTSTYLE
  7
Standard
  9
$CLAYER
  8
0
  9
$CELTYPE
  6
Continuous
  9
$CECOLOR
 62
   256
  9
$CELTSCALE
 40
1.0
  9
$DISPSILH
 70
     0
  9
$DIMSCALE
 40
1.0
  9
$DIMASZ
 40
0.18
  9
$DIMEXO
 40
0.0625
  9
$DIMDLI
 40
0.38
  9
$DIMRND
 40
0.0
  9
$DIMDLE
 40
0.0
  9
$DIMEXE
 40
0.18
  9
$DIMTP
 40
0.0
  9
$DIMTM
 40
0.0
  9
$DIMTXT
 40
0.18
  9
$DIMCEN
 40
0.09
  9
$DIMTSZ
 40
0.0
  9
$DIMTOL
 70
     0
  9
$DIMLIM
 70
     0
  9
$DIMTIH
 70
     1
  9
$DIMTOH
 70
     1
  9
$DIMSE1
 70
     0
  9
$DIMSE2
 70
     0
  9
$DIMTAD
 70
     0
  9
$DIMZIN
 70
     0
  9
$DIMBLK
  1

  9
$DIMASO
 70
     1
  9
$DIMSHO
 70
     1
  9
$DIMPOST
  1

  9
$DIMAPOST
  1

  9
$DIMALT
 70
     0
  9
$DIMALTD
 70
     2
  9
$DIMALTF
 40
25.4
  9
$DIMLFAC
 40
1.0
  9
$DIMTOFL
 70
     0
  9
$DIMTVP
 40
0.0
  9
$DIMTIX
 70
     0
  9
$DIMSOXD
 70
     0
  9
$DIMSAH
 70
     0
  9
$DIMBLK1
  1

  9
$DIMBLK2
  1

  9
$DIMSTYLE
  2
Standard
  9
$DIMCLRD
 70
     0
  9
$DIMCLRE
 70
     0
  9
$DIMCLRT
 70
     0
  9
$DIMTFAC
 40
1.0
  9
$DIMGAP
 40
0.09
  9
$DIMJUST
 70
     0
  9
$DIMSD1
 70
     0
  9
$DIMSD2
 70
     0
  9
$DIMTOLJ
 70
     1
  9
$DIMTZIN
 70
     0
  9
$DIMALTZ
 70
     0
  9
$DIMALTTZ
 70
     0
  9
$DIMUPT
 70
     0
  9
$DIMDEC
 70
     4
  9
$DIMTDEC
 70
     4
  9
$DIMALTU
 70
     2
  9
$DIMALTTD
 70
     2
  9
$DIMTXSTY
  7
Standard
  9
$DIMAUNIT
 70
     0
  9
$DIMADEC
 70
     0
  9
$DIMALTRND
 40
0.0
  9
$DIMAZIN
 70
     0
  9
$DIMDSEP
 70
    46
  9
$DIMATFIT
 70
     3
  9
$DIMFRAC
 70
     0
  9
$DIMLDRBLK
  1

  9
$DIMLUNIT
 70
     2
  9
$DIMLWD
 70
    -2
  9
$DIMLWE
 70
    -2
  9
$DIMTMOVE
 70
     0
  9
$LUNITS
 70
     2
  9
$LUPREC
 70
     4
  9
$SKETCHINC
 40
0.1
  9
$FILLETRAD
 40
0.0
  9
$AUNITS
 70
     0
  9
$AUPREC
 70
     0
  9
$MENU
  1
.
  9
$ELEVATION
 40
0.0
  9
$PELEVATION
 40
0.0
  9
$THICKNESS
 40
0.0
  9
$LIMCHECK
 70
     0
  9
$CHAMFERA
 40
0.0
  9
$CHAMFERB
 40
0.0
  9
$CHAMFERC
 40
0.0
  9
$CHAMFERD
 40
0.0
  9
$SKPOLY
 70
     0
  9
$TDCREATE
 40
2454637.828384294
  9
$TDUCREATE
 40
2454637.745050960
  9
$TDUPDATE
 40
2454637.835583367
  9
$TDUUPDATE
 40
2454637.752250035
  9
$TDINDWG
 40
0.0071990741
  9
$TDUSRTIMER
 40
0.0071990741
  9
$USRTIMER
 70
     1
  9
$ANGBASE
 50
0.0
  9
$ANGDIR
 70
     0
  9
$PDMODE
 70
     0
  9
$PDSIZE
 40
0.0
  9
$PLINEWID
 40
0.0
  9
$SPLFRAME
 70
     0
  9
$SPLINETYPE
 70
     6
  9
$SPLINESEGS
 70
     8
  9
$HANDSEED
  5
1D6
  9
$SURFTAB1
 70
     6
  9
$SURFTAB2
 70
     6
  9
$SURFTYPE
 70
     6
  9
$SURFU
 70
     6
  9
$SURFV
 70
     6
  9
$UCSBASE
  2

  9
$UCSNAME
  2

  9
$UCSORG
 10
0.0
 20
0.0
 30
0.0
  9
$UCSXDIR
 10
1.0
 20
0.0
 30
0.0
  9
$UCSYDIR
 10
0.0
 20
1.0
 30
0.0
  9
$UCSORTHOREF
  2

  9
$UCSORTHOVIEW
 70
     1
  9
$UCSORGTOP
 10
0.0
 20
0.0
 30
0.0
  9
$UCSORGBOTTOM
 10
0.0
 20
0.0
 30
0.0
  9
$UCSORGLEFT
 10
0.0
 20
0.0
 30
0.0
  9
$UCSORGRIGHT
 10
0.0
 20
0.0
 30
0.0
  9
$UCSORGFRONT
 10
0.0
 20
0.0
 30
0.0
  9
$UCSORGBACK
 10
0.0
 20
0.0
 30
0.0
  9
$PUCSBASE
  2

  9
$PUCSNAME
  2

  9
$PUCSORG
 10
0.0
 20
0.0
 30
0.0
  9
$PUCSXDIR
 10
1.0
 20
0.0
 30
0.0
  9
$PUCSYDIR
 10
0.0
 20
1.0
 30
0.0
  9
$PUCSORTHOREF
  2

  9
$PUCSORTHOVIEW
 70
     0
  9
$PUCSORGTOP
 10
0.0
 20
0.0
 30
0.0
  9
$PUCSORGBOTTOM
 10
0.0
 20
0.0
 30
0.0
  9
$PUCSORGLEFT
 10
0.0
 20
0.0
 30
0.0
  9
$PUCSORGRIGHT
 10
0.0
 20
0.0
 30
0.0
  9
$PUCSORGFRONT
 10
0.0
 20
0.0
 30
0.0
  9
$PUCSORGBACK
 10
0.0
 20
0.0
 30
0.0
  9
$USERI1
 70
     0
  9
$USERI2
 70
     0
  9
$USERI3
 70
     0
  9
$USERI4
 70
     0
  9
$USERI5
 70
     0
  9
$USERR1
 40
0.0
  9
$USERR2
 40
0.0
  9
$USERR3
 40
0.0
  9
$USERR4
 40
0.0
  9
$USERR5
 40
0.0
  9
$WORLDVIEW
 70
     1
  9
$SHADEDGE
 70
     3
  9
$SHADEDIF
 70
    70
  9
$TILEMODE
 70
     1
  9
$MAXACTVP
 70
    64
  9
$PINSBASE
 10
0.0
 20
0.0
 30
0.0
  9
$PLIMCHECK
 70
     0
  9
$PEXTMIN
 10
1.000000000000000E+20
 20
1.000000000000000E+20
 30
1.000000000000000E+20
  9
$PEXTMAX
 10
-1.000000000000000E+20
 20
-1.000000000000000E+20
 30
-1.000000000000000E+20
  9
$PLIMMIN
 10
0.0
 20
0.0
  9
$PLIMMAX
 10
12.0
 20
9.0
  9
$UNITMODE
 70
     0
  9
$VISRETAIN
 70
     1
  9
$PLINEGEN
 70
     0
  9
$PSLTSCALE
 70
     1
  9
$TREEDEPTH
 70
  3020
  9
$CMLSTYLE
  2
Standard
  9
$CMLJUST
 70
     0
  9
$CMLSCALE
 40
1.0
  9
$PROXYGRAPHICS
 70
     1
  9
$MEASUREMENT
 70
     0
  9
$CELWEIGHT
370
    -1
  9
$ENDCAPS
280
     0
  9
$JOINSTYLE
280
     0
  9
$LWDISPLAY
290
     0
  9
$INSUNITS
 70
     0
  9
$HYPERLINKBASE
  1

  9
$STYLESHEET
  1

  9
$XEDIT
290
     1
  9
$CEPSNTYPE
380
     0
  9
$PSTYLEMODE
290
     1
  9
$FINGERPRINTGUID
  2
{D0DF1996-B873-47C1-A509-50282F11D462}
  9
$VERSIONGUID
  2
{D3EEC712-3F27-4BAC-B1DF-589F21E3CA77}
  9
$EXTNAMES
290
     1
  9
$PSVPSCALE
 40
0.0
  9
$OLESTARTUP
290
     0
  0
ENDSEC
  0
SECTION
  2
CLASSES
  0
CLASS
  1
ACDBDICTIONARYWDFLT
  2
AcDbDictionaryWithDefault
  3
AutoCAD 2000
 90
        0
280
     0
281
     0
  0
CLASS
  1
ACDBPLACEHOLDER
  2
AcDbPlaceHolder
  3
AutoCAD 2000
 90
        0
280
     0
281
     0
  0
CLASS
  1
LAYOUT
  2
AcDbLayout
  3
AutoCAD 2000
 90
        0
280
     0
281
     0
  0
CLASS
  1
DICTIONARYVAR
  2
AcDbDictionaryVar
  3
AutoCAD 2000
 90
        0
280
     0
281
     0
  0
ENDSEC
  0
SECTION
  2
TABLES
  0
TABLE
  2
VPORT
  5
8
330
0
100
AcDbSymbolTable
 70
     2
  0
VPORT
  5
1D5
330
8
100
AcDbSymbolTableRecord
100
AcDbViewportTableRecord
  2
*Active
 70
     0
 10
0.0
 20
0.0
 11
1.0
 21
1.0
 12
71.5
 22
76.49999999999998
 13
0.0
 23
0.0
 14
1.0
 24
1.0
 15
0.0
 25
0.0
 16
0.0
 26
0.0
 36
1.0
 17
0.0
 27
0.0
 37
0.0
 40
154.0026086956521
 41
2.043533930857874
 42
50.0
 43
0.0
 44
0.0
 50
0.0
 51
0.0
 71
     0
 72
   100
 73
     1
 74
     3
 75
     0
 76
     0
 77
     0
 78
     0
281
     0
 65
     1
110
0.0
120
0.0
130
0.0
111
1.0
121
0.0
131
0.0
112
0.0
122
1.0
132
0.0
 79
     1
146
0.0
  0
ENDTAB
  0
TABLE
  2
LTYPE
  5
5
330
0
100
AcDbSymbolTable
 70
     1
  0
LTYPE
  5
13
330
5
100
AcDbSymbolTableRecord
100
AcDbLinetypeTableRecord
  2
ByBlock
 70
     0
  3

 72
    65
 73
     0
 40
0.0
  0
LTYPE
  5
14
330
5
100
AcDbSymbolTableRecord
100
AcDbLinetypeTableRecord
  2
ByLayer
 70
     0
  3

 72
    65
 73
     0
 40
0.0
  0
LTYPE
  5
15
330
5
100
AcDbSymbolTableRecord
100
AcDbLinetypeTableRecord
  2
Continuous
 70
     0
  3
Solid line
 72
    65
 73
     0
 40
0.0
  0
ENDTAB
  0
TABLE
  2
LAYER
  5
2
330
0
100
AcDbSymbolTable
 70
     1
  0
LAYER
  5
10
330
2
100
AcDbSymbolTableRecord
100
AcDbLayerTableRecord
  2
0
 70
     0
 62
     7
  6
Continuous
370
    -3
390
F
  0
ENDTAB
  0
TABLE
  2
STYLE
  5
3
330
0
100
AcDbSymbolTable
 70
     1
  0
STYLE
  5
11
330
3
100
AcDbSymbolTableRecord
100
AcDbTextStyleTableRecord
  2
Standard
 70
     0
 40
0.0
 41
1.0
 50
0.0
 71
     0
 42
0.2
  3
txt
  4

  0
ENDTAB
  0
TABLE
  2
VIEW
  5
6
330
0
100
AcDbSymbolTable
 70
     0
  0
ENDTAB
  0
TABLE
  2
UCS
  5
7
330
0
100
AcDbSymbolTable
 70
     0
  0
ENDTAB
  0
TABLE
  2
APPID
  5
9
330
0
100
AcDbSymbolTable
 70
     1
  0
APPID
  5
12
330
9
100
AcDbSymbolTableRecord
100
AcDbRegAppTableRecord
  2
ACAD
 70
     0
  0
ENDTAB
  0
TABLE
  2
DIMSTYLE
  5
A
330
0
100
AcDbSymbolTable
 70
     1
100
AcDbDimStyleTable
 71
     0
  0
DIMSTYLE
105
1C6
330
A
100
AcDbSymbolTableRecord
100
AcDbDimStyleTableRecord
  2
Standard
 70
     0
340
11
  0
ENDTAB
  0
TABLE
  2
BLOCK_RECORD
  5
1
330
0
100
AcDbSymbolTable
 70
     0
  0
BLOCK_RECORD
  5
1E
330
1
100
AcDbSymbolTableRecord
100
AcDbBlockTableRecord
  2
*Model_Space
340
21
  0
BLOCK_RECORD
  5
1A
330
1
100
AcDbSymbolTableRecord
100
AcDbBlockTableRecord
  2
*Paper_Space
340
1D
  0
ENDTAB
  0
ENDSEC
  0
SECTION
  2
BLOCKS
  0
BLOCK
  5
1F
330
1E
100
AcDbEntity
  8
0
100
AcDbBlockBegin
  2
*Model_Space
 70
     0
 10
0.0
 20
0.0
 30
0.0
  3
*Model_Space
  1

  0
ENDBLK
  5
20
330
1E
100
AcDbEntity
  8
0
100
AcDbBlockEnd
  0
BLOCK
  5
1B
330
1A
100
AcDbEntity
 67
     1
  8
0
100
AcDbBlockBegin
  2
*Paper_Space
 70
     0
 10
0.0
 20
0.0
 30
0.0
  3
*Paper_Space
  1

  0
ENDBLK
  5
1C
330
1A
100
AcDbEntity
 67
     1
  8
0
100
AcDbBlockEnd
  0
ENDSEC
  0
SECTION
  2
ENTITIES
  0
LINE
  5
22
330
1E
100
AcDbEntity
  8
0
100
AcDbLine
 10
0.113000000000018
 20
76.08499999999999
 30
0.0
 11
0.113000000000019
 21
77.38500000000001
 31
0.0
  0
LINE
  5
23
330
1E
100
AcDbEntity
  8
0
100
AcDbLine
 10
0.113000000000019
 20
77.38500000000001
 30
0.0
 11
0.113000000000019
 21
79.58499999999999
 31
0.0
  0
LINE
  5
24
330
1E
100
AcDbEntity
  8
0
100
AcDbLine
 10
0.113000000000018
 20
75.58499999999999
 30
0.0
 11
0.6130000000000191
 21
75.08499999999999
 31
0.0
  0
LINE
  5
25
330
1E
100
AcDbEntity
  8
0
100
AcDbLine
 10
0.113000000000018
 20
75.58499999999999
 30
0.0
 11
0.113000000000018
 21
76.08499999999999
 31
0.0
  0
LINE
  5
26
330
1E
100
AcDbEntity
  8
0
100
AcDbLine
 10
0.113000000000018
 20
75.58499999999999
 30
0.0
 11
0.6130000000000191
 21
75.08499999999999
 31
0.0
  0
LINE
  5
27
330
1E
100
AcDbEntity
  8
0
100
AcDbLine
 10
0.113000000000019
 20
79.58499999999999
 30
0.0
 11
0.113000000000019
 21
82.385
 31
0.0
  0
LINE
  5
28
330
1E
100
AcDbEntity
  8
0
100
AcDbLine
 10
0.6130000000000191
 20
75.08499999999999
 30
0.0
 11
9.613000000000019
 21
75.08499999999999
 31
0.0
  0
LINE
  5
29
330
1E
100
AcDbEntity
  8
0
100
AcDbLine
 10
0.6130000000000191
 20
75.08499999999999
 30
0.0
 11
0.6130000000000191
 21
75.58499999999999
 31
0.0
  0
LINE
  5
2A
330
1E
100
AcDbEntity
  8
0
100
AcDbLine
 10
0.6130000000000181
 20
75.08499999999999
 30
0.0
 11
9.613000000000019
 21
75.08499999999999
 31
0.0
  0
LINE
  5
2B
330
1E
100
AcDbEntity
  8
0
100
AcDbLine
 10
9.613000000000019
 20
75.08499999999999
 30
0.0
 11
10.113
 21
76.08499999999999
 31
0.0
  0
LINE
  5
2C
330
1E
100
AcDbEntity
  8
0
100
AcDbLine
 10
9.613000000000019
 20
75.08499999999999
 30
0.0
 11
9.613000000000019
 21
75.58499999999999
 31
0.0
  0
LINE
  5
2D
330
1E
100
AcDbEntity
  8
0
100
AcDbLine
 10
10.61299999999999
 20
75.08499999999999
 30
0.0
 11
24.113
 21
75.08499999999999
 31
0.0
  0
LINE
  5
2E
330
1E
100
AcDbEntity
  8
0
100
AcDbLine
 10
10.61299999999999
 20
75.08499999999999
 30
0.0
 11
10.61299999999999
 21
75.58499999999999
 31
0.0
  0
LINE
  5
2F
330
1E
100
AcDbEntity
  8
0
100
AcDbLine
 10
0.6130000000000191
 20
75.58499999999999
 30
0.0
 11
0.6130000000000191
 21
75.08499999999999
 31
0.0
  0
LINE
  5
30
330
1E
100
AcDbEntity
  8
0
100
AcDbLine
 10
0.6130000000000191
 20
75.58499999999999
 30
0.0
 11
0.6130000000000191
 21
76.985
 31
0.0
  0
LINE
  5
31
330
1E
100
AcDbEntity
  8
0
100
AcDbLine
 10
9.613000000000019
 20
75.58499999999999
 30
0.0
 11
9.613000000000019
 21
75.08499999999999
 31
0.0
  0
LINE
  5
32
330
1E
100
AcDbEntity
  8
0
100
AcDbLine
 10
9.613000000000019
 20
75.58499999999999
 30
0.0
 11
9.613000000000019
 21
76.985
 31
0.0
  0
LINE
  5
33
330
1E
100
AcDbEntity
  8
0
100
AcDbLine
 10
0.6130000000000191
 20
76.985
 30
0.0
 11
0.6130000000000191
 21
79.185
 31
0.0
  0
LINE
  5
34
330
1E
100
AcDbEntity
  8
0
100
AcDbLine
 10
9.613000000000019
 20
76.985
 30
0.0
 11
9.613000000000019
 21
75.58499999999999
 31
0.0
  0
LINE
  5
35
330
1E
100
AcDbEntity
  8
0
100
AcDbLine
 10
9.613000000000019
 20
76.985
 30
0.0
 11
9.613000000000019
 21
79.185
 31
0.0
  0
LINE
  5
36
330
1E
100
AcDbEntity
  8
0
100
AcDbLine
 10
10.113
 20
76.585
 30
0.0
 11
10.113
 21
76.08499999999999
 31
0.0
  0
LINE
  5
37
330
1E
100
AcDbEntity
  8
0
100
AcDbLine
 10
10.113
 20
76.585
 30
0.0
 11
10.113
 21
77.785
 31
0.0
  0
LINE
  5
38
330
1E
100
AcDbEntity
  8
0
100
AcDbLine
 10
10.61299999999999
 20
76.985
 30
0.0
 11
10.61299999999999
 21
75.58499999999999
 31
0.0
  0
LINE
  5
39
330
1E
100
AcDbEntity
  8
0
100
AcDbLine
 10
10.61299999999999
 20
76.985
 30
0.0
 11
10.61299999999999
 21
79.185
 31
0.0
  0
LINE
  5
3A
330
1E
100
AcDbEntity
  8
0
100
AcDbLine
 10
10.61299999999999
 20
75.58499999999999
 30
0.0
 11
10.61299999999999
 21
75.08499999999999
 31
0.0
  0
LINE
  5
3B
330
1E
100
AcDbEntity
  8
0
100
AcDbLine
 10
10.61299999999999
 20
75.58499999999999
 30
0.0
 11
10.61299999999999
 21
76.985
 31
0.0
  0
LINE
  5
3C
330
1E
100
AcDbEntity
  8
0
100
AcDbLine
 10
10.113
 20
76.08499999999999
 30
0.0
 11
10.61299999999999
 21
75.08499999999999
 31
0.0
  0
LINE
  5
3D
330
1E
100
AcDbEntity
  8
0
100
AcDbLine
 10
10.113
 20
76.08499999999999
 30
0.0
 11
10.113
 21
76.585
 31
0.0
  0
LINE
  5
3E
330
1E
100
AcDbEntity
  8
0
100
AcDbLine
 10
24.113
 20
75.08499999999999
 30
0.0
 11
26.113
 21
75.58499999999999
 31
0.0
  0
LINE
  5
3F
330
1E
100
AcDbEntity
  8
0
100
AcDbLine
 10
32.113
 20
75.08499999999999
 30
0.0
 11
36.9706
 21
75.53650000000001
 31
0.0
  0
LINE
  5
40
330
1E
100
AcDbEntity
  8
0
100
AcDbLine
 10
30.113
 20
77.08499999999999
 30
0.0
 11
30.113
 21
78.285
 31
0.0
  0
LINE
  5
41
330
1E
100
AcDbEntity
  8
0
100
AcDbLine
 10
30.113
 20
77.08499999999999
 30
0.0
 11
30.113
 21
76.585
 31
0.0
  0
LINE
  5
42
330
1E
100
AcDbEntity
  8
0
100
AcDbLine
 10
30.113
 20
76.585
 30
0.0
 11
30.113
 21
77.08499999999999
 31
0.0
  0
LINE
  5
43
330
1E
100
AcDbEntity
  8
0
100
AcDbLine
 10
30.113
 20
76.08499999999999
 30
0.0
 11
30.113
 21
77.38500000000001
 31
0.0
  0
LINE
  5
44
330
1E
100
AcDbEntity
  8
0
100
AcDbLine
 10
30.113
 20
76.08499999999999
 30
0.0
 11
30.113
 21
75.58499999999999
 31
0.0
  0
LINE
  5
45
330
1E
100
AcDbEntity
  8
0
100
AcDbLine
 10
30.613
 20
75.58499999999999
 30
0.0
 11
30.613
 21
75.08499999999999
 31
0.0
  0
LINE
  5
46
330
1E
100
AcDbEntity
  8
0
100
AcDbLine
 10
30.613
 20
75.58499999999999
 30
0.0
 11
30.613
 21
76.985
 31
0.0
  0
LINE
  5
47
330
1E
100
AcDbEntity
  8
0
100
AcDbLine
 10
41.4372
 20
76.75270000000001
 30
0.0
 11
45.55629999999999
 21
78.5412
 31
0.0
  0
LINE
  5
48
330
1E
100
AcDbEntity
  8
0
100
AcDbLine
 10
36.9706
 20
75.53650000000001
 30
0.0
 11
41.4372
 21
76.75270000000001
 31
0.0
  0
LINE
  5
49
330
1E
100
AcDbEntity
  8
0
100
AcDbLine
 10
30.613
 20
76.985
 30
0.0
 11
30.613
 21
75.58499999999999
 31
0.0
  0
LINE
  5
4A
330
1E
100
AcDbEntity
  8
0
100
AcDbLine
 10
30.613
 20
76.985
 30
0.0
 11
30.613
 21
79.185
 31
0.0
  0
LINE
  5
4B
330
1E
100
AcDbEntity
  8
0
100
AcDbLine
 10
30.113
 20
75.58499999999999
 30
0.0
 11
30.113
 21
76.08499999999999
 31
0.0
  0
LINE
  5
4C
330
1E
100
AcDbEntity
  8
0
100
AcDbLine
 10
30.113
 20
75.58499999999999
 30
0.0
 11
30.613
 21
75.08499999999999
 31
0.0
  0
LINE
  5
4D
330
1E
100
AcDbEntity
  8
0
100
AcDbLine
 10
30.613
 20
75.08499999999999
 30
0.0
 11
32.113
 21
75.08499999999999
 31
0.0
  0
LINE
  5
4E
330
1E
100
AcDbEntity
  8
0
100
AcDbLine
 10
30.613
 20
75.08499999999999
 30
0.0
 11
30.613
 21
75.58499999999999
 31
0.0
  0
LINE
  5
4F
330
1E
100
AcDbEntity
  8
0
100
AcDbLine
 10
26.113
 20
75.58499999999999
 30
0.0
 11
28.613
 21
77.08499999999999
 31
0.0
  0
LINE
  5
50
330
1E
100
AcDbEntity
  8
0
100
AcDbLine
 10
10.113
 20
77.785
 30
0.0
 11
10.113
 21
76.585
 31
0.0
  0
LINE
  5
51
330
1E
100
AcDbEntity
  8
0
100
AcDbLine
 10
10.113
 20
77.785
 30
0.0
 11
10.113
 21
79.88500000000001
 31
0.0
  0
LINE
  5
52
330
1E
100
AcDbEntity
  8
0
100
AcDbLine
 10
30.113
 20
78.285
 30
0.0
 11
30.113
 21
78.58499999999999
 31
0.0
  0
LINE
  5
53
330
1E
100
AcDbEntity
  8
0
100
AcDbLine
 10
30.113
 20
78.285
 30
0.0
 11
30.113
 21
77.08499999999999
 31
0.0
  0
LINE
  5
54
330
1E
100
AcDbEntity
  8
0
100
AcDbLine
 10
30.113
 20
78.285
 30
0.0
 11
30.113
 21
80.28499999999999
 31
0.0
  0
LINE
  5
55
330
1E
100
AcDbEntity
  8
0
100
AcDbLine
 10
9.613000000000019
 20
79.185
 30
0.0
 11
9.613000000000019
 21
82.08499999999999
 31
0.0
  0
LINE
  5
56
330
1E
100
AcDbEntity
  8
0
100
AcDbLine
 10
9.613000000000019
 20
79.185
 30
0.0
 11
9.613000000000019
 21
76.985
 31
0.0
  0
LINE
  5
57
330
1E
100
AcDbEntity
  8
0
100
AcDbLine
 10
0.6130000000000191
 20
79.185
 30
0.0
 11
0.6130000000000191
 21
82.08499999999999
 31
0.0
  0
LINE
  5
58
330
1E
100
AcDbEntity
  8
0
100
AcDbLine
 10
0.6130000000000191
 20
82.08499999999999
 30
0.0
 11
0.6130000000000191
 21
85.485
 31
0.0
  0
LINE
  5
59
330
1E
100
AcDbEntity
  8
0
100
AcDbLine
 10
10.113
 20
79.88500000000001
 30
0.0
 11
10.113
 21
82.58499999999999
 31
0.0
  0
LINE
  5
5A
330
1E
100
AcDbEntity
  8
0
100
AcDbLine
 10
10.113
 20
79.88500000000001
 30
0.0
 11
10.113
 21
77.785
 31
0.0
  0
LINE
  5
5B
330
1E
100
AcDbEntity
  8
0
100
AcDbLine
 10
0.113000000000019
 20
85.585
 30
0.0
 11
0.113000000000019
 21
89.085
 31
0.0
  0
LINE
  5
5C
330
1E
100
AcDbEntity
  8
0
100
AcDbLine
 10
9.613000000000019
 20
85.485
 30
0.0
 11
9.613000000000019
 21
89.085
 31
0.0
  0
LINE
  5
5D
330
1E
100
AcDbEntity
  8
0
100
AcDbLine
 10
0.6130000000000191
 20
85.485
 30
0.0
 11
0.6130000000000191
 21
89.085
 31
0.0
  0
LINE
  5
5E
330
1E
100
AcDbEntity
  8
0
100
AcDbLine
 10
9.613000000000019
 20
82.08499999999999
 30
0.0
 11
9.613000000000019
 21
85.485
 31
0.0
  0
LINE
  5
5F
330
1E
100
AcDbEntity
  8
0
100
AcDbLine
 10
9.613000000000019
 20
82.08499999999999
 30
0.0
 11
9.613000000000019
 21
79.185
 31
0.0
  0
LINE
  5
60
330
1E
100
AcDbEntity
  8
0
100
AcDbLine
 10
10.113
 20
82.58499999999999
 30
0.0
 11
10.113
 21
79.88500000000001
 31
0.0
  0
LINE
  5
61
330
1E
100
AcDbEntity
  8
0
100
AcDbLine
 10
10.113
 20
82.58499999999999
 30
0.0
 11
10.113
 21
85.785
 31
0.0
  0
LINE
  5
62
330
1E
100
AcDbEntity
  8
0
100
AcDbLine
 10
10.113
 20
85.785
 30
0.0
 11
10.113
 21
82.58499999999999
 31
0.0
  0
LINE
  5
63
330
1E
100
AcDbEntity
  8
0
100
AcDbLine
 10
10.113
 20
85.785
 30
0.0
 11
10.113
 21
89.085
 31
0.0
  0
LINE
  5
64
330
1E
100
AcDbEntity
  8
0
100
AcDbLine
 10
10.61299999999999
 20
82.08499999999999
 30
0.0
 11
10.61299999999999
 21
85.485
 31
0.0
  0
LINE
  5
65
330
1E
100
AcDbEntity
  8
0
100
AcDbLine
 10
10.61299999999999
 20
79.185
 30
0.0
 11
10.61299999999999
 21
82.08499999999999
 31
0.0
  0
LINE
  5
66
330
1E
100
AcDbEntity
  8
0
100
AcDbLine
 10
10.61299999999999
 20
79.185
 30
0.0
 11
10.61299999999999
 21
76.985
 31
0.0
  0
LINE
  5
67
330
1E
100
AcDbEntity
  8
0
100
AcDbLine
 10
30.113
 20
80.28499999999999
 30
0.0
 11
30.113
 21
82.885
 31
0.0
  0
LINE
  5
68
330
1E
100
AcDbEntity
  8
0
100
AcDbLine
 10
30.113
 20
80.28499999999999
 30
0.0
 11
30.113
 21
78.285
 31
0.0
  0
LINE
  5
69
330
1E
100
AcDbEntity
  8
0
100
AcDbLine
 10
30.113
 20
82.885
 30
0.0
 11
30.113
 21
80.28499999999999
 31
0.0
  0
LINE
  5
6A
330
1E
100
AcDbEntity
  8
0
100
AcDbLine
 10
30.113
 20
82.885
 30
0.0
 11
30.113
 21
85.88500000000001
 31
0.0
  0
LINE
  5
6B
330
1E
100
AcDbEntity
  8
0
100
AcDbLine
 10
30.113
 20
79.58499999999999
 30
0.0
 11
30.113
 21
82.385
 31
0.0
  0
LINE
  5
6C
330
1E
100
AcDbEntity
  8
0
100
AcDbLine
 10
30.113
 20
79.58499999999999
 30
0.0
 11
30.113
 21
77.38500000000001
 31
0.0
  0
LINE
  5
6D
330
1E
100
AcDbEntity
  8
0
100
AcDbLine
 10
30.113
 20
82.385
 30
0.0
 11
30.113
 21
79.58499999999999
 31
0.0
  0
LINE
  5
6E
330
1E
100
AcDbEntity
  8
0
100
AcDbLine
 10
30.113
 20
82.385
 30
0.0
 11
30.113
 21
85.585
 31
0.0
  0
LINE
  5
6F
330
1E
100
AcDbEntity
  8
0
100
AcDbLine
 10
30.113
 20
85.88500000000001
 30
0.0
 11
30.113
 21
82.885
 31
0.0
  0
LINE
  5
70
330
1E
100
AcDbEntity
  8
0
100
AcDbLine
 10
30.113
 20
85.88500000000001
 30
0.0
 11
30.113
 21
89.085
 31
0.0
  0
LINE
  5
71
330
1E
100
AcDbEntity
  8
0
100
AcDbLine
 10
30.113
 20
85.585
 30
0.0
 11
30.113
 21
82.385
 31
0.0
  0
LINE
  5
72
330
1E
100
AcDbEntity
  8
0
100
AcDbLine
 10
30.113
 20
85.585
 30
0.0
 11
30.113
 21
89.085
 31
0.0
  0
LINE
  5
73
330
1E
100
AcDbEntity
  8
0
100
AcDbLine
 10
10.61299999999999
 20
85.485
 30
0.0
 11
10.61299999999999
 21
82.08499999999999
 31
0.0
  0
LINE
  5
74
330
1E
100
AcDbEntity
  8
0
100
AcDbLine
 10
10.61299999999999
 20
85.485
 30
0.0
 11
10.61299999999999
 21
89.085
 31
0.0
  0
LINE
  5
75
330
1E
100
AcDbEntity
  8
0
100
AcDbLine
 10
30.113
 20
78.58499999999999
 30
0.0
 11
30.113
 21
77.38500000000001
 31
0.0
  0
LINE
  5
76
330
1E
100
AcDbEntity
  8
0
100
AcDbLine
 10
30.113
 20
78.58499999999999
 30
0.0
 11
30.113
 21
78.285
 31
0.0
  0
LINE
  5
77
330
1E
100
AcDbEntity
  8
0
100
AcDbLine
 10
30.613
 20
82.08499999999999
 30
0.0
 11
30.613
 21
85.485
 31
0.0
  0
LINE
  5
78
330
1E
100
AcDbEntity
  8
0
100
AcDbLine
 10
30.613
 20
79.185
 30
0.0
 11
30.613
 21
82.08499999999999
 31
0.0
  0
LINE
  5
79
330
1E
100
AcDbEntity
  8
0
100
AcDbLine
 10
30.613
 20
79.185
 30
0.0
 11
30.613
 21
76.985
 31
0.0
  0
LINE
  5
7A
330
1E
100
AcDbEntity
  8
0
100
AcDbLine
 10
30.613
 20
85.485
 30
0.0
 11
30.613
 21
82.08499999999999
 31
0.0
  0
LINE
  5
7B
330
1E
100
AcDbEntity
  8
0
100
AcDbLine
 10
30.613
 20
85.485
 30
0.0
 11
30.613
 21
89.085
 31
0.0
  0
LINE
  5
7C
330
1E
100
AcDbEntity
  8
0
100
AcDbLine
 10
53.0007
 20
82.11820000000001
 30
0.0
 11
57.1004
 21
83.085
 31
0.0
  0
LINE
  5
7D
330
1E
100
AcDbEntity
  8
0
100
AcDbLine
 10
48.7326
 20
80.07929999999999
 30
0.0
 11
53.0007
 21
82.11820000000001
 31
0.0
  0
LINE
  5
7E
330
1E
100
AcDbEntity
  8
0
100
AcDbLine
 10
45.55629999999999
 20
78.5412
 30
0.0
 11
48.7326
 21
80.07929999999999
 31
0.0
  0
LINE
  5
7F
330
1E
100
AcDbEntity
  8
0
100
AcDbLine
 10
30.113
 20
77.38500000000001
 30
0.0
 11
30.113
 21
78.58499999999999
 31
0.0
  0
LINE
  5
80
330
1E
100
AcDbEntity
  8
0
100
AcDbLine
 10
30.113
 20
77.38500000000001
 30
0.0
 11
30.113
 21
76.08499999999999
 31
0.0
  0
LINE
  5
81
330
1E
100
AcDbEntity
  8
0
100
AcDbLine
 10
30.113
 20
77.38500000000001
 30
0.0
 11
30.113
 21
79.58499999999999
 31
0.0
  0
LINE
  5
82
330
1E
100
AcDbEntity
  8
0
100
AcDbLine
 10
28.613
 20
77.08499999999999
 30
0.0
 11
30.113
 21
78.58499999999999
 31
0.0
  0
LINE
  5
83
330
1E
100
AcDbEntity
  8
0
100
AcDbLine
 10
0.113000000000019
 20
82.885
 30
0.0
 11
0.113000000000019
 21
85.88500000000001
 31
0.0
  0
LINE
  5
84
330
1E
100
AcDbEntity
  8
0
100
AcDbLine
 10
0.6130000000000191
 20
89.085
 30
0.0
 11
0.6130000000000201
 21
92.68500000000001
 31
0.0
  0
LINE
  5
85
330
1E
100
AcDbEntity
  8
0
100
AcDbLine
 10
9.613000000000019
 20
89.085
 30
0.0
 11
9.613000000000019
 21
85.485
 31
0.0
  0
LINE
  5
86
330
1E
100
AcDbEntity
  8
0
100
AcDbLine
 10
9.613000000000019
 20
89.085
 30
0.0
 11
9.613000000000019
 21
92.68500000000001
 31
0.0
  0
LINE
  5
87
330
1E
100
AcDbEntity
  8
0
100
AcDbLine
 10
10.113
 20
89.085
 30
0.0
 11
10.113
 21
85.785
 31
0.0
  0
LINE
  5
88
330
1E
100
AcDbEntity
  8
0
100
AcDbLine
 10
10.113
 20
89.085
 30
0.0
 11
10.113
 21
92.385
 31
0.0
  0
LINE
  5
89
330
1E
100
AcDbEntity
  8
0
100
AcDbLine
 10
10.61299999999999
 20
89.085
 30
0.0
 11
10.61299999999999
 21
85.485
 31
0.0
  0
LINE
  5
8A
330
1E
100
AcDbEntity
  8
0
100
AcDbLine
 10
10.61299999999999
 20
89.085
 30
0.0
 11
10.61299999999999
 21
92.68500000000001
 31
0.0
  0
LINE
  5
8B
330
1E
100
AcDbEntity
  8
0
100
AcDbLine
 10
10.113
 20
92.385
 30
0.0
 11
10.113
 21
89.085
 31
0.0
  0
LINE
  5
8C
330
1E
100
AcDbEntity
  8
0
100
AcDbLine
 10
10.113
 20
92.385
 30
0.0
 11
10.113
 21
95.585
 31
0.0
  0
LINE
  5
8D
330
1E
100
AcDbEntity
  8
0
100
AcDbLine
 10
30.113
 20
92.285
 30
0.0
 11
30.113
 21
89.085
 31
0.0
  0
LINE
  5
8E
330
1E
100
AcDbEntity
  8
0
100
AcDbLine
 10
30.113
 20
92.285
 30
0.0
 11
30.113
 21
95.28499999999999
 31
0.0
  0
LINE
  5
8F
330
1E
100
AcDbEntity
  8
0
100
AcDbLine
 10
30.113
 20
89.085
 30
0.0
 11
30.113
 21
92.58499999999999
 31
0.0
  0
LINE
  5
90
330
1E
100
AcDbEntity
  8
0
100
AcDbLine
 10
30.113
 20
89.085
 30
0.0
 11
30.113
 21
92.285
 31
0.0
  0
LINE
  5
91
330
1E
100
AcDbEntity
  8
0
100
AcDbLine
 10
30.113
 20
89.085
 30
0.0
 11
30.113
 21
85.585
 31
0.0
  0
LINE
  5
92
330
1E
100
AcDbEntity
  8
0
100
AcDbLine
 10
30.113
 20
89.085
 30
0.0
 11
30.113
 21
85.88500000000001
 31
0.0
  0
LINE
  5
93
330
1E
100
AcDbEntity
  8
0
100
AcDbLine
 10
30.113
 20
92.58499999999999
 30
0.0
 11
30.113
 21
89.085
 31
0.0
  0
LINE
  5
94
330
1E
100
AcDbEntity
  8
0
100
AcDbLine
 10
30.113
 20
92.58499999999999
 30
0.0
 11
30.113
 21
95.785
 31
0.0
  0
LINE
  5
95
330
1E
100
AcDbEntity
  8
0
100
AcDbLine
 10
30.613
 20
89.085
 30
0.0
 11
30.613
 21
92.68500000000001
 31
0.0
  0
LINE
  5
96
330
1E
100
AcDbEntity
  8
0
100
AcDbLine
 10
30.613
 20
89.085
 30
0.0
 11
30.613
 21
85.485
 31
0.0
  0
LINE
  5
97
330
1E
100
AcDbEntity
  8
0
100
AcDbLine
 10
0.11300000000002
 20
99.88500000000001
 30
0.0
 11
0.11300000000002
 21
101.085
 31
0.0
  0
LINE
  5
98
330
1E
100
AcDbEntity
  8
0
100
AcDbLine
 10
0.11300000000002
 20
98.58499999999999
 30
0.0
 11
0.11300000000002
 21
100.7849999999999
 31
0.0
  0
LINE
  5
99
330
1E
100
AcDbEntity
  8
0
100
AcDbLine
 10
0.11300000000002
 20
100.7849999999999
 30
0.0
 11
0.11300000000002
 21
102.085
 31
0.0
  0
LINE
  5
9A
330
1E
100
AcDbEntity
  8
0
100
AcDbLine
 10
0.11300000000002
 20
97.885
 30
0.0
 11
0.11300000000002
 21
99.88500000000001
 31
0.0
  0
LINE
  5
9B
330
1E
100
AcDbEntity
  8
0
100
AcDbLine
 10
0.6130000000000201
 20
92.68500000000001
 30
0.0
 11
0.6130000000000201
 21
96.08499999999999
 31
0.0
  0
LINE
  5
9C
330
1E
100
AcDbEntity
  8
0
100
AcDbLine
 10
9.613000000000019
 20
92.68500000000001
 30
0.0
 11
9.613000000000019
 21
89.085
 31
0.0
  0
LINE
  5
9D
330
1E
100
AcDbEntity
  8
0
100
AcDbLine
 10
9.613000000000019
 20
92.68500000000001
 30
0.0
 11
9.613000000000019
 21
96.08499999999999
 31
0.0
  0
LINE
  5
9E
330
1E
100
AcDbEntity
  8
0
100
AcDbLine
 10
10.61299999999999
 20
92.68500000000001
 30
0.0
 11
10.61299999999999
 21
89.085
 31
0.0
  0
LINE
  5
9F
330
1E
100
AcDbEntity
  8
0
100
AcDbLine
 10
10.61299999999999
 20
92.68500000000001
 30
0.0
 11
10.61299999999999
 21
96.08499999999999
 31
0.0
  0
LINE
  5
A0
330
1E
100
AcDbEntity
  8
0
100
AcDbLine
 10
0.6130000000000201
 20
96.08499999999999
 30
0.0
 11
0.6130000000000201
 21
98.985
 31
0.0
  0
LINE
  5
A1
330
1E
100
AcDbEntity
  8
0
100
AcDbLine
 10
9.613000000000019
 20
96.08499999999999
 30
0.0
 11
9.613000000000019
 21
92.68500000000001
 31
0.0
  0
LINE
  5
A2
330
1E
100
AcDbEntity
  8
0
100
AcDbLine
 10
9.613000000000019
 20
96.08499999999999
 30
0.0
 11
9.613000000000019
 21
98.985
 31
0.0
  0
LINE
  5
A3
330
1E
100
AcDbEntity
  8
0
100
AcDbLine
 10
10.113
 20
95.585
 30
0.0
 11
10.113
 21
92.385
 31
0.0
  0
LINE
  5
A4
330
1E
100
AcDbEntity
  8
0
100
AcDbLine
 10
10.113
 20
95.585
 30
0.0
 11
10.113
 21
98.285
 31
0.0
  0
LINE
  5
A5
330
1E
100
AcDbEntity
  8
0
100
AcDbLine
 10
0.6130000000000201
 20
98.985
 30
0.0
 11
0.6130000000000201
 21
101.185
 31
0.0
  0
LINE
  5
A6
330
1E
100
AcDbEntity
  8
0
100
AcDbLine
 10
10.113
 20
98.285
 30
0.0
 11
10.113
 21
100.385
 31
0.0
  0
LINE
  5
A7
330
1E
100
AcDbEntity
  8
0
100
AcDbLine
 10
9.613000000000019
 20
98.985
 30
0.0
 11
9.613000000000019
 21
96.08499999999999
 31
0.0
  0
LINE
  5
A8
330
1E
100
AcDbEntity
  8
0
100
AcDbLine
 10
9.613000000000019
 20
98.985
 30
0.0
 11
9.613000000000019
 21
101.185
 31
0.0
  0
LINE
  5
A9
330
1E
100
AcDbEntity
  8
0
100
AcDbLine
 10
10.61299999999999
 20
98.985
 30
0.0
 11
10.61299999999999
 21
96.08499999999999
 31
0.0
  0
LINE
  5
AA
330
1E
100
AcDbEntity
  8
0
100
AcDbLine
 10
10.61299999999999
 20
98.985
 30
0.0
 11
10.61299999999999
 21
101.185
 31
0.0
  0
LINE
  5
AB
330
1E
100
AcDbEntity
  8
0
100
AcDbLine
 10
10.61299999999999
 20
96.08499999999999
 30
0.0
 11
10.61299999999999
 21
92.68500000000001
 31
0.0
  0
LINE
  5
AC
330
1E
100
AcDbEntity
  8
0
100
AcDbLine
 10
10.61299999999999
 20
96.08499999999999
 30
0.0
 11
10.61299999999999
 21
98.985
 31
0.0
  0
LINE
  5
AD
330
1E
100
AcDbEntity
  8
0
100
AcDbLine
 10
30.113
 20
97.885
 30
0.0
 11
30.113
 21
95.28499999999999
 31
0.0
  0
LINE
  5
AE
330
1E
100
AcDbEntity
  8
0
100
AcDbLine
 10
30.113
 20
97.885
 30
0.0
 11
30.113
 21
99.88500000000001
 31
0.0
  0
LINE
  5
AF
330
1E
100
AcDbEntity
  8
0
100
AcDbLine
 10
30.113
 20
95.28499999999999
 30
0.0
 11
30.113
 21
92.285
 31
0.0
  0
LINE
  5
B0
330
1E
100
AcDbEntity
  8
0
100
AcDbLine
 10
30.113
 20
95.28499999999999
 30
0.0
 11
30.113
 21
97.885
 31
0.0
  0
LINE
  5
B1
330
1E
100
AcDbEntity
  8
0
100
AcDbLine
 10
30.113
 20
98.58499999999999
 30
0.0
 11
30.113
 21
100.7849999999999
 31
0.0
  0
LINE
  5
B2
330
1E
100
AcDbEntity
  8
0
100
AcDbLine
 10
30.113
 20
95.785
 30
0.0
 11
30.113
 21
92.58499999999999
 31
0.0
  0
LINE
  5
B3
330
1E
100
AcDbEntity
  8
0
100
AcDbLine
 10
30.113
 20
95.785
 30
0.0
 11
30.113
 21
98.58499999999999
 31
0.0
  0
LINE
  5
B4
330
1E
100
AcDbEntity
  8
0
100
AcDbLine
 10
10.113
 20
100.385
 30
0.0
 11
10.113
 21
98.285
 31
0.0
  0
LINE
  5
B5
330
1E
100
AcDbEntity
  8
0
100
AcDbLine
 10
10.113
 20
100.385
 30
0.0
 11
10.113
 21
101.5849999999999
 31
0.0
  0
LINE
  5
B6
330
1E
100
AcDbEntity
  8
0
100
AcDbLine
 10
30.113
 20
99.585
 30
0.0
 11
30.113
 21
99.88500000000001
 31
0.0
  0
LINE
  5
B7
330
1E
100
AcDbEntity
  8
0
100
AcDbLine
 10
30.613
 20
96.08499999999999
 30
0.0
 11
30.613
 21
92.68500000000001
 31
0.0
  0
LINE
  5
B8
330
1E
100
AcDbEntity
  8
0
100
AcDbLine
 10
30.613
 20
96.08499999999999
 30
0.0
 11
30.613
 21
98.985
 31
0.0
  0
LINE
  5
B9
330
1E
100
AcDbEntity
  8
0
100
AcDbLine
 10
30.613
 20
92.68500000000001
 30
0.0
 11
30.613
 21
89.085
 31
0.0
  0
LINE
  5
BA
330
1E
100
AcDbEntity
  8
0
100
AcDbLine
 10
30.613
 20
92.68500000000001
 30
0.0
 11
30.613
 21
96.08499999999999
 31
0.0
  0
LINE
  5
BE
330
1E
100
AcDbEntity
  8
0
100
AcDbLine
 10
30.613
 20
98.985
 30
0.0
 11
30.613
 21
96.08499999999999
 31
0.0
  0
LINE
  5
BF
330
1E
100
AcDbEntity
  8
0
100
AcDbLine
 10
30.613
 20
98.985
 30
0.0
 11
30.613
 21
101.185
 31
0.0
  0
LINE
  5
C0
330
1E
100
AcDbEntity
  8
0
100
AcDbLine
 10
48.7326
 20
98.0907
 30
0.0
 11
53.0007
 21
96.0518
 31
0.0
  0
LINE
  5
C1
330
1E
100
AcDbEntity
  8
0
100
AcDbLine
 10
57.1004
 20
95.08499999999999
 30
0.0
 11
74.113
 21
95.08499999999999
 31
0.0
  0
LINE
  5
C3
330
1E
100
AcDbEntity
  8
0
100
AcDbLine
 10
53.0007
 20
96.0518
 30
0.0
 11
57.1004
 21
95.08499999999999
 31
0.0
  0
LINE
  5
C4
330
1E
100
AcDbEntity
  8
0
100
AcDbLine
 10
45.55629999999999
 20
99.6288
 30
0.0
 11
48.7326
 21
98.0907
 31
0.0
  0
LINE
  5
C5
330
1E
100
AcDbEntity
  8
0
100
AcDbLine
 10
30.113
 20
99.88500000000001
 30
0.0
 11
30.113
 21
100.7849999999999
 31
0.0
  0
LINE
  5
C6
330
1E
100
AcDbEntity
  8
0
100
AcDbLine
 10
30.113
 20
99.88500000000001
 30
0.0
 11
30.113
 21
101.085
 31
0.0
  0
LINE
  5
C7
330
1E
100
AcDbEntity
  8
0
100
AcDbLine
 10
30.113
 20
101.085
 30
0.0
 11
30.113
 21
101.5849999999999
 31
0.0
  0
LINE
  5
C8
330
1E
100
AcDbEntity
  8
0
100
AcDbLine
 10
30.113
 20
101.085
 30
0.0
 11
30.113
 21
99.88500000000001
 31
0.0
  0
LINE
  5
C9
330
1E
100
AcDbEntity
  8
0
100
AcDbLine
 10
30.113
 20
100.7849999999999
 30
0.0
 11
30.113
 21
102.085
 31
0.0
  0
LINE
  5
CA
330
1E
100
AcDbEntity
  8
0
100
AcDbLine
 10
30.113
 20
100.7849999999999
 30
0.0
 11
30.113
 21
99.88500000000001
 31
0.0
  0
LINE
  5
CB
330
1E
100
AcDbEntity
  8
0
100
AcDbLine
 10
30.113
 20
100.7849999999999
 30
0.0
 11
30.113
 21
98.58499999999999
 31
0.0
  0
LINE
  5
CC
330
1E
100
AcDbEntity
  8
0
100
AcDbLine
 10
0.11300000000002
 20
101.085
 30
0.0
 11
0.11300000000002
 21
101.5849999999999
 31
0.0
  0
LINE
  5
CD
330
1E
100
AcDbEntity
  8
0
100
AcDbLine
 10
0.6130000000000201
 20
101.185
 30
0.0
 11
0.6130000000000201
 21
102.5849999999999
 31
0.0
  0
LINE
  5
CE
330
1E
100
AcDbEntity
  8
0
100
AcDbLine
 10
9.613000000000019
 20
101.185
 30
0.0
 11
9.613000000000019
 21
98.985
 31
0.0
  0
LINE
  5
CF
330
1E
100
AcDbEntity
  8
0
100
AcDbLine
 10
9.613000000000019
 20
101.185
 30
0.0
 11
9.613000000000019
 21
102.5849999999999
 31
0.0
  0
LINE
  5
D0
330
1E
100
AcDbEntity
  8
0
100
AcDbLine
 10
10.113
 20
101.5849999999999
 30
0.0
 11
10.113
 21
100.385
 31
0.0
  0
LINE
  5
D1
330
1E
100
AcDbEntity
  8
0
100
AcDbLine
 10
10.113
 20
101.5849999999999
 30
0.0
 11
10.113
 21
102.085
 31
0.0
  0
LINE
  5
D2
330
1E
100
AcDbEntity
  8
0
100
AcDbLine
 10
10.61299999999999
 20
101.185
 30
0.0
 11
10.61299999999999
 21
98.985
 31
0.0
  0
LINE
  5
D3
330
1E
100
AcDbEntity
  8
0
100
AcDbLine
 10
10.61299999999999
 20
101.185
 30
0.0
 11
10.61299999999999
 21
102.5849999999999
 31
0.0
  0
LINE
  5
D4
330
1E
100
AcDbEntity
  8
0
100
AcDbLine
 10
0.11300000000002
 20
102.085
 30
0.0
 11
0.11300000000002
 21
102.5849999999999
 31
0.0
  0
LINE
  5
D5
330
1E
100
AcDbEntity
  8
0
100
AcDbLine
 10
0.11300000000002
 20
102.5849999999999
 30
0.0
 11
0.6130000000000201
 21
103.085
 31
0.0
  0
LINE
  5
D6
330
1E
100
AcDbEntity
  8
0
100
AcDbLine
 10
0.6130000000000201
 20
102.5849999999999
 30
0.0
 11
0.6130000000000201
 21
101.185
 31
0.0
  0
LINE
  5
D7
330
1E
100
AcDbEntity
  8
0
100
AcDbLine
 10
0.6130000000000201
 20
102.5849999999999
 30
0.0
 11
0.6130000000000201
 21
103.085
 31
0.0
  0
LINE
  5
D8
330
1E
100
AcDbEntity
  8
0
100
AcDbLine
 10
0.6130000000000201
 20
103.085
 30
0.0
 11
9.613000000000019
 21
103.085
 31
0.0
  0
LINE
  5
D9
330
1E
100
AcDbEntity
  8
0
100
AcDbLine
 10
9.613000000000019
 20
102.5849999999999
 30
0.0
 11
9.613000000000019
 21
101.185
 31
0.0
  0
LINE
  5
DA
330
1E
100
AcDbEntity
  8
0
100
AcDbLine
 10
9.613000000000019
 20
102.5849999999999
 30
0.0
 11
9.613000000000019
 21
103.085
 31
0.0
  0
LINE
  5
DB
330
1E
100
AcDbEntity
  8
0
100
AcDbLine
 10
0.11300000000002
 20
102.5849999999999
 30
0.0
 11
0.6130000000000201
 21
103.085
 31
0.0
  0
LINE
  5
DC
330
1E
100
AcDbEntity
  8
0
100
AcDbLine
 10
0.6130000000000201
 20
103.085
 30
0.0
 11
9.613000000000019
 21
103.085
 31
0.0
  0
LINE
  5
DD
330
1E
100
AcDbEntity
  8
0
100
AcDbLine
 10
0.6130000000000201
 20
103.085
 30
0.0
 11
0.6130000000000201
 21
102.5849999999999
 31
0.0
  0
LINE
  5
DE
330
1E
100
AcDbEntity
  8
0
100
AcDbLine
 10
10.61299999999999
 20
102.5849999999999
 30
0.0
 11
10.61299999999999
 21
101.185
 31
0.0
  0
LINE
  5
DF
330
1E
100
AcDbEntity
  8
0
100
AcDbLine
 10
10.61299999999999
 20
102.5849999999999
 30
0.0
 11
10.61299999999999
 21
103.085
 31
0.0
  0
LINE
  5
E0
330
1E
100
AcDbEntity
  8
0
100
AcDbLine
 10
9.613000000000019
 20
103.085
 30
0.0
 11
10.113
 21
102.085
 31
0.0
  0
LINE
  5
E1
330
1E
100
AcDbEntity
  8
0
100
AcDbLine
 10
9.613000000000019
 20
103.085
 30
0.0
 11
9.613000000000019
 21
102.5849999999999
 31
0.0
  0
LINE
  5
E2
330
1E
100
AcDbEntity
  8
0
100
AcDbLine
 10
10.113
 20
102.085
 30
0.0
 11
10.61299999999999
 21
103.085
 31
0.0
  0
LINE
  5
E3
330
1E
100
AcDbEntity
  8
0
100
AcDbLine
 10
10.113
 20
102.085
 30
0.0
 11
10.113
 21
101.5849999999999
 31
0.0
  0
LINE
  5
E4
330
1E
100
AcDbEntity
  8
0
100
AcDbLine
 10
10.61299999999999
 20
103.085
 30
0.0
 11
24.113
 21
103.085
 31
0.0
  0
LINE
  5
E5
330
1E
100
AcDbEntity
  8
0
100
AcDbLine
 10
10.61299999999999
 20
103.085
 30
0.0
 11
10.61299999999999
 21
102.5849999999999
 31
0.0
  0
LINE
  5
E6
330
1E
100
AcDbEntity
  8
0
100
AcDbLine
 10
24.113
 20
103.085
 30
0.0
 11
26.113
 21
102.5849999999999
 31
0.0
  0
LINE
  5
E7
330
1E
100
AcDbEntity
  8
0
100
AcDbLine
 10
30.113
 20
101.5849999999999
 30
0.0
 11
30.113
 21
101.085
 31
0.0
  0
LINE
  5
E8
330
1E
100
AcDbEntity
  8
0
100
AcDbLine
 10
30.113
 20
102.085
 30
0.0
 11
30.113
 21
102.5849999999999
 31
0.0
  0
LINE
  5
E9
330
1E
100
AcDbEntity
  8
0
100
AcDbLine
 10
30.113
 20
102.085
 30
0.0
 11
30.113
 21
100.7849999999999
 31
0.0
  0
LINE
  5
EA
330
1E
100
AcDbEntity
  8
0
100
AcDbLine
 10
30.613
 20
101.185
 30
0.0
 11
30.613
 21
98.985
 31
0.0
  0
LINE
  5
EB
330
1E
100
AcDbEntity
  8
0
100
AcDbLine
 10
30.613
 20
101.185
 30
0.0
 11
30.613
 21
102.5849999999999
 31
0.0
  0
LINE
  5
EC
330
1E
100
AcDbEntity
  8
0
100
AcDbLine
 10
30.613
 20
102.5849999999999
 30
0.0
 11
30.613
 21
101.185
 31
0.0
  0
LINE
  5
ED
330
1E
100
AcDbEntity
  8
0
100
AcDbLine
 10
30.613
 20
102.5849999999999
 30
0.0
 11
30.613
 21
103.085
 31
0.0
  0
LINE
  5
EE
330
1E
100
AcDbEntity
  8
0
100
AcDbLine
 10
41.4372
 20
101.417
 30
0.0
 11
45.55629999999999
 21
99.6288
 31
0.0
  0
LINE
  5
EF
330
1E
100
AcDbEntity
  8
0
100
AcDbLine
 10
32.113
 20
103.085
 30
0.0
 11
36.9706
 21
102.634
 31
0.0
  0
LINE
  5
F0
330
1E
100
AcDbEntity
  8
0
100
AcDbLine
 10
36.9706
 20
102.634
 30
0.0
 11
41.4372
 21
101.417
 31
0.0
  0
LINE
  5
F1
330
1E
100
AcDbEntity
  8
0
100
AcDbLine
 10
30.113
 20
102.5849999999999
 30
0.0
 11
30.613
 21
103.085
 31
0.0
  0
LINE
  5
F2
330
1E
100
AcDbEntity
  8
0
100
AcDbLine
 10
30.113
 20
102.5849999999999
 30
0.0
 11
30.113
 21
102.085
 31
0.0
  0
LINE
  5
F3
330
1E
100
AcDbEntity
  8
0
100
AcDbLine
 10
30.613
 20
103.085
 30
0.0
 11
32.113
 21
103.085
 31
0.0
  0
LINE
  5
F4
330
1E
100
AcDbEntity
  8
0
100
AcDbLine
 10
30.613
 20
103.085
 30
0.0
 11
30.613
 21
102.5849999999999
 31
0.0
  0
LINE
  5
F5
330
1E
100
AcDbEntity
  8
0
100
AcDbLine
 10
26.113
 20
102.5849999999999
 30
0.0
 11
28.613
 21
101.085
 31
0.0
  0
LINE
  5
F6
330
1E
100
AcDbEntity
  8
0
100
AcDbLine
 10
28.613
 20
101.085
 30
0.0
 11
30.113
 21
99.585
 31
0.0
  0
LINE
  5
F7
330
1E
100
AcDbEntity
  8
0
100
AcDbLine
 10
0.11300000000002
 20
95.785
 30
0.0
 11
0.11300000000002
 21
97.885
 31
0.0
  0
LINE
  5
F8
330
1E
100
AcDbEntity
  8
0
100
AcDbLine
 10
0.11300000000002
 20
95.785
 30
0.0
 11
0.11300000000002
 21
98.58499999999999
 31
0.0
  0
LINE
  5
F9
330
1E
100
AcDbEntity
  8
0
100
AcDbLine
 10
0.113000000000019
 20
92.58499999999999
 30
0.0
 11
0.11300000000002
 21
95.28499999999999
 31
0.0
  0
LINE
  5
FA
330
1E
100
AcDbEntity
  8
0
100
AcDbLine
 10
0.113000000000019
 20
92.58499999999999
 30
0.0
 11
0.11300000000002
 21
95.785
 31
0.0
  0
LINE
  5
FB
330
1E
100
AcDbEntity
  8
0
100
AcDbLine
 10
0.113000000000019
 20
89.085
 30
0.0
 11
0.113000000000019
 21
92.58499999999999
 31
0.0
  0
LINE
  5
FC
330
1E
100
AcDbEntity
  8
0
100
AcDbLine
 10
0.113000000000019
 20
89.085
 30
0.0
 11
0.113000000000019
 21
92.285
 31
0.0
  0
LINE
  5
FD
330
1E
100
AcDbEntity
  8
0
100
AcDbLine
 10
0.113000000000019
 20
85.88500000000001
 30
0.0
 11
0.113000000000019
 21
89.085
 31
0.0
  0
LINE
  5
FE
330
1E
100
AcDbEntity
  8
0
100
AcDbLine
 10
0.113000000000019
 20
82.385
 30
0.0
 11
0.113000000000019
 21
82.885
 31
0.0
  0
LINE
  5
FF
330
1E
100
AcDbEntity
  8
0
100
AcDbLine
 10
0.113000000000019
 20
82.385
 30
0.0
 11
0.113000000000019
 21
85.585
 31
0.0
  0
LINE
  5
100
330
1E
100
AcDbEntity
  8
0
100
AcDbLine
 10
36.39639999999999
 20
150.901
 30
0.0
 11
36.865
 21
152.5419999999999
 31
0.0
  0
LINE
  5
110
330
1E
100
AcDbEntity
  8
0
100
AcDbLine
 10
37.20409999999999
 20
152.801
 30
0.0
 11
37.6327
 21
152.915
 31
0.0
  0
LINE
  5
111
330
1E
100
AcDbEntity
  8
0
100
AcDbLine
 10
36.865
 20
152.5419999999999
 30
0.0
 11
37.20409999999999
 21
152.801
 31
0.0
  0
LINE
  5
113
330
1E
100
AcDbEntity
  8
0
100
AcDbLine
 10
37.9224
 20
149.7549999999999
 30
0.0
 11
85.48869999999999
 21
133.155
 31
0.0
  0
LINE
  5
116
330
1E
100
AcDbEntity
  8
0
100
AcDbLine
 10
137.424
 20
0.084999999999983
 30
0.0
 11
138.6539999999999
 21
0.084999999999983
 31
0.0
  0
LINE
  5
117
330
1E
100
AcDbEntity
  8
0
100
AcDbLine
 10
136.1949999999999
 20
0.0849999999999831
 30
0.0
 11
137.424
 21
0.084999999999983
 31
0.0
  0
LINE
  5
118
330
1E
100
AcDbEntity
  8
0
100
AcDbLine
 10
139.638
 20
0.0849999999999829
 30
0.0
 11
140.4569999999999
 21
0.0849999999999828
 31
0.0
  0
LINE
  5
119
330
1E
100
AcDbEntity
  8
0
100
AcDbLine
 10
138.6539999999999
 20
0.084999999999983
 30
0.0
 11
139.638
 21
0.0849999999999829
 31
0.0
  0
LINE
  5
11A
330
1E
100
AcDbEntity
  8
0
100
AcDbLine
 10
116.1129999999999
 20
0.0849999999999843
 30
0.0
 11
136.1949999999999
 21
0.0849999999999831
 31
0.0
  0
LINE
  5
11B
330
1E
100
AcDbEntity
  8
0
100
AcDbLine
 10
140.4569999999999
 20
0.0849999999999828
 30
0.0
 11
140.9489999999999
 21
0.0849999999999828
 31
0.0
  0
LINE
  5
11C
330
1E
100
AcDbEntity
  8
0
100
AcDbLine
 10
140.9489999999999
 20
0.0849999999999828
 30
0.0
 11
141.1129999999999
 21
0.0849999999999828
 31
0.0
  0
LINE
  5
11D
330
1E
100
AcDbEntity
  8
0
100
AcDbLine
 10
141.1129999999999
 20
0.0849999999999828
 30
0.0
 11
141.1129999999999
 21
5.22785999999998
 31
0.0
  0
LINE
  5
11E
330
1E
100
AcDbEntity
  8
0
100
AcDbLine
 10
92.58839999999999
 20
0.0849999999999858
 30
0.0
 11
93.572
 21
0.0849999999999857
 31
0.0
  0
LINE
  5
11F
330
1E
100
AcDbEntity
  8
0
100
AcDbLine
 10
93.572
 20
0.0849999999999857
 30
0.0
 11
94.8015
 21
0.0849999999999856
 31
0.0
  0
LINE
  5
120
330
1E
100
AcDbEntity
  8
0
100
AcDbLine
 10
94.8015
 20
0.0849999999999856
 30
0.0
 11
96.03100000000001
 21
0.0849999999999855
 31
0.0
  0
LINE
  5
121
330
1E
100
AcDbEntity
  8
0
100
AcDbLine
 10
96.03100000000001
 20
0.0849999999999855
 30
0.0
 11
116.1129999999999
 21
0.0849999999999843
 31
0.0
  0
LINE
  5
122
330
1E
100
AcDbEntity
  8
0
100
AcDbLine
 10
91.76869999999999
 20
0.0849999999999858
 30
0.0
 11
92.58839999999999
 21
0.0849999999999858
 31
0.0
  0
LINE
  5
128
330
1E
100
AcDbEntity
  8
0
100
AcDbLine
 10
93.16219999999999
 20
6.08499999999999
 30
0.0
 11
93.98189999999999
 21
6.08499999999999
 31
0.0
  0
LINE
  5
129
330
1E
100
AcDbEntity
  8
0
100
AcDbLine
 10
93.98189999999999
 20
6.08499999999999
 30
0.0
 11
94.9655
 21
6.08499999999999
 31
0.0
  0
LINE
  5
12A
330
1E
100
AcDbEntity
  8
0
100
AcDbLine
 10
94.9655
 20
6.08499999999999
 30
0.0
 11
96.03100000000001
 21
6.08499999999999
 31
0.0
  0
LINE
  5
12B
330
1E
100
AcDbEntity
  8
0
100
AcDbLine
 10
96.03100000000001
 20
6.08499999999999
 30
0.0
 11
116.1129999999999
 21
6.084999999999981
 31
0.0
  0
LINE
  5
12C
330
1E
100
AcDbEntity
  8
0
100
AcDbLine
 10
92.5064
 20
6.08499999999999
 30
0.0
 11
93.16219999999999
 21
6.08499999999999
 31
0.0
  0
LINE
  5
12D
330
1E
100
AcDbEntity
  8
0
100
AcDbLine
 10
92.09659999999999
 20
6.08499999999999
 30
0.0
 11
92.5064
 21
6.08499999999999
 31
0.0
  0
LINE
  5
12E
330
1E
100
AcDbEntity
  8
0
100
AcDbLine
 10
91.9327
 20
6.08499999999999
 30
0.0
 11
92.09659999999999
 21
6.08499999999999
 31
0.0
  0
LINE
  5
131
330
1E
100
AcDbEntity
  8
0
100
AcDbLine
 10
96.5463333333334
 20
6.08499999999999
 30
0.0
 11
97.01299999999999
 21
6.18499999999999
 31
0.0
  0
LINE
  5
132
330
1E
100
AcDbEntity
  8
0
100
AcDbLine
 10
97.01299999999999
 20
6.18499999999999
 30
0.0
 11
98.81299999999999
 21
8.68499999999998
 31
0.0
  0
LINE
  5
134
330
1E
100
AcDbEntity
  8
0
100
AcDbLine
 10
116.1129999999999
 20
6.084999999999981
 30
0.0
 11
136.1949999999999
 21
6.084999999999981
 31
0.0
  0
LINE
  5
13E
330
1E
100
AcDbEntity
  8
0
100
AcDbLine
 10
99.113
 20
10.885
 30
0.0
 11
99.113
 21
58.085
 31
0.0
  0
LINE
  5
140
330
1E
100
AcDbEntity
  8
0
100
AcDbLine
 10
98.81299999999999
 20
8.68499999999998
 30
0.0
 11
99.113
 21
10.885
 31
0.0
  0
LINE
  5
141
330
1E
100
AcDbEntity
  8
0
100
AcDbLine
 10
133.1129999999999
 20
10.885
 30
0.0
 11
133.4129999999999
 21
8.68499999999998
 31
0.0
  0
LINE
  5
142
330
1E
100
AcDbEntity
  8
0
100
AcDbLine
 10
133.1129999999999
 20
10.885
 30
0.0
 11
133.1129999999999
 21
48.076595505618
 31
0.0
  0
LINE
  5
148
330
1E
100
AcDbEntity
  8
0
100
AcDbLine
 10
138.244
 20
6.084999999999981
 30
0.0
 11
139.0639999999999
 21
6.084999999999981
 31
0.0
  0
LINE
  5
149
330
1E
100
AcDbEntity
  8
0
100
AcDbLine
 10
137.2609999999999
 20
6.084999999999981
 30
0.0
 11
138.244
 21
6.084999999999981
 31
0.0
  0
LINE
  5
14A
330
1E
100
AcDbEntity
  8
0
100
AcDbLine
 10
136.1949999999999
 20
6.084999999999981
 30
0.0
 11
137.2609999999999
 21
6.084999999999981
 31
0.0
  0
LINE
  5
14B
330
1E
100
AcDbEntity
  8
0
100
AcDbLine
 10
139.0639999999999
 20
6.084999999999981
 30
0.0
 11
139.7199999999999
 21
6.084999999999981
 31
0.0
  0
LINE
  5
14C
330
1E
100
AcDbEntity
  8
0
100
AcDbLine
 10
139.7199999999999
 20
6.084999999999981
 30
0.0
 11
140.1289999999999
 21
6.084999999999981
 31
0.0
  0
LINE
  5
14D
330
1E
100
AcDbEntity
  8
0
100
AcDbLine
 10
140.1289999999999
 20
6.084999999999981
 30
0.0
 11
140.293
 21
6.084999999999981
 31
0.0
  0
LINE
  5
150
330
1E
100
AcDbEntity
  8
0
100
AcDbLine
 10
141.1129999999999
 20
5.22785999999998
 30
0.0
 11
141.1129999999999
 21
0.0849999999999825
 31
0.0
  0
LINE
  5
151
330
1E
100
AcDbEntity
  8
0
100
AcDbLine
 10
135.213
 20
6.18499999999998
 30
0.0
 11
135.6796666666669
 21
6.084999999999981
 31
0.0
  0
LINE
  5
152
330
1E
100
AcDbEntity
  8
0
100
AcDbLine
 10
133.4129999999999
 20
8.68499999999998
 30
0.0
 11
135.213
 21
6.18499999999998
 31
0.0
  0
LINE
  5
153
330
1E
100
AcDbEntity
  8
0
100
AcDbLine
 10
133.1129999999999
 20
10.885
 30
0.0
 11
133.1129999999999
 21
48.076595505618
 31
0.0
  0
LINE
  5
154
330
1E
100
AcDbEntity
  8
0
100
AcDbLine
 10
128.113
 20
43.606525530888
 30
0.0
 11
129.0039999999999
 21
48.317
 31
0.0
  0
LINE
  5
155
330
1E
100
AcDbEntity
  8
0
100
AcDbLine
 10
128.547587947348
 20
24.357226367781
 30
0.0
 11
132.9409999999999
 21
47.58399999999999
 31
0.0
  0
LINE
  5
156
330
1E
100
AcDbEntity
  8
0
100
AcDbLine
 10
128.547587947348
 20
24.357226367781
 30
0.0
 11
132.9409999999999
 21
47.58399999999999
 31
0.0
  0
LINE
  5
157
330
1E
100
AcDbEntity
  8
0
100
AcDbLine
 10
132.9409999999999
 20
47.58399999999999
 30
0.0
 11
133.0529999999999
 21
47.966
 31
0.0
  0
LINE
  5
158
330
1E
100
AcDbEntity
  8
0
100
AcDbLine
 10
133.0529999999999
 20
47.966
 30
0.0
 11
133.1329327299779
 21
48.1133366781216
 31
0.0
  0
LINE
  5
159
330
1E
100
AcDbEntity
  8
0
100
AcDbLine
 10
133.0049999999999
 20
48.1024
 30
0.0
 11
133.127341736695
 21
48.174
 31
0.0
  0
LINE
  5
15A
330
1E
100
AcDbEntity
  8
0
100
AcDbLine
 10
132.8389999999999
 20
48.14
 30
0.0
 11
133.022
 21
48.174
 31
0.0
  0
LINE
  5
15B
330
1E
100
AcDbEntity
  8
0
100
AcDbLine
 10
133.091
 20
48.06779999999999
 30
0.0
 11
133.1887949228469
 21
48.174
 31
0.0
  0
LINE
  5
15C
330
1E
100
AcDbEntity
  8
0
100
AcDbLine
 10
129.0039999999999
 20
48.317
 30
0.0
 11
129.316
 21
49.382
 31
0.0
  0
LINE
  5
15D
330
1E
100
AcDbEntity
  8
0
100
AcDbLine
 10
129.952
 20
50.5229
 30
0.0
 11
130.646
 21
51.2755
 31
0.0
  0
LINE
  5
15E
330
1E
100
AcDbEntity
  8
0
100
AcDbLine
 10
130.646
 20
51.2755
 30
0.0
 11
130.9169999999999
 21
51.4418
 31
0.0
  0
LINE
  5
15F
330
1E
100
AcDbEntity
  8
0
100
AcDbLine
 10
130.9169999999999
 20
51.4418
 30
0.0
 11
131.7579999999999
 21
51.9341
 31
0.0
  0
LINE
  5
160
330
1E
100
AcDbEntity
  8
0
100
AcDbLine
 10
131.7579999999999
 20
51.9341
 30
0.0
 11
132.1069999999999
 21
52.0037
 31
0.0
  0
LINE
  5
161
330
1E
100
AcDbEntity
  8
0
100
AcDbLine
 10
129.812
 20
50.29659999999999
 30
0.0
 11
129.952
 21
50.5229
 31
0.0
  0
LINE
  5
162
330
1E
100
AcDbEntity
  8
0
100
AcDbLine
 10
129.316
 20
49.382
 30
0.0
 11
129.812
 21
50.29659999999999
 31
0.0
  0
LINE
  5
163
330
1E
100
AcDbEntity
  8
0
100
AcDbLine
 10
132.1069999999999
 20
52.0037
 30
0.0
 11
133.022
 21
52.174
 31
0.0
  0
LINE
  5
164
330
1E
100
AcDbEntity
  8
0
100
AcDbLine
 10
133.022
 20
52.174
 30
0.0
 11
141.416
 21
52.174
 31
0.0
  0
LINE
  5
165
330
1E
100
AcDbEntity
  8
0
100
AcDbLine
 10
133.022
 20
48.174
 30
0.0
 11
141.416
 21
48.174
 31
0.0
  0
LINE
  5
166
330
1E
100
AcDbEntity
  8
0
100
AcDbLine
 10
141.416
 20
48.174
 30
0.0
 11
141.778
 21
48.246
 31
0.0
  0
LINE
  5
167
330
1E
100
AcDbEntity
  8
0
100
AcDbLine
 10
140.178
 20
50.678
 30
0.0
 11
140.3129999999999
 21
51.142
 31
0.0
  0
LINE
  5
168
330
1E
100
AcDbEntity
  8
0
100
AcDbLine
 10
140.3129999999999
 20
51.142
 30
0.0
 11
140.5339999999999
 21
51.55
 31
0.0
  0
LINE
  5
169
330
1E
100
AcDbEntity
  8
0
100
AcDbLine
 10
140.127
 20
50.174
 30
0.0
 11
140.178
 21
49.67
 31
0.0
  0
LINE
  5
16A
330
1E
100
AcDbEntity
  8
0
100
AcDbLine
 10
140.127
 20
50.174
 30
0.0
 11
140.178
 21
50.678
 31
0.0
  0
LINE
  5
16B
330
1E
100
AcDbEntity
  8
0
100
AcDbLine
 10
140.178
 20
49.67
 30
0.0
 11
140.3129999999999
 21
49.206
 31
0.0
  0
LINE
  5
16C
330
1E
100
AcDbEntity
  8
0
100
AcDbLine
 10
140.5339999999999
 20
51.55
 30
0.0
 11
140.8229999999999
 21
51.86199999999999
 31
0.0
  0
LINE
  5
16D
330
1E
100
AcDbEntity
  8
0
100
AcDbLine
 10
140.8229999999999
 20
51.86199999999999
 30
0.0
 11
141.1509999999999
 21
52.054
 31
0.0
  0
LINE
  5
16E
330
1E
100
AcDbEntity
  8
0
100
AcDbLine
 10
140.3129999999999
 20
49.206
 30
0.0
 11
140.5339999999999
 21
48.798
 31
0.0
  0
LINE
  5
16F
330
1E
100
AcDbEntity
  8
0
100
AcDbLine
 10
140.5339999999999
 20
48.798
 30
0.0
 11
140.8229999999999
 21
48.48600000000001
 31
0.0
  0
LINE
  5
170
330
1E
100
AcDbEntity
  8
0
100
AcDbLine
 10
141.1509999999999
 20
52.054
 30
0.0
 11
141.507
 21
52.12600000000001
 31
0.0
  0
LINE
  5
171
330
1E
100
AcDbEntity
  8
0
100
AcDbLine
 10
140.8229999999999
 20
48.48600000000001
 30
0.0
 11
141.1509999999999
 21
48.29399999999999
 31
0.0
  0
LINE
  5
172
330
1E
100
AcDbEntity
  8
0
100
AcDbLine
 10
141.1509999999999
 20
48.29399999999999
 30
0.0
 11
141.507
 21
48.222
 31
0.0
  0
LINE
  5
173
330
1E
100
AcDbEntity
  8
0
100
AcDbLine
 10
141.863
 20
52.054
 30
0.0
 11
142.191
 21
51.86199999999999
 31
0.0
  0
LINE
  5
174
330
1E
100
AcDbEntity
  8
0
100
AcDbLine
 10
141.507
 20
52.12600000000001
 30
0.0
 11
141.863
 21
52.054
 31
0.0
  0
LINE
  5
175
330
1E
100
AcDbEntity
  8
0
100
AcDbLine
 10
141.778
 20
52.102
 30
0.0
 11
141.863
 21
52.054
 31
0.0
  0
LINE
  5
176
330
1E
100
AcDbEntity
  8
0
100
AcDbLine
 10
141.416
 20
52.174
 30
0.0
 11
141.778
 21
52.102
 31
0.0
  0
LINE
  5
177
330
1E
100
AcDbEntity
  8
0
100
AcDbLine
 10
141.778
 20
48.246
 30
0.0
 11
141.863
 21
48.29399999999999
 31
0.0
  0
LINE
  5
178
330
1E
100
AcDbEntity
  8
0
100
AcDbLine
 10
141.863
 20
48.2940000000001
 30
0.0
 11
142.1179999999999
 21
48.438
 31
0.0
  0
LINE
  5
179
330
1E
100
AcDbEntity
  8
0
100
AcDbLine
 10
142.191
 20
51.86199999999999
 30
0.0
 11
142.4799999999999
 21
51.55
 31
0.0
  0
LINE
  5
17A
330
1E
100
AcDbEntity
  8
0
100
AcDbLine
 10
142.1179999999999
 20
51.90999999999999
 30
0.0
 11
142.191
 21
51.86199999999999
 31
0.0
  0
LINE
  5
17B
330
1E
100
AcDbEntity
  8
0
100
AcDbLine
 10
141.863000000001
 20
52.0539999999996
 30
0.0
 11
142.1179999999999
 21
51.90999999999999
 31
0.0
  0
LINE
  5
17C
330
1E
100
AcDbEntity
  8
0
100
AcDbLine
 10
142.7009999999999
 20
51.142
 30
0.0
 11
142.836
 21
50.678
 31
0.0
  0
LINE
  5
17D
330
1E
100
AcDbEntity
  8
0
100
AcDbLine
 10
142.4799999999999
 20
51.55
 30
0.0
 11
142.7009999999999
 21
51.142
 31
0.0
  0
LINE
  5
17E
330
1E
100
AcDbEntity
  8
0
100
AcDbLine
 10
142.836
 20
50.678
 30
0.0
 11
142.887
 21
50.174
 31
0.0
  0
LINE
  5
17F
330
1E
100
AcDbEntity
  8
0
100
AcDbLine
 10
142.836
 20
49.67
 30
0.0
 11
142.887
 21
50.174
 31
0.0
  0
LINE
  5
180
330
1E
100
AcDbEntity
  8
0
100
AcDbLine
 10
142.7009999999999
 20
49.206
 30
0.0
 11
142.836
 21
49.67
 31
0.0
  0
LINE
  5
181
330
1E
100
AcDbEntity
  8
0
100
AcDbLine
 10
142.4799999999999
 20
48.798
 30
0.0
 11
142.7009999999999
 21
49.206
 31
0.0
  0
LINE
  5
182
330
1E
100
AcDbEntity
  8
0
100
AcDbLine
 10
142.191
 20
48.48600000000001
 30
0.0
 11
142.4799999999999
 21
48.798
 31
0.0
  0
LINE
  5
183
330
1E
100
AcDbEntity
  8
0
100
AcDbLine
 10
142.1179999999999
 20
48.438
 30
0.0
 11
142.191
 21
48.48600000000001
 31
0.0
  0
LINE
  5
184
330
1E
100
AcDbEntity
  8
0
100
AcDbLine
 10
141.863
 20
48.29399999999999
 30
0.0
 11
142.191
 21
48.48600000000001
 31
0.0
  0
LINE
  5
185
330
1E
100
AcDbEntity
  8
0
100
AcDbLine
 10
141.507
 20
48.222
 30
0.0
 11
141.863
 21
48.29399999999999
 31
0.0
  0
LINE
  5
186
330
1E
100
AcDbEntity
  8
0
100
AcDbLine
 10
133.1129999999999
 20
52.174
 30
0.0
 11
133.1129999999999
 21
94.58499999999999
 31
0.0
  0
LINE
  5
187
330
1E
100
AcDbEntity
  8
0
100
AcDbLine
 10
99.113
 20
10.885
 30
0.0
 11
99.113
 21
58.085
 31
0.0
  0
LINE
  5
189
330
1E
100
AcDbEntity
  8
0
100
AcDbLine
 10
91.27689999999999
 20
0.0849999999999858
 30
0.0
 11
91.76869999999999
 21
0.0849999999999858
 31
0.0
  0
LINE
  5
18A
330
1E
100
AcDbEntity
  8
0
100
AcDbLine
 10
91.11299999999999
 20
0.0849999999999859
 30
0.0
 11
91.27689999999999
 21
0.0849999999999858
 31
0.0
  0
LINE
  5
18B
330
1E
100
AcDbEntity
  8
0
100
AcDbLine
 10
74.113
 20
95.08499999999999
 30
0.0
 11
116.1129999999999
 21
95.08499999999999
 31
0.0
  0
LINE
  5
18E
330
1E
100
AcDbEntity
  8
0
100
AcDbLine
 10
85.48869999999999
 20
133.155
 30
0.0
 11
86.71789999999999
 21
132.742
 31
0.0
  0
LINE
  5
18F
330
1E
100
AcDbEntity
  8
0
100
AcDbLine
 10
86.71789999999999
 20
132.742
 30
0.0
 11
90.31579999999999
 21
131.19
 31
0.0
  0
LINE
  5
190
330
1E
100
AcDbEntity
  8
0
100
AcDbLine
 10
74.113
 20
83.085
 30
0.0
 11
80.813
 21
82.08499999999999
 31
0.0
  0
LINE
  5
191
330
1E
100
AcDbEntity
  8
0
100
AcDbLine
 10
80.813
 20
82.08499999999999
 30
0.0
 11
86.913
 21
79.58499999999999
 31
0.0
  0
LINE
  5
192
330
1E
100
AcDbEntity
  8
0
100
AcDbLine
 10
93.7401
 20
129.03
 30
0.0
 11
96.4201
 21
126.032
 31
0.0
  0
LINE
  5
194
330
1E
100
AcDbEntity
  8
0
100
AcDbLine
 10
90.31579999999999
 20
131.19
 30
0.0
 11
93.7401
 21
129.03
 31
0.0
  0
LINE
  5
195
330
1E
100
AcDbEntity
  8
0
100
AcDbLine
 10
86.913
 20
79.58499999999999
 30
0.0
 11
91.81299999999998
 21
75.685
 31
0.0
  0
LINE
  5
196
330
1E
100
AcDbEntity
  8
0
100
AcDbLine
 10
91.81299999999998
 20
75.685
 30
0.0
 11
95.81299999999998
 21
70.485
 31
0.0
  0
LINE
  5
19A
330
1E
100
AcDbEntity
  8
0
100
AcDbLine
 10
100.113
 20
95.08499999999999
 30
0.0
 11
100.113
 21
96.08499999999999
 31
0.0
  0
LINE
  5
19B
330
1E
100
AcDbEntity
  8
0
100
AcDbLine
 10
116.1129999999999
 20
95.08499999999999
 30
0.0
 11
120.4129999999999
 21
95.08499999999999
 31
0.0
  0
LINE
  5
19C
330
1E
100
AcDbEntity
  8
0
100
AcDbLine
 10
120.4129999999999
 20
95.08499999999999
 30
0.0
 11
124.4129999999999
 21
95.08499999999999
 31
0.0
  0
LINE
  5
19D
330
1E
100
AcDbEntity
  8
0
100
AcDbLine
 10
124.4129999999999
 20
95.08499999999999
 30
0.0
 11
127.8129999999999
 21
95.08499999999999
 31
0.0
  0
LINE
  5
19E
330
1E
100
AcDbEntity
  8
0
100
AcDbLine
 10
127.8129999999999
 20
95.08499999999999
 30
0.0
 11
130.4129999999999
 21
95.08499999999999
 31
0.0
  0
LINE
  5
19F
330
1E
100
AcDbEntity
  8
0
100
AcDbLine
 10
130.4129999999999
 20
95.08499999999999
 30
0.0
 11
132.1129999999999
 21
95.08499999999999
 31
0.0
  0
LINE
  5
1A2
330
1E
100
AcDbEntity
  8
0
100
AcDbLine
 10
132.1129999999999
 20
95.08499999999999
 30
0.0
 11
132.1129999999999
 21
96.08499999999999
 31
0.0
  0
LINE
  5
1A3
330
1E
100
AcDbEntity
  8
0
100
AcDbLine
 10
132.1129999999999
 20
95.08499999999999
 30
0.0
 11
132.613
 21
95.08499999999999
 31
0.0
  0
LINE
  5
1A4
330
1E
100
AcDbEntity
  8
0
100
AcDbLine
 10
96.4201
 20
126.032
 30
0.0
 11
98.0271000000001
 21
122.815
 31
0.0
  0
LINE
  5
1A5
330
1E
100
AcDbEntity
  8
0
100
AcDbLine
 10
98.0271000000001
 20
122.815
 30
0.0
 11
98.5792000000001
 21
120.03
 31
0.0
  0
LINE
  5
1A6
330
1E
100
AcDbEntity
  8
0
100
AcDbLine
 10
98.5792000000001
 20
120.03
 30
0.0
 11
98.93779999999999
 21
117.54
 31
0.0
  0
LINE
  5
1A7
330
1E
100
AcDbEntity
  8
0
100
AcDbLine
 10
101.38
 20
96.08499999999999
 30
0.0
 11
104.132
 21
96.08499999999999
 31
0.0
  0
LINE
  5
1A8
330
1E
100
AcDbEntity
  8
0
100
AcDbLine
 10
107.694
 20
96.08499999999999
 30
0.0
 11
111.742
 21
96.08499999999999
 31
0.0
  0
LINE
  5
1A9
330
1E
100
AcDbEntity
  8
0
100
AcDbLine
 10
111.742
 20
96.08499999999999
 30
0.0
 11
116.1129999999999
 21
96.08499999999999
 31
0.0
  0
LINE
  5
1AA
330
1E
100
AcDbEntity
  8
0
100
AcDbLine
 10
116.1129999999999
 20
96.08499999999999
 30
0.0
 11
120.5089999999999
 21
97.14
 31
0.0
  0
LINE
  5
1AB
330
1E
100
AcDbEntity
  8
0
100
AcDbLine
 10
104.132
 20
96.08499999999999
 30
0.0
 11
107.694
 21
96.08499999999999
 31
0.0
  0
LINE
  5
1AC
330
1E
100
AcDbEntity
  8
0
100
AcDbLine
 10
99.7606
 20
96.08499999999999
 30
0.0
 11
100.113
 21
96.08499999999999
 31
0.0
  0
LINE
  5
1AD
330
1E
100
AcDbEntity
  8
0
100
AcDbLine
 10
99.7606
 20
96.08499999999999
 30
0.0
 11
101.38
 21
96.08499999999999
 31
0.0
  0
LINE
  5
1AE
330
1E
100
AcDbEntity
  8
0
100
AcDbLine
 10
99.113
 20
96.08499999999999
 30
0.0
 11
99.7606
 21
96.08499999999999
 31
0.0
  0
LINE
  5
1AF
330
1E
100
AcDbEntity
  8
0
100
AcDbLine
 10
99.113
 20
96.08499999999999
 30
0.0
 11
99.113
 21
115.0849999999999
 31
0.0
  0
LINE
  5
1B0
330
1E
100
AcDbEntity
  8
0
100
AcDbLine
 10
120.5089999999999
 20
97.14
 30
0.0
 11
124.5139999999999
 21
98.04700000000002
 31
0.0
  0
LINE
  5
1B1
330
1E
100
AcDbEntity
  8
0
100
AcDbLine
 10
128.166
 20
98.93
 30
0.0
 11
130.837
 21
99.56000000000001
 31
0.0
  0
LINE
  5
1B2
330
1E
100
AcDbEntity
  8
0
100
AcDbLine
 10
130.837
 20
99.56000000000001
 30
0.0
 11
132.5239999999999
 21
99.96299999999999
 31
0.0
  0
LINE
  5
1B3
330
1E
100
AcDbEntity
  8
0
100
AcDbLine
 10
124.5139999999999
 20
98.04700000000002
 30
0.0
 11
128.166
 21
98.93
 31
0.0
  0
LINE
  5
1B4
330
1E
100
AcDbEntity
  8
0
100
AcDbLine
 10
100.113
 20
96.08499999999999
 30
0.0
 11
100.113
 21
95.08499999999999
 31
0.0
  0
LINE
  5
1B5
330
1E
100
AcDbEntity
  8
0
100
AcDbLine
 10
132.1129999999999
 20
96.08499999999999
 30
0.0
 11
132.1129999999999
 21
95.08499999999999
 31
0.0
  0
LINE
  5
1B6
330
1E
100
AcDbEntity
  8
0
100
AcDbLine
 10
131.78
 20
98.885
 30
0.0
 11
132.1129999999999
 21
96.08499999999999
 31
0.0
  0
LINE
  5
1B7
330
1E
100
AcDbEntity
  8
0
100
AcDbLine
 10
131.525487999727
 20
99.72446986596908
 30
0.0
 11
131.78
 21
98.885
 31
0.0
  0
LINE
  5
1B8
330
1E
100
AcDbEntity
  8
0
100
AcDbLine
 10
99.113
 20
115.0849999999999
 30
0.0
 11
99.113
 21
96.08499999999999
 31
0.0
  0
LINE
  5
1B9
330
1E
100
AcDbEntity
  8
0
100
AcDbLine
 10
131.8929999999999
 20
126.4379999999999
 30
0.0
 11
132.5149999999999
 21
126.26
 31
0.0
  0
LINE
  5
1BD
330
1E
100
AcDbEntity
  8
0
100
AcDbLine
 10
132.5149999999999
 20
126.26
 30
0.0
 11
132.9129999999999
 21
125.8839999999999
 31
0.0
  0
LINE
  5
1BE
330
1E
100
AcDbEntity
  8
0
100
AcDbLine
 10
132.9129999999999
 20
125.8839999999999
 30
0.0
 11
133.12
 21
125.43
 31
0.0
  0
LINE
  5
1BF
330
1E
100
AcDbEntity
  8
0
100
AcDbLine
 10
133.1129999999999
 20
100.085
 30
0.0
 11
133.12
 21
125.43
 31
0.0
  0
LINE
  5
1C0
330
1E
100
AcDbEntity
  8
0
100
AcDbLine
 10
132.5239999999999
 20
99.96299999999999
 30
0.0
 11
133.1129999999999
 21
100.085
 31
0.0
  0
LINE
  5
1C1
330
1E
100
AcDbEntity
  8
0
100
AcDbLine
 10
98.93779999999999
 20
117.54
 30
0.0
 11
99.113
 21
115.0849999999999
 31
0.0
  0
LINE
  5
1C2
330
1E
100
AcDbEntity
  8
0
100
AcDbLine
 10
132.613
 20
95.08499999999999
 30
0.0
 11
133.1129999999999
 21
94.58499999999999
 31
0.0
  0
LINE
  5
1C3
330
1E
100
AcDbEntity
  8
0
100
AcDbLine
 10
95.81299999999998
 20
70.485
 30
0.0
 11
98.31299999999998
 21
64.28499999999999
 31
0.0
  0
LINE
  5
1C4
330
1E
100
AcDbEntity
  8
0
100
AcDbLine
 10
98.31299999999998
 20
64.28499999999999
 30
0.0
 11
99.113
 21
58.085
 31
0.0
  0
LINE
  5
1C5
330
1E
100
AcDbEntity
  8
0
100
AcDbLine
 10
57.1004
 20
83.085
 30
0.0
 11
74.113
 21
83.085
 31
0.0
  0
LINE
  5
1CA
330
1E
100
AcDbEntity
  8
0
100
AcDbLine
 10
141.1129999999999
 20
5.22785999999998
 30
0.0
 11
140.867
 21
5.82785999999998
 31
0.0
  0
LINE
  5
1CB
330
1E
100
AcDbEntity
  8
0
100
AcDbLine
 10
140.867
 20
5.82785999999998
 30
0.0
 11
140.293
 21
6.084999999999981
 31
0.0
  0
LINE
  5
1CD
330
1E
100
AcDbEntity
  8
0
100
AcDbLine
 10
91.11299999999999
 20
0.0849999999999859
 30
0.0
 11
91.08357923118228
 21
5.44356866510185
 31
0.0
  0
LINE
  5
1CE
330
1E
100
AcDbEntity
  8
0
100
AcDbLine
 10
91.08357923118228
 20
5.44356866510185
 30
0.0
 11
91.35890000000001
 21
5.82785999999999
 31
0.0
  0
LINE
  5
1CF
330
1E
100
AcDbEntity
  8
0
100
AcDbLine
 10
91.35890000000001
 20
5.82785999999999
 30
0.0
 11
91.9327
 21
6.08499999999999
 31
0.0
  0
LINE
  5
1D0
330
1E
100
AcDbEntity
  8
0
100
AcDbLine
 10
36.39639999999999
 20
150.901
 30
0.0
 11
36.6698
 21
150.467
 31
0.0
  0
LINE
  5
1D1
330
1E
100
AcDbEntity
  8
0
100
AcDbLine
 10
36.6698
 20
150.467
 30
0.0
 11
37.9224
 21
149.7549999999999
 31
0.0
  0
LINE
  5
1D2
330
1E
100
AcDbEntity
  8
0
100
AcDbLine
 10
131.8929999999999
 20
126.4379999999999
 30
0.0
 11
37.6327
 21
152.915
 31
0.0
  0
ENDSEC
  0
SECTION
  2
OBJECTS
  0
DICTIONARY
  5
C
330
0
100
AcDbDictionary
281
     1
  3
ACAD_GROUP
350
D
  3
ACAD_LAYOUT
350
19
  3
ACAD_MLINESTYLE
350
16
  3
ACAD_PLOTSETTINGS
350
18
  3
ACAD_PLOTSTYLENAME
350
E
  3
AcDbVariableDictionary
350
1D3
  0
DICTIONARY
  5
D
102
{ACAD_REACTORS
330
C
102
}
330
C
100
AcDbDictionary
281
     1
  0
DICTIONARY
  5
19
102
{ACAD_REACTORS
330
C
102
}
330
C
100
AcDbDictionary
281
     1
  3
Layout1
350
1D
  3
Model
350
21
  0
DICTIONARY
  5
16
102
{ACAD_REACTORS
330
C
102
}
330
C
100
AcDbDictionary
281
     1
  3
Standard
350
17
  0
DICTIONARY
  5
18
102
{ACAD_REACTORS
330
C
102
}
330
C
100
AcDbDictionary
281
     1
  0
ACDBDICTIONARYWDFLT
  5
E
102
{ACAD_REACTORS
330
C
102
}
330
C
100
AcDbDictionary
281
     1
  3
Normal
350
F
100
AcDbDictionaryWithDefault
340
F
  0
DICTIONARY
  5
1D3
102
{ACAD_REACTORS
330
C
102
}
330
C
100
AcDbDictionary
281
     1
  3
DIMASSOC
350
1D4
  0
LAYOUT
  5
1D
102
{ACAD_REACTORS
330
19
102
}
330
19
100
AcDbPlotSettings
  1

  2
hp deskjet 980c series
  4

  6

 40
0.0
 41
0.0
 42
0.0
 43
0.0
 44
0.0
 45
0.0
 46
0.0
 47
0.0
 48
0.0
 49
0.0
140
0.0
141
0.0
142
1.0
143
1.0
 70
   688
 72
     0
 73
     0
 74
     5
  7

 75
    16
147
1.0
148
0.0
149
0.0
100
AcDbLayout
  1
Layout1
 70
     1
 71
     1
 10
0.0
 20
0.0
 11
12.0
 21
9.0
 12
0.0
 22
0.0
 32
0.0
 14
1.000000000000000E+20
 24
1.000000000000000E+20
 34
1.000000000000000E+20
 15
-1.000000000000000E+20
 25
-1.000000000000000E+20
 35
-1.000000000000000E+20
146
0.0
 13
0.0
 23
0.0
 33
0.0
 16
1.0
 26
0.0
 36
0.0
 17
0.0
 27
1.0
 37
0.0
 76
     0
330
1A
  0
LAYOUT
  5
21
102
{ACAD_REACTORS
330
19
102
}
330
19
100
AcDbPlotSettings
  1

  2
hp deskjet 980c series
  4

  6

 40
0.0
 41
0.0
 42
0.0
 43
0.0
 44
0.0
 45
0.0
 46
0.0
 47
0.0
 48
0.0
 49
0.0
140
0.0
141
0.0
142
1.0
143
1.0
 70
  1712
 72
     0
 73
     0
 74
     0
  7

 75
     0
147
1.0
148
0.0
149
0.0
100
AcDbLayout
  1
Model
 70
     1
 71
     0
 10
0.0
 20
0.0
 11
12.0
 21
9.0
 12
0.0
 22
0.0
 32
0.0
 14
0.0
 24
0.0
 34
0.0
 15
0.0
 25
0.0
 35
0.0
146
0.0
 13
0.0
 23
0.0
 33
0.0
 16
1.0
 26
0.0
 36
0.0
 17
0.0
 27
1.0
 37
0.0
 76
     0
330
1E
  0
MLINESTYLE
  5
17
102
{ACAD_REACTORS
330
16
102
}
330
16
100
AcDbMlineStyle
  2
STANDARD
 70
     0
  3

 62
   256
 51
90.0
 52
90.0
 71
     2
 49
0.5
 62
   256
  6
BYLAYER
 49
-0.5
 62
   256
  6
BYLAYER
  0
ACDBPLACEHOLDER
  5
F
102
{ACAD_REACTORS
330
E
102
}
330
E
  0
DICTIONARYVAR
  5
1D4
102
{ACAD_REACTORS
330
1D3
102
}
330
1D3
100
DictionaryVariables
280
     0
  1
1
  0
ENDSEC
  0
EOF
