  0
SECTION
  2
HEADER
  9
$ACADVER
  1
AC1015
  9
$ACADMAINTVER
 70
    13
  9
$DWGCODEPAGE
  3
ANSI_1252
  9
$INSBASE
 10
0.0
 20
0.0
 30
0.0
  9
$EXTMIN
 10
-0.0000000000000089
 20
0.249988500000009
 30
0.0
  9
$EXTMAX
 10
320.0
 20
174.7500115
 30
0.0
  9
$LIMMIN
 10
0.0
 20
0.0
  9
$LIMMAX
 10
12.0
 20
9.0
  9
$ORTHOMODE
 70
     0
  9
$REGENMODE
 70
     1
  9
$FILLMODE
 70
     1
  9
$QTEXTMODE
 70
     0
  9
$MIRRTEXT
 70
     1
  9
$LTSCALE
 40
1.0
  9
$ATTMODE
 70
     1
  9
$TEXTSIZE
 40
0.2
  9
$TRACEWID
 40
0.05
  9
$TEXTSTYLE
  7
Standard
  9
$CLAYER
  8
0
  9
$CELTYPE
  6
Continuous
  9
$CECOLOR
 62
   256
  9
$CELTSCALE
 40
1.0
  9
$DISPSILH
 70
     0
  9
$DIMSCALE
 40
1.0
  9
$DIMASZ
 40
0.18
  9
$DIMEXO
 40
0.0625
  9
$DIMDLI
 40
0.38
  9
$DIMRND
 40
0.0
  9
$DIMDLE
 40
0.0
  9
$DIMEXE
 40
0.18
  9
$DIMTP
 40
0.0
  9
$DIMTM
 40
0.0
  9
$DIMTXT
 40
0.18
  9
$DIMCEN
 40
0.09
  9
$DIMTSZ
 40
0.0
  9
$DIMTOL
 70
     0
  9
$DIMLIM
 70
     0
  9
$DIMTIH
 70
     1
  9
$DIMTOH
 70
     1
  9
$DIMSE1
 70
     0
  9
$DIMSE2
 70
     0
  9
$DIMTAD
 70
     0
  9
$DIMZIN
 70
     0
  9
$DIMBLK
  1

  9
$DIMASO
 70
     1
  9
$DIMSHO
 70
     1
  9
$DIMPOST
  1

  9
$DIMAPOST
  1

  9
$DIMALT
 70
     0
  9
$DIMALTD
 70
     2
  9
$DIMALTF
 40
25.4
  9
$DIMLFAC
 40
1.0
  9
$DIMTOFL
 70
     0
  9
$DIMTVP
 40
0.0
  9
$DIMTIX
 70
     0
  9
$DIMSOXD
 70
     0
  9
$DIMSAH
 70
     0
  9
$DIMBLK1
  1

  9
$DIMBLK2
  1

  9
$DIMSTYLE
  2
Standard
  9
$DIMCLRD
 70
     0
  9
$DIMCLRE
 70
     0
  9
$DIMCLRT
 70
     0
  9
$DIMTFAC
 40
1.0
  9
$DIMGAP
 40
0.09
  9
$DIMJUST
 70
     0
  9
$DIMSD1
 70
     0
  9
$DIMSD2
 70
     0
  9
$DIMTOLJ
 70
     1
  9
$DIMTZIN
 70
     0
  9
$DIMALTZ
 70
     0
  9
$DIMALTTZ
 70
     0
  9
$DIMUPT
 70
     0
  9
$DIMDEC
 70
     4
  9
$DIMTDEC
 70
     4
  9
$DIMALTU
 70
     2
  9
$DIMALTTD
 70
     2
  9
$DIMTXSTY
  7
Standard
  9
$DIMAUNIT
 70
     0
  9
$DIMADEC
 70
     0
  9
$DIMALTRND
 40
0.0
  9
$DIMAZIN
 70
     0
  9
$DIMDSEP
 70
    46
  9
$DIMATFIT
 70
     3
  9
$DIMFRAC
 70
     0
  9
$DIMLDRBLK
  1

  9
$DIMLUNIT
 70
     2
  9
$DIMLWD
 70
    -2
  9
$DIMLWE
 70
    -2
  9
$DIMTMOVE
 70
     0
  9
$LUNITS
 70
     2
  9
$LUPREC
 70
     4
  9
$SKETCHINC
 40
0.1
  9
$FILLETRAD
 40
0.0
  9
$AUNITS
 70
     0
  9
$AUPREC
 70
     0
  9
$MENU
  1
.
  9
$ELEVATION
 40
0.0
  9
$PELEVATION
 40
0.0
  9
$THICKNESS
 40
0.0
  9
$LIMCHECK
 70
     0
  9
$CHAMFERA
 40
0.0
  9
$CHAMFERB
 40
0.0
  9
$CHAMFERC
 40
0.0
  9
$CHAMFERD
 40
0.0
  9
$SKPOLY
 70
     0
  9
$TDCREATE
 40
2454637.708566770
  9
$TDUCREATE
 40
2454637.625233437
  9
$TDUPDATE
 40
2454637.710880682
  9
$TDUUPDATE
 40
2454637.627547349
  9
$TDINDWG
 40
0.0023139120
  9
$TDUSRTIMER
 40
0.0023139120
  9
$USRTIMER
 70
     1
  9
$ANGBASE
 50
0.0
  9
$ANGDIR
 70
     0
  9
$PDMODE
 70
     0
  9
$PDSIZE
 40
0.0
  9
$PLINEWID
 40
0.0
  9
$SPLFRAME
 70
     0
  9
$SPLINETYPE
 70
     6
  9
$SPLINESEGS
 70
     8
  9
$HANDSEED
  5
362
  9
$SURFTAB1
 70
     6
  9
$SURFTAB2
 70
     6
  9
$SURFTYPE
 70
     6
  9
$SURFU
 70
     6
  9
$SURFV
 70
     6
  9
$UCSBASE
  2

  9
$UCSNAME
  2

  9
$UCSORG
 10
0.0
 20
0.0
 30
0.0
  9
$UCSXDIR
 10
1.0
 20
0.0
 30
0.0
  9
$UCSYDIR
 10
0.0
 20
1.0
 30
0.0
  9
$UCSORTHOREF
  2

  9
$UCSORTHOVIEW
 70
     1
  9
$UCSORGTOP
 10
0.0
 20
0.0
 30
0.0
  9
$UCSORGBOTTOM
 10
0.0
 20
0.0
 30
0.0
  9
$UCSORGLEFT
 10
0.0
 20
0.0
 30
0.0
  9
$UCSORGRIGHT
 10
0.0
 20
0.0
 30
0.0
  9
$UCSORGFRONT
 10
0.0
 20
0.0
 30
0.0
  9
$UCSORGBACK
 10
0.0
 20
0.0
 30
0.0
  9
$PUCSBASE
  2

  9
$PUCSNAME
  2

  9
$PUCSORG
 10
0.0
 20
0.0
 30
0.0
  9
$PUCSXDIR
 10
1.0
 20
0.0
 30
0.0
  9
$PUCSYDIR
 10
0.0
 20
1.0
 30
0.0
  9
$PUCSORTHOREF
  2

  9
$PUCSORTHOVIEW
 70
     0
  9
$PUCSORGTOP
 10
0.0
 20
0.0
 30
0.0
  9
$PUCSORGBOTTOM
 10
0.0
 20
0.0
 30
0.0
  9
$PUCSORGLEFT
 10
0.0
 20
0.0
 30
0.0
  9
$PUCSORGRIGHT
 10
0.0
 20
0.0
 30
0.0
  9
$PUCSORGFRONT
 10
0.0
 20
0.0
 30
0.0
  9
$PUCSORGBACK
 10
0.0
 20
0.0
 30
0.0
  9
$USERI1
 70
     0
  9
$USERI2
 70
     0
  9
$USERI3
 70
     0
  9
$USERI4
 70
     0
  9
$USERI5
 70
     0
  9
$USERR1
 40
0.0
  9
$USERR2
 40
0.0
  9
$USERR3
 40
0.0
  9
$USERR4
 40
0.0
  9
$USERR5
 40
0.0
  9
$WORLDVIEW
 70
     1
  9
$SHADEDGE
 70
     3
  9
$SHADEDIF
 70
    70
  9
$TILEMODE
 70
     1
  9
$MAXACTVP
 70
    64
  9
$PINSBASE
 10
0.0
 20
0.0
 30
0.0
  9
$PLIMCHECK
 70
     0
  9
$PEXTMIN
 10
1.000000000000000E+20
 20
1.000000000000000E+20
 30
1.000000000000000E+20
  9
$PEXTMAX
 10
-1.000000000000000E+20
 20
-1.000000000000000E+20
 30
-1.000000000000000E+20
  9
$PLIMMIN
 10
0.0
 20
0.0
  9
$PLIMMAX
 10
12.0
 20
9.0
  9
$UNITMODE
 70
     0
  9
$VISRETAIN
 70
     1
  9
$PLINEGEN
 70
     0
  9
$PSLTSCALE
 70
     1
  9
$TREEDEPTH
 70
  3020
  9
$CMLSTYLE
  2
Standard
  9
$CMLJUST
 70
     0
  9
$CMLSCALE
 40
1.0
  9
$PROXYGRAPHICS
 70
     1
  9
$MEASUREMENT
 70
     0
  9
$CELWEIGHT
370
    -1
  9
$ENDCAPS
280
     0
  9
$JOINSTYLE
280
     0
  9
$LWDISPLAY
290
     0
  9
$INSUNITS
 70
     0
  9
$HYPERLINKBASE
  1

  9
$STYLESHEET
  1

  9
$XEDIT
290
     1
  9
$CEPSNTYPE
380
     0
  9
$PSTYLEMODE
290
     1
  9
$FINGERPRINTGUID
  2
{0CAE8547-9D00-4568-8582-4D24866FBEAE}
  9
$VERSIONGUID
  2
{D7C42F7F-021C-4E20-B799-4530FD46F9A3}
  9
$EXTNAMES
290
     1
  9
$PSVPSCALE
 40
0.0
  9
$OLESTARTUP
290
     0
  0
ENDSEC
  0
SECTION
  2
CLASSES
  0
CLASS
  1
ACDBDICTIONARYWDFLT
  2
AcDbDictionaryWithDefault
  3
AutoCAD 2000
 90
        0
280
     0
281
     0
  0
CLASS
  1
ACDBPLACEHOLDER
  2
AcDbPlaceHolder
  3
AutoCAD 2000
 90
        0
280
     0
281
     0
  0
CLASS
  1
LAYOUT
  2
AcDbLayout
  3
AutoCAD 2000
 90
        0
280
     0
281
     0
  0
CLASS
  1
DICTIONARYVAR
  2
AcDbDictionaryVar
  3
AutoCAD 2000
 90
        0
280
     0
281
     0
  0
ENDSEC
  0
SECTION
  2
TABLES
  0
TABLE
  2
VPORT
  5
8
330
0
100
AcDbSymbolTable
 70
     2
  0
VPORT
  5
361
330
8
100
AcDbSymbolTableRecord
100
AcDbViewportTableRecord
  2
*Active
 70
     0
 10
0.0
 20
0.0
 11
1.0
 21
1.0
 12
160.0
 22
87.50000000000001
 13
0.0
 23
0.0
 14
1.0
 24
1.0
 15
0.0
 25
0.0
 16
0.0
 26
0.0
 36
1.0
 17
0.0
 27
0.0
 37
0.0
 40
175.8388978567774
 41
2.043533930857874
 42
50.0
 43
0.0
 44
0.0
 50
0.0
 51
0.0
 71
     0
 72
   100
 73
     1
 74
     3
 75
     0
 76
     0
 77
     0
 78
     0
281
     0
 65
     1
110
0.0
120
0.0
130
0.0
111
1.0
121
0.0
131
0.0
112
0.0
122
1.0
132
0.0
 79
     1
146
0.0
  0
ENDTAB
  0
TABLE
  2
LTYPE
  5
5
330
0
100
AcDbSymbolTable
 70
     1
  0
LTYPE
  5
13
330
5
100
AcDbSymbolTableRecord
100
AcDbLinetypeTableRecord
  2
ByBlock
 70
     0
  3

 72
    65
 73
     0
 40
0.0
  0
LTYPE
  5
14
330
5
100
AcDbSymbolTableRecord
100
AcDbLinetypeTableRecord
  2
ByLayer
 70
     0
  3

 72
    65
 73
     0
 40
0.0
  0
LTYPE
  5
15
330
5
100
AcDbSymbolTableRecord
100
AcDbLinetypeTableRecord
  2
Continuous
 70
     0
  3
Solid line
 72
    65
 73
     0
 40
0.0
  0
ENDTAB
  0
TABLE
  2
LAYER
  5
2
330
0
100
AcDbSymbolTable
 70
     1
  0
LAYER
  5
10
330
2
100
AcDbSymbolTableRecord
100
AcDbLayerTableRecord
  2
0
 70
     0
 62
     7
  6
Continuous
370
    -3
390
F
  0
ENDTAB
  0
TABLE
  2
STYLE
  5
3
330
0
100
AcDbSymbolTable
 70
     1
  0
STYLE
  5
11
330
3
100
AcDbSymbolTableRecord
100
AcDbTextStyleTableRecord
  2
Standard
 70
     0
 40
0.0
 41
1.0
 50
0.0
 71
     0
 42
0.2
  3
txt
  4

  0
ENDTAB
  0
TABLE
  2
VIEW
  5
6
330
0
100
AcDbSymbolTable
 70
     0
  0
ENDTAB
  0
TABLE
  2
UCS
  5
7
330
0
100
AcDbSymbolTable
 70
     0
  0
ENDTAB
  0
TABLE
  2
APPID
  5
9
330
0
100
AcDbSymbolTable
 70
     1
  0
APPID
  5
12
330
9
100
AcDbSymbolTableRecord
100
AcDbRegAppTableRecord
  2
ACAD
 70
     0
  0
ENDTAB
  0
TABLE
  2
DIMSTYLE
  5
A
330
0
100
AcDbSymbolTable
 70
     1
100
AcDbDimStyleTable
 71
     0
  0
DIMSTYLE
105
2B4
330
A
100
AcDbSymbolTableRecord
100
AcDbDimStyleTableRecord
  2
Standard
 70
     0
340
11
  0
ENDTAB
  0
TABLE
  2
BLOCK_RECORD
  5
1
330
0
100
AcDbSymbolTable
 70
     0
  0
BLOCK_RECORD
  5
1E
330
1
100
AcDbSymbolTableRecord
100
AcDbBlockTableRecord
  2
*Model_Space
340
21
  0
BLOCK_RECORD
  5
1A
330
1
100
AcDbSymbolTableRecord
100
AcDbBlockTableRecord
  2
*Paper_Space
340
1D
  0
ENDTAB
  0
ENDSEC
  0
SECTION
  2
BLOCKS
  0
BLOCK
  5
1F
330
1E
100
AcDbEntity
  8
0
100
AcDbBlockBegin
  2
*Model_Space
 70
     0
 10
0.0
 20
0.0
 30
0.0
  3
*Model_Space
  1

  0
ENDBLK
  5
20
330
1E
100
AcDbEntity
  8
0
100
AcDbBlockEnd
  0
BLOCK
  5
1B
330
1A
100
AcDbEntity
 67
     1
  8
0
100
AcDbBlockBegin
  2
*Paper_Space
 70
     0
 10
0.0
 20
0.0
 30
0.0
  3
*Paper_Space
  1

  0
ENDBLK
  5
1C
330
1A
100
AcDbEntity
 67
     1
  8
0
100
AcDbBlockEnd
  0
ENDSEC
  0
SECTION
  2
ENTITIES
  0
LINE
  5
22
330
1E
100
AcDbEntity
  8
0
100
AcDbLine
 10
10.5
 20
133.7500115
 30
0.0
 11
60.0
 21
133.7500115
 31
0.0
  0
LINE
  5
23
330
1E
100
AcDbEntity
  8
0
100
AcDbLine
 10
10.5
 20
133.7500115
 30
0.0
 11
40.0
 21
133.7500115
 31
0.0
  0
LINE
  5
24
330
1E
100
AcDbEntity
  8
0
100
AcDbLine
 10
1.799999999999989
 20
139.2500115
 30
0.0
 11
3.39999999999999
 21
137.1500115
 31
0.0
  0
LINE
  5
25
330
1E
100
AcDbEntity
  8
0
100
AcDbLine
 10
1.399999999999989
 20
139.0500115
 30
0.0
 11
2.99999999999999
 21
136.7500115
 31
0.0
  0
LINE
  5
26
330
1E
100
AcDbEntity
  8
0
100
AcDbLine
 10
0.299999999999991
 20
141.5500115
 30
0.0
 11
1.399999999999989
 21
139.0500115
 31
0.0
  0
LINE
  5
27
330
1E
100
AcDbEntity
  8
0
100
AcDbLine
 10
7.79999999999999
 20
134.0500115
 30
0.0
 11
10.5
 21
133.7500115
 31
0.0
  0
LINE
  5
28
330
1E
100
AcDbEntity
  8
0
100
AcDbLine
 10
3.39999999999999
 20
137.1500115
 30
0.0
 11
5.49999999999999
 21
135.5500115
 31
0.0
  0
LINE
  5
29
330
1E
100
AcDbEntity
  8
0
100
AcDbLine
 10
5.29999999999999
 20
135.1500115
 30
0.0
 11
7.79999999999999
 21
134.0500115
 31
0.0
  0
LINE
  5
2A
330
1E
100
AcDbEntity
  8
0
100
AcDbLine
 10
2.99999999999999
 20
136.7500115
 30
0.0
 11
5.29999999999999
 21
135.1500115
 31
0.0
  0
LINE
  5
2B
330
1E
100
AcDbEntity
  8
0
100
AcDbLine
 10
0.299999999999991
 20
141.5500115
 30
0.0
 11
1.399999999999989
 21
139.0500115
 31
0.0
  0
LINE
  5
2C
330
1E
100
AcDbEntity
  8
0
100
AcDbLine
 10
-0.0000000000000089
 20
144.2500115
 30
0.0
 11
0.299999999999991
 21
141.5500115
 31
0.0
  0
LINE
  5
2D
330
1E
100
AcDbEntity
  8
0
100
AcDbLine
 10
-0.0000000000000089
 20
144.2500115
 30
0.0
 11
0.299999999999991
 21
146.9500114999999
 31
0.0
  0
LINE
  5
2E
330
1E
100
AcDbEntity
  8
0
100
AcDbLine
 10
29.5
 20
133.7500115
 30
0.0
 11
29.5
 21
119.7500114999999
 31
0.0
  0
LINE
  5
2F
330
1E
100
AcDbEntity
  8
0
100
AcDbLine
 10
30.0
 20
118.2500115
 30
0.0
 11
30.6
 21
116.9500114999999
 31
0.0
  0
LINE
  5
30
330
1E
100
AcDbEntity
  8
0
100
AcDbLine
 10
34.0
 20
114.2500115
 30
0.0
 11
35.5
 21
114.0500115
 31
0.0
  0
LINE
  5
31
330
1E
100
AcDbEntity
  8
0
100
AcDbLine
 10
35.5
 20
114.0500115
 30
0.0
 11
60.0
 21
114.0500115
 31
0.0
  0
LINE
  5
32
330
1E
100
AcDbEntity
  8
0
100
AcDbLine
 10
31.5
 20
115.7500114999999
 30
0.0
 11
32.7
 21
114.8500115
 31
0.0
  0
LINE
  5
33
330
1E
100
AcDbEntity
  8
0
100
AcDbLine
 10
32.7
 20
114.8500115
 30
0.0
 11
34.0
 21
114.2500115
 31
0.0
  0
LINE
  5
34
330
1E
100
AcDbEntity
  8
0
100
AcDbLine
 10
31.3
 20
115.5500114999999
 30
0.0
 11
32.5
 21
114.5500114999999
 31
0.0
  0
LINE
  5
35
330
1E
100
AcDbEntity
  8
0
100
AcDbLine
 10
32.5
 20
114.5500114999999
 30
0.0
 11
34.0
 21
113.9500115
 31
0.0
  0
LINE
  5
36
330
1E
100
AcDbEntity
  8
0
100
AcDbLine
 10
60.0
 20
113.7500114999999
 30
0.0
 11
84.50000000000001
 21
113.7500114999999
 31
0.0
  0
LINE
  5
37
330
1E
100
AcDbEntity
  8
0
100
AcDbLine
 10
87.3
 20
114.8500115
 30
0.0
 11
88.49999999999999
 21
115.7500114999999
 31
0.0
  0
LINE
  5
38
330
1E
100
AcDbEntity
  8
0
100
AcDbLine
 10
86.0
 20
114.2500115
 30
0.0
 11
87.3
 21
114.8500115
 31
0.0
  0
LINE
  5
39
330
1E
100
AcDbEntity
  8
0
100
AcDbLine
 10
84.50000000000001
 20
114.0500115
 30
0.0
 11
86.0
 21
114.2500115
 31
0.0
  0
LINE
  5
3A
330
1E
100
AcDbEntity
  8
0
100
AcDbLine
 10
60.0
 20
114.0500115
 30
0.0
 11
84.50000000000001
 21
114.0500115
 31
0.0
  0
LINE
  5
3B
330
1E
100
AcDbEntity
  8
0
100
AcDbLine
 10
86.0
 20
113.9500115
 30
0.0
 11
87.5
 21
114.5500114999999
 31
0.0
  0
LINE
  5
3C
330
1E
100
AcDbEntity
  8
0
100
AcDbLine
 10
88.49999999999999
 20
115.7500114999999
 30
0.0
 11
89.40000000000001
 21
116.9500114999999
 31
0.0
  0
LINE
  5
3D
330
1E
100
AcDbEntity
  8
0
100
AcDbLine
 10
87.5
 20
114.5500114999999
 30
0.0
 11
88.7
 21
115.5500114999999
 31
0.0
  0
LINE
  5
3E
330
1E
100
AcDbEntity
  8
0
100
AcDbLine
 10
89.40000000000001
 20
116.9500114999999
 30
0.0
 11
90.0
 21
118.2500115
 31
0.0
  0
LINE
  5
3F
330
1E
100
AcDbEntity
  8
0
100
AcDbLine
 10
60.0
 20
116.9500114999999
 30
0.0
 11
67.0
 21
117.9500114999999
 31
0.0
  0
LINE
  5
40
330
1E
100
AcDbEntity
  8
0
100
AcDbLine
 10
89.7
 20
116.7500114999999
 30
0.0
 11
90.29999999999999
 21
118.2500115
 31
0.0
  0
LINE
  5
41
330
1E
100
AcDbEntity
  8
0
100
AcDbLine
 10
35.5
 20
113.7500114999999
 30
0.0
 11
60.0
 21
113.7500114999999
 31
0.0
  0
LINE
  5
42
330
1E
100
AcDbEntity
  8
0
100
AcDbLine
 10
90.0
 20
118.2500115
 30
0.0
 11
90.20000000000001
 21
119.7500114999999
 31
0.0
  0
LINE
  5
43
330
1E
100
AcDbEntity
  8
0
100
AcDbLine
 10
90.29999999999999
 20
118.2500115
 30
0.0
 11
90.5
 21
119.7500114999999
 31
0.0
  0
LINE
  5
44
330
1E
100
AcDbEntity
  8
0
100
AcDbLine
 10
67.0
 20
117.9500114999999
 30
0.0
 11
73.59999999999999
 21
120.6500115
 31
0.0
  0
LINE
  5
45
330
1E
100
AcDbEntity
  8
0
100
AcDbLine
 10
53.0
 20
117.9500114999999
 30
0.0
 11
60.0
 21
116.9500114999999
 31
0.0
  0
LINE
  5
46
330
1E
100
AcDbEntity
  8
0
100
AcDbLine
 10
30.6
 20
116.9500114999999
 30
0.0
 11
31.5
 21
115.7500114999999
 31
0.0
  0
LINE
  5
47
330
1E
100
AcDbEntity
  8
0
100
AcDbLine
 10
30.3
 20
116.7500114999999
 30
0.0
 11
31.3
 21
115.5500114999999
 31
0.0
  0
LINE
  5
48
330
1E
100
AcDbEntity
  8
0
100
AcDbLine
 10
29.8
 20
119.7500114999999
 30
0.0
 11
30.0
 21
118.2500115
 31
0.0
  0
LINE
  5
49
330
1E
100
AcDbEntity
  8
0
100
AcDbLine
 10
29.8
 20
119.7500114999999
 30
0.0
 11
29.8
 21
133.7500115
 31
0.0
  0
LINE
  5
4A
330
1E
100
AcDbEntity
  8
0
100
AcDbLine
 10
73.59999999999999
 20
120.6500115
 30
0.0
 11
79.29999999999999
 21
124.9500115
 31
0.0
  0
LINE
  5
4B
330
1E
100
AcDbEntity
  8
0
100
AcDbLine
 10
90.20000000000001
 20
119.7500114999999
 30
0.0
 11
90.20000000000001
 21
144.2500115
 31
0.0
  0
LINE
  5
4D
330
1E
100
AcDbEntity
  8
0
100
AcDbLine
 10
79.29999999999999
 20
124.9500115
 30
0.0
 11
83.59999999999999
 21
130.6500115
 31
0.0
  0
LINE
  5
4F
330
1E
100
AcDbEntity
  8
0
100
AcDbLine
 10
63.9
 20
129.5500115
 30
0.0
 11
67.59999999999999
 21
130.9500114999999
 31
0.0
  0
LINE
  5
50
330
1E
100
AcDbEntity
  8
0
100
AcDbLine
 10
60.0
 20
128.9500114999999
 30
0.0
 11
63.9
 21
129.5500115
 31
0.0
  0
LINE
  5
52
330
1E
100
AcDbEntity
  8
0
100
AcDbLine
 10
56.1
 20
129.5500115
 30
0.0
 11
60.0
 21
128.9500114999999
 31
0.0
  0
LINE
  5
53
330
1E
100
AcDbEntity
  8
0
100
AcDbLine
 10
40.7
 20
124.9500115
 30
0.0
 11
46.39999999999999
 21
120.6500115
 31
0.0
  0
LINE
  5
54
330
1E
100
AcDbEntity
  8
0
100
AcDbLine
 10
46.39999999999999
 20
120.6500115
 30
0.0
 11
53.0
 21
117.9500114999999
 31
0.0
  0
LINE
  5
56
330
1E
100
AcDbEntity
  8
0
100
AcDbLine
 10
83.59999999999999
 20
130.6500115
 30
0.0
 11
86.3
 21
137.2500115
 31
0.0
  0
LINE
  5
57
330
1E
100
AcDbEntity
  8
0
100
AcDbLine
 10
47.0
 20
133.7500115
 30
0.0
 11
51.0
 21
133.7500115
 31
0.0
  0
LINE
  5
58
330
1E
100
AcDbEntity
  8
0
100
AcDbLine
 10
43.3
 20
133.7500115
 30
0.0
 11
47.0
 21
133.7500115
 31
0.0
  0
LINE
  5
59
330
1E
100
AcDbEntity
  8
0
100
AcDbLine
 10
40.0
 20
133.7500115
 30
0.0
 11
43.3
 21
133.7500115
 31
0.0
  0
LINE
  5
5A
330
1E
100
AcDbEntity
  8
0
100
AcDbLine
 10
40.0
 20
133.7500115
 30
0.0
 11
60.0
 21
133.7500115
 31
0.0
  0
LINE
  5
5C
330
1E
100
AcDbEntity
  8
0
100
AcDbLine
 10
67.59999999999999
 20
130.9500114999999
 30
0.0
 11
70.8
 21
133.4500114999999
 31
0.0
  0
LINE
  5
5F
330
1E
100
AcDbEntity
  8
0
100
AcDbLine
 10
60.0
 20
133.7500115
 30
0.0
 11
62.7
 21
134.0500115
 31
0.0
  0
LINE
  5
60
330
1E
100
AcDbEntity
  8
0
100
AcDbLine
 10
59.6
 20
133.7500115
 30
0.0
 11
60.0
 21
133.7500115
 31
0.0
  0
LINE
  5
61
330
1E
100
AcDbEntity
  8
0
100
AcDbLine
 10
58.1
 20
133.7500115
 30
0.0
 11
59.6
 21
133.7500115
 31
0.0
  0
LINE
  5
62
330
1E
100
AcDbEntity
  8
0
100
AcDbLine
 10
55.3
 20
133.7500115
 30
0.0
 11
58.1
 21
133.7500115
 31
0.0
  0
LINE
  5
63
330
1E
100
AcDbEntity
  8
0
100
AcDbLine
 10
51.0
 20
133.7500115
 30
0.0
 11
55.3
 21
133.7500115
 31
0.0
  0
LINE
  5
65
330
1E
100
AcDbEntity
  8
0
100
AcDbLine
 10
70.8
 20
133.4500114999999
 30
0.0
 11
73.3
 21
136.6500115
 31
0.0
  0
LINE
  5
69
330
1E
100
AcDbEntity
  8
0
100
AcDbLine
 10
49.2
 20
133.4500114999999
 30
0.0
 11
52.4
 21
130.9500114999999
 31
0.0
  0
LINE
  5
6A
330
1E
100
AcDbEntity
  8
0
100
AcDbLine
 10
52.4
 20
130.9500114999999
 30
0.0
 11
56.1
 21
129.5500115
 31
0.0
  0
LINE
  5
6D
330
1E
100
AcDbEntity
  8
0
100
AcDbLine
 10
65.2
 20
135.1500115
 30
0.0
 11
67.5
 21
136.7500115
 31
0.0
  0
LINE
  5
6E
330
1E
100
AcDbEntity
  8
0
100
AcDbLine
 10
67.5
 20
136.7500115
 30
0.0
 11
69.1
 21
139.0500115
 31
0.0
  0
LINE
  5
6F
330
1E
100
AcDbEntity
  8
0
100
AcDbLine
 10
69.1
 20
139.0500115
 30
0.0
 11
70.2
 21
141.5500115
 31
0.0
  0
LINE
  5
71
330
1E
100
AcDbEntity
  8
0
100
AcDbLine
 10
73.3
 20
136.6500115
 30
0.0
 11
74.7
 21
140.3500114999999
 31
0.0
  0
LINE
  5
72
330
1E
100
AcDbEntity
  8
0
100
AcDbLine
 10
70.2
 20
141.5500115
 30
0.0
 11
70.5
 21
144.2500115
 31
0.0
  0
LINE
  5
73
330
1E
100
AcDbEntity
  8
0
100
AcDbLine
 10
74.7
 20
140.3500114999999
 30
0.0
 11
75.3
 21
144.2500115
 31
0.0
  0
LINE
  5
74
330
1E
100
AcDbEntity
  8
0
100
AcDbLine
 10
86.3
 20
137.2500115
 30
0.0
 11
87.3
 21
144.2500115
 31
0.0
  0
LINE
  5
75
330
1E
100
AcDbEntity
  8
0
100
AcDbLine
 10
90.20000000000001
 20
144.2500115
 30
0.0
 11
90.20000000000001
 21
119.7500114999999
 31
0.0
  0
LINE
  5
76
330
1E
100
AcDbEntity
  8
0
100
AcDbLine
 10
90.20000000000001
 20
144.2500115
 30
0.0
 11
90.20000000000001
 21
168.7500114999999
 31
0.0
  0
LINE
  5
79
330
1E
100
AcDbEntity
  8
0
100
AcDbLine
 10
48.965625
 20
133.7500115
 30
0.0
 11
49.2
 21
133.4500114999999
 31
0.0
  0
LINE
  5
7B
330
1E
100
AcDbEntity
  8
0
100
AcDbLine
 10
36.4
 20
130.6500115
 30
0.0
 11
40.7
 21
124.9500115
 31
0.0
  0
LINE
  5
7C
330
1E
100
AcDbEntity
  8
0
100
AcDbLine
 10
35.13181818181819
 20
133.7500115
 30
0.0
 11
36.4
 21
130.6500115
 31
0.0
  0
LINE
  5
7E
330
1E
100
AcDbEntity
  8
0
100
AcDbLine
 10
29.8
 20
133.7500115
 30
0.0
 11
29.8
 21
119.7500114999999
 31
0.0
  0
LINE
  5
7F
330
1E
100
AcDbEntity
  8
0
100
AcDbLine
 10
29.7
 20
118.2500115
 30
0.0
 11
30.3
 21
116.7500114999999
 31
0.0
  0
LINE
  5
80
330
1E
100
AcDbEntity
  8
0
100
AcDbLine
 10
29.5
 20
119.7500114999999
 30
0.0
 11
29.5
 21
133.7500115
 31
0.0
  0
LINE
  5
81
330
1E
100
AcDbEntity
  8
0
100
AcDbLine
 10
29.5
 20
119.7500114999999
 30
0.0
 11
29.7
 21
118.2500115
 31
0.0
  0
LINE
  5
82
330
1E
100
AcDbEntity
  8
0
100
AcDbLine
 10
1.799999999999989
 20
149.2500115
 30
0.0
 11
3.39999999999999
 21
151.3500115
 31
0.0
  0
LINE
  5
83
330
1E
100
AcDbEntity
  8
0
100
AcDbLine
 10
0.299999999999991
 20
146.9500114999999
 30
0.0
 11
1.399999999999989
 21
149.4500114999999
 31
0.0
  0
LINE
  5
84
330
1E
100
AcDbEntity
  8
0
100
AcDbLine
 10
3.39999999999999
 20
151.3500115
 30
0.0
 11
5.49999999999999
 21
152.9500114999999
 31
0.0
  0
LINE
  5
85
330
1E
100
AcDbEntity
  8
0
100
AcDbLine
 10
7.79999999999999
 20
154.4500114999999
 30
0.0
 11
10.5
 21
154.7500115
 31
0.0
  0
LINE
  5
86
330
1E
100
AcDbEntity
  8
0
100
AcDbLine
 10
5.29999999999999
 20
153.3500115
 30
0.0
 11
7.79999999999999
 21
154.4500114999999
 31
0.0
  0
LINE
  5
87
330
1E
100
AcDbEntity
  8
0
100
AcDbLine
 10
2.99999999999999
 20
151.7500114999999
 30
0.0
 11
5.29999999999999
 21
153.3500115
 31
0.0
  0
LINE
  5
88
330
1E
100
AcDbEntity
  8
0
100
AcDbLine
 10
1.399999999999989
 20
149.4500114999999
 30
0.0
 11
2.99999999999999
 21
151.7500114999999
 31
0.0
  0
LINE
  5
89
330
1E
100
AcDbEntity
  8
0
100
AcDbLine
 10
0.299999999999991
 20
146.9500114999999
 30
0.0
 11
1.399999999999989
 21
149.4500114999999
 31
0.0
  0
LINE
  5
8A
330
1E
100
AcDbEntity
  8
0
100
AcDbLine
 10
10.5
 20
154.7500115
 30
0.0
 11
60.0
 21
154.7500115
 31
0.0
  0
LINE
  5
8B
330
1E
100
AcDbEntity
  8
0
100
AcDbLine
 10
29.8
 20
154.7500115
 30
0.0
 11
29.8
 21
168.7500114999999
 31
0.0
  0
LINE
  5
8C
330
1E
100
AcDbEntity
  8
0
100
AcDbLine
 10
29.8
 20
168.7500114999999
 30
0.0
 11
29.8
 21
154.7500115
 31
0.0
  0
LINE
  5
8D
330
1E
100
AcDbEntity
  8
0
100
AcDbLine
 10
29.8
 20
168.7500114999999
 30
0.0
 11
30.0
 21
170.2500115
 31
0.0
  0
LINE
  5
8E
330
1E
100
AcDbEntity
  8
0
100
AcDbLine
 10
29.5
 20
154.7500115
 30
0.0
 11
29.5
 21
168.7500114999999
 31
0.0
  0
LINE
  5
8F
330
1E
100
AcDbEntity
  8
0
100
AcDbLine
 10
10.5
 20
154.7500115
 30
0.0
 11
60.0
 21
154.7500115
 31
0.0
  0
LINE
  5
90
330
1E
100
AcDbEntity
  8
0
100
AcDbLine
 10
30.6
 20
171.5500115
 30
0.0
 11
31.5
 21
172.7500114999999
 31
0.0
  0
LINE
  5
91
330
1E
100
AcDbEntity
  8
0
100
AcDbLine
 10
30.0
 20
170.2500115
 30
0.0
 11
30.6
 21
171.5500115
 31
0.0
  0
LINE
  5
92
330
1E
100
AcDbEntity
  8
0
100
AcDbLine
 10
30.3
 20
171.7500114999999
 30
0.0
 11
31.3
 21
172.9500115
 31
0.0
  0
LINE
  5
93
330
1E
100
AcDbEntity
  8
0
100
AcDbLine
 10
29.7
 20
170.2500115
 30
0.0
 11
30.3
 21
171.7500114999999
 31
0.0
  0
LINE
  5
94
330
1E
100
AcDbEntity
  8
0
100
AcDbLine
 10
29.5
 20
168.7500114999999
 30
0.0
 11
29.5
 21
154.7500115
 31
0.0
  0
LINE
  5
95
330
1E
100
AcDbEntity
  8
0
100
AcDbLine
 10
29.5
 20
168.7500114999999
 30
0.0
 11
29.7
 21
170.2500115
 31
0.0
  0
LINE
  5
96
330
1E
100
AcDbEntity
  8
0
100
AcDbLine
 10
31.5
 20
172.7500114999999
 30
0.0
 11
32.7
 21
173.6500115
 31
0.0
  0
LINE
  5
97
330
1E
100
AcDbEntity
  8
0
100
AcDbLine
 10
32.7
 20
173.6500115
 30
0.0
 11
34.0
 21
174.2500115
 31
0.0
  0
LINE
  5
98
330
1E
100
AcDbEntity
  8
0
100
AcDbLine
 10
34.0
 20
174.2500115
 30
0.0
 11
35.5
 21
174.4500114999999
 31
0.0
  0
LINE
  5
99
330
1E
100
AcDbEntity
  8
0
100
AcDbLine
 10
32.5
 20
173.9500115
 30
0.0
 11
34.0
 21
174.5500115
 31
0.0
  0
LINE
  5
9A
330
1E
100
AcDbEntity
  8
0
100
AcDbLine
 10
35.13181818181819
 20
154.7500115
 30
0.0
 11
36.4
 21
157.8500114999999
 31
0.0
  0
LINE
  5
9D
330
1E
100
AcDbEntity
  8
0
100
AcDbLine
 10
60.0
 20
154.7500115
 30
0.0
 11
62.7
 21
154.4500114999999
 31
0.0
  0
LINE
  5
9E
330
1E
100
AcDbEntity
  8
0
100
AcDbLine
 10
65.2
 20
153.3500115
 30
0.0
 11
67.5
 21
151.7500114999999
 31
0.0
  0
LINE
  5
9F
330
1E
100
AcDbEntity
  8
0
100
AcDbLine
 10
67.5
 20
151.7500114999999
 30
0.0
 11
69.1
 21
149.4500114999999
 31
0.0
  0
LINE
  5
A0
330
1E
100
AcDbEntity
  8
0
100
AcDbLine
 10
74.7
 20
148.1500115
 30
0.0
 11
75.3
 21
144.2500115
 31
0.0
  0
LINE
  5
A2
330
1E
100
AcDbEntity
  8
0
100
AcDbLine
 10
73.3
 20
151.8500114999999
 30
0.0
 11
74.7
 21
148.1500115
 31
0.0
  0
LINE
  5
A3
330
1E
100
AcDbEntity
  8
0
100
AcDbLine
 10
86.3
 20
151.2500114999999
 30
0.0
 11
87.3
 21
144.2500115
 31
0.0
  0
LINE
  5
A4
330
1E
100
AcDbEntity
  8
0
100
AcDbLine
 10
69.1
 20
149.4500114999999
 30
0.0
 11
70.2
 21
146.9500114999999
 31
0.0
  0
LINE
  5
A5
330
1E
100
AcDbEntity
  8
0
100
AcDbLine
 10
70.2
 20
146.9500114999999
 30
0.0
 11
70.5
 21
144.2500115
 31
0.0
  0
LINE
  5
A8
330
1E
100
AcDbEntity
  8
0
100
AcDbLine
 10
70.8
 20
155.0500115
 30
0.0
 11
73.3
 21
151.8500114999999
 31
0.0
  0
LINE
  5
AC
330
1E
100
AcDbEntity
  8
0
100
AcDbLine
 10
67.59999999999999
 20
157.5500115
 30
0.0
 11
70.8
 21
155.0500115
 31
0.0
  0
LINE
  5
AE
330
1E
100
AcDbEntity
  8
0
100
AcDbLine
 10
49.2
 20
155.0500115
 30
0.0
 11
52.4
 21
157.5500115
 31
0.0
  0
LINE
  5
B0
330
1E
100
AcDbEntity
  8
0
100
AcDbLine
 10
83.59999999999999
 20
157.8500114999999
 30
0.0
 11
86.3
 21
151.2500114999999
 31
0.0
  0
LINE
  5
B1
330
1E
100
AcDbEntity
  8
0
100
AcDbLine
 10
52.4
 20
157.5500115
 30
0.0
 11
56.1
 21
158.9500114999999
 31
0.0
  0
LINE
  5
B3
330
1E
100
AcDbEntity
  8
0
100
AcDbLine
 10
48.965625
 20
154.7500115
 30
0.0
 11
49.2
 21
155.0500115
 31
0.0
  0
LINE
  5
B5
330
1E
100
AcDbEntity
  8
0
100
AcDbLine
 10
40.7
 20
163.5500115
 30
0.0
 11
46.39999999999999
 21
167.8500115
 31
0.0
  0
LINE
  5
B7
330
1E
100
AcDbEntity
  8
0
100
AcDbLine
 10
63.9
 20
158.9500114999999
 30
0.0
 11
67.59999999999999
 21
157.5500115
 31
0.0
  0
LINE
  5
B8
330
1E
100
AcDbEntity
  8
0
100
AcDbLine
 10
60.0
 20
159.5500115
 30
0.0
 11
63.9
 21
158.9500114999999
 31
0.0
  0
LINE
  5
B9
330
1E
100
AcDbEntity
  8
0
100
AcDbLine
 10
73.59999999999999
 20
167.8500115
 30
0.0
 11
79.29999999999999
 21
163.5500115
 31
0.0
  0
LINE
  5
BA
330
1E
100
AcDbEntity
  8
0
100
AcDbLine
 10
67.0
 20
170.5500115
 30
0.0
 11
73.59999999999999
 21
167.8500115
 31
0.0
  0
LINE
  5
BC
330
1E
100
AcDbEntity
  8
0
100
AcDbLine
 10
79.29999999999999
 20
163.5500115
 30
0.0
 11
83.59999999999999
 21
157.8500114999999
 31
0.0
  0
LINE
  5
BD
330
1E
100
AcDbEntity
  8
0
100
AcDbLine
 10
90.20000000000001
 20
168.7500114999999
 30
0.0
 11
90.20000000000001
 21
144.2500115
 31
0.0
  0
LINE
  5
BE
330
1E
100
AcDbEntity
  8
0
100
AcDbLine
 10
90.0
 20
170.2500115
 30
0.0
 11
90.20000000000001
 21
168.7500114999999
 31
0.0
  0
LINE
  5
BF
330
1E
100
AcDbEntity
  8
0
100
AcDbLine
 10
90.29999999999999
 20
170.2500115
 30
0.0
 11
90.5
 21
168.7500114999999
 31
0.0
  0
LINE
  5
C1
330
1E
100
AcDbEntity
  8
0
100
AcDbLine
 10
56.1
 20
158.9500114999999
 30
0.0
 11
60.0
 21
159.5500115
 31
0.0
  0
LINE
  5
C2
330
1E
100
AcDbEntity
  8
0
100
AcDbLine
 10
46.39999999999999
 20
167.8500115
 30
0.0
 11
53.0
 21
170.5500115
 31
0.0
  0
LINE
  5
C3
330
1E
100
AcDbEntity
  8
0
100
AcDbLine
 10
60.0
 20
171.5500115
 30
0.0
 11
67.0
 21
170.5500115
 31
0.0
  0
LINE
  5
C4
330
1E
100
AcDbEntity
  8
0
100
AcDbLine
 10
88.49999999999999
 20
172.7500114999999
 30
0.0
 11
89.40000000000001
 21
171.5500115
 31
0.0
  0
LINE
  5
C5
330
1E
100
AcDbEntity
  8
0
100
AcDbLine
 10
89.40000000000001
 20
171.5500115
 30
0.0
 11
90.0
 21
170.2500115
 31
0.0
  0
LINE
  5
C6
330
1E
100
AcDbEntity
  8
0
100
AcDbLine
 10
87.3
 20
173.6500115
 30
0.0
 11
88.49999999999999
 21
172.7500114999999
 31
0.0
  0
LINE
  5
C7
330
1E
100
AcDbEntity
  8
0
100
AcDbLine
 10
86.0
 20
174.2500115
 30
0.0
 11
87.3
 21
173.6500115
 31
0.0
  0
LINE
  5
C8
330
1E
100
AcDbEntity
  8
0
100
AcDbLine
 10
84.50000000000001
 20
174.4500114999999
 30
0.0
 11
86.0
 21
174.2500115
 31
0.0
  0
LINE
  5
C9
330
1E
100
AcDbEntity
  8
0
100
AcDbLine
 10
60.0
 20
174.4500114999999
 30
0.0
 11
84.50000000000001
 21
174.4500114999999
 31
0.0
  0
LINE
  5
CA
330
1E
100
AcDbEntity
  8
0
100
AcDbLine
 10
87.5
 20
173.9500115
 30
0.0
 11
88.7
 21
172.9500115
 31
0.0
  0
LINE
  5
CB
330
1E
100
AcDbEntity
  8
0
100
AcDbLine
 10
88.7
 20
172.9500115
 30
0.0
 11
89.7
 21
171.7500114999999
 31
0.0
  0
LINE
  5
CC
330
1E
100
AcDbEntity
  8
0
100
AcDbLine
 10
89.7
 20
171.7500114999999
 30
0.0
 11
90.29999999999999
 21
170.2500115
 31
0.0
  0
LINE
  5
CD
330
1E
100
AcDbEntity
  8
0
100
AcDbLine
 10
53.0
 20
170.5500115
 30
0.0
 11
60.0
 21
171.5500115
 31
0.0
  0
LINE
  5
CF
330
1E
100
AcDbEntity
  8
0
100
AcDbLine
 10
36.4
 20
157.8500114999999
 30
0.0
 11
40.7
 21
163.5500115
 31
0.0
  0
LINE
  5
D1
330
1E
100
AcDbEntity
  8
0
100
AcDbLine
 10
60.0
 20
174.7500115
 30
0.0
 11
84.50000000000001
 21
174.7500115
 31
0.0
  0
LINE
  5
D2
330
1E
100
AcDbEntity
  8
0
100
AcDbLine
 10
84.50000000000001
 20
174.7500115
 30
0.0
 11
86.0
 21
174.5500115
 31
0.0
  0
LINE
  5
D3
330
1E
100
AcDbEntity
  8
0
100
AcDbLine
 10
86.0
 20
174.5500115
 30
0.0
 11
87.5
 21
173.9500115
 31
0.0
  0
LINE
  5
D4
330
1E
100
AcDbEntity
  8
0
100
AcDbLine
 10
35.5
 20
174.4500114999999
 30
0.0
 11
60.0
 21
174.4500114999999
 31
0.0
  0
LINE
  5
D5
330
1E
100
AcDbEntity
  8
0
100
AcDbLine
 10
34.0
 20
174.5500115
 30
0.0
 11
35.5
 21
174.7500115
 31
0.0
  0
LINE
  5
D6
330
1E
100
AcDbEntity
  8
0
100
AcDbLine
 10
35.5
 20
174.7500115
 30
0.0
 11
60.0
 21
174.7500115
 31
0.0
  0
LINE
  5
D7
330
1E
100
AcDbEntity
  8
0
100
AcDbLine
 10
129.4999999999999
 20
168.7500114999999
 30
0.0
 11
129.4999999999999
 21
144.2500115
 31
0.0
  0
LINE
  5
D8
330
1E
100
AcDbEntity
  8
0
100
AcDbLine
 10
129.4999999999999
 20
144.2500115
 30
0.0
 11
129.4999999999999
 21
119.7500114999999
 31
0.0
  0
LINE
  5
D9
330
1E
100
AcDbEntity
  8
0
100
AcDbLine
 10
129.4999999999999
 20
144.2500115
 30
0.0
 11
129.4999999999999
 21
168.7500114999999
 31
0.0
  0
LINE
  5
DA
330
1E
100
AcDbEntity
  8
0
100
AcDbLine
 10
131.4999999999999
 20
115.7500114999999
 30
0.0
 11
132.6999999999999
 21
114.8500115
 31
0.0
  0
LINE
  5
DB
330
1E
100
AcDbEntity
  8
0
100
AcDbLine
 10
131.3
 20
115.5500114999999
 30
0.0
 11
132.4999999999999
 21
114.5500114999999
 31
0.0
  0
LINE
  5
DC
330
1E
100
AcDbEntity
  8
0
100
AcDbLine
 10
132.6999999999999
 20
114.8500115
 30
0.0
 11
134.0
 21
114.2500115
 31
0.0
  0
LINE
  5
DD
330
1E
100
AcDbEntity
  8
0
100
AcDbLine
 10
134.0
 20
114.2500115
 30
0.0
 11
135.4999999999999
 21
114.0500115
 31
0.0
  0
LINE
  5
DE
330
1E
100
AcDbEntity
  8
0
100
AcDbLine
 10
135.4999999999999
 20
114.0500115
 30
0.0
 11
149.5
 21
114.0500115
 31
0.0
  0
LINE
  5
DF
330
1E
100
AcDbEntity
  8
0
100
AcDbLine
 10
132.4999999999999
 20
114.5500114999999
 30
0.0
 11
134.0
 21
113.9500115
 31
0.0
  0
LINE
  5
E0
330
1E
100
AcDbEntity
  8
0
100
AcDbLine
 10
149.9
 20
7.319191500000009
 30
0.0
 11
150.9
 21
5.053421500000009
 31
0.0
  0
LINE
  5
E1
330
1E
100
AcDbEntity
  8
0
100
AcDbLine
 10
150.9
 20
5.053421500000009
 30
0.0
 11
152.5999999999999
 21
3.059541500000009
 31
0.0
  0
LINE
  5
E2
330
1E
100
AcDbEntity
  8
0
100
AcDbLine
 10
152.5999999999999
 20
3.059541500000009
 30
0.0
 11
154.8
 21
1.51882150000001
 31
0.0
  0
LINE
  5
E3
330
1E
100
AcDbEntity
  8
0
100
AcDbLine
 10
154.8
 20
1.51882150000001
 30
0.0
 11
157.3
 21
0.612511500000009
 31
0.0
  0
LINE
  5
E4
330
1E
100
AcDbEntity
  8
0
100
AcDbLine
 10
160.0
 20
0.249988500000009
 30
0.0
 11
162.6999999999999
 21
0.612511500000009
 31
0.0
  0
LINE
  5
E5
330
1E
100
AcDbEntity
  8
0
100
AcDbLine
 10
170.5
 20
9.766221500000009
 30
0.0
 11
170.5
 21
43.2463115
 31
0.0
  0
LINE
  5
E6
330
1E
100
AcDbEntity
  8
0
100
AcDbLine
 10
170.1
 20
7.319191500000009
 30
0.0
 11
170.5
 21
9.766221500000009
 31
0.0
  0
LINE
  5
E7
330
1E
100
AcDbEntity
  8
0
100
AcDbLine
 10
169.1
 20
5.053421500000009
 30
0.0
 11
170.1
 21
7.319191500000009
 31
0.0
  0
LINE
  5
E8
330
1E
100
AcDbEntity
  8
0
100
AcDbLine
 10
167.4
 20
3.059541500000009
 30
0.0
 11
169.1
 21
5.053421500000009
 31
0.0
  0
LINE
  5
E9
330
1E
100
AcDbEntity
  8
0
100
AcDbLine
 10
165.1999999999999
 20
1.51882150000001
 30
0.0
 11
167.4
 21
3.059541500000009
 31
0.0
  0
LINE
  5
EA
330
1E
100
AcDbEntity
  8
0
100
AcDbLine
 10
162.6999999999999
 20
0.612511500000009
 30
0.0
 11
165.1999999999999
 21
1.51882150000001
 31
0.0
  0
LINE
  5
EB
330
1E
100
AcDbEntity
  8
0
100
AcDbLine
 10
160.0
 20
0.249988500000009
 30
0.0
 11
162.6999999999999
 21
0.612511500000009
 31
0.0
  0
LINE
  5
EC
330
1E
100
AcDbEntity
  8
0
100
AcDbLine
 10
157.3
 20
0.612511500000009
 30
0.0
 11
160.0
 21
0.249988500000009
 31
0.0
  0
LINE
  5
ED
330
1E
100
AcDbEntity
  8
0
100
AcDbLine
 10
157.3
 20
0.612511500000009
 30
0.0
 11
160.0
 21
0.249988500000009
 31
0.0
  0
LINE
  5
EE
330
1E
100
AcDbEntity
  8
0
100
AcDbLine
 10
170.5
 20
43.2463115
 30
0.0
 11
170.5
 21
9.766221500000009
 31
0.0
  0
LINE
  5
EF
330
1E
100
AcDbEntity
  8
0
100
AcDbLine
 10
170.5
 20
43.2463115
 30
0.0
 11
170.5
 21
46.2837115
 31
0.0
  0
LINE
  5
F0
330
1E
100
AcDbEntity
  8
0
100
AcDbLine
 10
149.5
 20
46.2837115
 30
0.0
 11
149.5
 21
43.2463115
 31
0.0
  0
LINE
  5
F1
330
1E
100
AcDbEntity
  8
0
100
AcDbLine
 10
149.5
 20
46.2837115
 30
0.0
 11
149.5
 21
50.0989115
 31
0.0
  0
LINE
  5
F2
330
1E
100
AcDbEntity
  8
0
100
AcDbLine
 10
149.5
 20
50.0989115
 30
0.0
 11
149.5
 21
54.6269115
 31
0.0
  0
LINE
  5
F3
330
1E
100
AcDbEntity
  8
0
100
AcDbLine
 10
149.5
 20
50.0989115
 30
0.0
 11
149.5
 21
46.2837115
 31
0.0
  0
LINE
  5
F4
330
1E
100
AcDbEntity
  8
0
100
AcDbLine
 10
149.5
 20
54.6269115
 30
0.0
 11
149.5
 21
59.7900115
 31
0.0
  0
LINE
  5
F5
330
1E
100
AcDbEntity
  8
0
100
AcDbLine
 10
149.5
 20
54.6269115
 30
0.0
 11
149.5
 21
50.0989115
 31
0.0
  0
LINE
  5
F6
330
1E
100
AcDbEntity
  8
0
100
AcDbLine
 10
149.5
 20
59.7900115
 30
0.0
 11
149.5
 21
65.50001149999999
 31
0.0
  0
LINE
  5
F7
330
1E
100
AcDbEntity
  8
0
100
AcDbLine
 10
149.5
 20
59.7900115
 30
0.0
 11
149.5
 21
54.6269115
 31
0.0
  0
LINE
  5
F8
330
1E
100
AcDbEntity
  8
0
100
AcDbLine
 10
149.5
 20
71.65911149999999
 30
0.0
 11
149.5
 21
65.50001149999999
 31
0.0
  0
LINE
  5
F9
330
1E
100
AcDbEntity
  8
0
100
AcDbLine
 10
149.5
 20
71.65911149999999
 30
0.0
 11
149.5
 21
78.16201150000001
 31
0.0
  0
LINE
  5
FA
330
1E
100
AcDbEntity
  8
0
100
AcDbLine
 10
149.5
 20
65.50001149999999
 30
0.0
 11
149.5
 21
59.7900115
 31
0.0
  0
LINE
  5
FB
330
1E
100
AcDbEntity
  8
0
100
AcDbLine
 10
149.5
 20
65.50001149999999
 30
0.0
 11
149.5
 21
71.65911149999999
 31
0.0
  0
LINE
  5
FC
330
1E
100
AcDbEntity
  8
0
100
AcDbLine
 10
149.5
 20
78.16201150000001
 30
0.0
 11
149.5
 21
84.8974115
 31
0.0
  0
LINE
  5
FD
330
1E
100
AcDbEntity
  8
0
100
AcDbLine
 10
149.5
 20
78.16201150000001
 30
0.0
 11
149.5
 21
71.65911149999999
 31
0.0
  0
LINE
  5
FE
330
1E
100
AcDbEntity
  8
0
100
AcDbLine
 10
149.5
 20
84.8974115
 30
0.0
 11
149.5
 21
78.16201150000001
 31
0.0
  0
LINE
  5
FF
330
1E
100
AcDbEntity
  8
0
100
AcDbLine
 10
149.5
 20
84.8974115
 30
0.0
 11
149.5
 21
91.75001149999999
 31
0.0
  0
LINE
  5
100
330
1E
100
AcDbEntity
  8
0
100
AcDbLine
 10
149.5
 20
91.75001149999999
 30
0.0
 11
149.5
 21
98.60261149999999
 31
0.0
  0
LINE
  5
101
330
1E
100
AcDbEntity
  8
0
100
AcDbLine
 10
149.5
 20
91.75001149999999
 30
0.0
 11
149.5
 21
84.8974115
 31
0.0
  0
LINE
  5
102
330
1E
100
AcDbEntity
  8
0
100
AcDbLine
 10
149.5
 20
105.3380114999999
 30
0.0
 11
149.5
 21
98.60261149999999
 31
0.0
  0
LINE
  5
103
330
1E
100
AcDbEntity
  8
0
100
AcDbLine
 10
149.5
 20
105.3380114999999
 30
0.0
 11
149.5
 21
111.8410114999999
 31
0.0
  0
LINE
  5
104
330
1E
100
AcDbEntity
  8
0
100
AcDbLine
 10
149.5
 20
98.60261149999999
 30
0.0
 11
149.5
 21
91.75001149999999
 31
0.0
  0
LINE
  5
105
330
1E
100
AcDbEntity
  8
0
100
AcDbLine
 10
149.5
 20
98.60261149999999
 30
0.0
 11
149.5
 21
105.3380114999999
 31
0.0
  0
LINE
  5
106
330
1E
100
AcDbEntity
  8
0
100
AcDbLine
 10
170.5
 20
65.50001149999999
 30
0.0
 11
170.5
 21
71.65911149999999
 31
0.0
  0
LINE
  5
107
330
1E
100
AcDbEntity
  8
0
100
AcDbLine
 10
170.5
 20
65.50001149999999
 30
0.0
 11
170.5
 21
59.7900115
 31
0.0
  0
LINE
  5
108
330
1E
100
AcDbEntity
  8
0
100
AcDbLine
 10
170.5
 20
59.7900115
 30
0.0
 11
170.5
 21
54.6269115
 31
0.0
  0
LINE
  5
109
330
1E
100
AcDbEntity
  8
0
100
AcDbLine
 10
170.5
 20
59.7900115
 30
0.0
 11
170.5
 21
65.50001149999999
 31
0.0
  0
LINE
  5
10A
330
1E
100
AcDbEntity
  8
0
100
AcDbLine
 10
170.5
 20
54.6269115
 30
0.0
 11
170.5
 21
50.0989115
 31
0.0
  0
LINE
  5
10B
330
1E
100
AcDbEntity
  8
0
100
AcDbLine
 10
170.5
 20
54.6269115
 30
0.0
 11
170.5
 21
59.7900115
 31
0.0
  0
LINE
  5
10C
330
1E
100
AcDbEntity
  8
0
100
AcDbLine
 10
170.5
 20
50.0989115
 30
0.0
 11
170.5
 21
46.2837115
 31
0.0
  0
LINE
  5
10D
330
1E
100
AcDbEntity
  8
0
100
AcDbLine
 10
170.5
 20
50.0989115
 30
0.0
 11
170.5
 21
54.6269115
 31
0.0
  0
LINE
  5
10E
330
1E
100
AcDbEntity
  8
0
100
AcDbLine
 10
170.5
 20
46.2837115
 30
0.0
 11
170.5
 21
43.2463115
 31
0.0
  0
LINE
  5
10F
330
1E
100
AcDbEntity
  8
0
100
AcDbLine
 10
170.5
 20
46.2837115
 30
0.0
 11
170.5
 21
50.0989115
 31
0.0
  0
LINE
  5
110
330
1E
100
AcDbEntity
  8
0
100
AcDbLine
 10
170.5
 20
78.16201150000001
 30
0.0
 11
170.5
 21
71.65911149999999
 31
0.0
  0
LINE
  5
111
330
1E
100
AcDbEntity
  8
0
100
AcDbLine
 10
170.5
 20
78.16201150000001
 30
0.0
 11
170.5
 21
84.8974115
 31
0.0
  0
LINE
  5
112
330
1E
100
AcDbEntity
  8
0
100
AcDbLine
 10
170.5
 20
71.65911149999999
 30
0.0
 11
170.5
 21
65.50001149999999
 31
0.0
  0
LINE
  5
113
330
1E
100
AcDbEntity
  8
0
100
AcDbLine
 10
170.5
 20
71.65911149999999
 30
0.0
 11
170.5
 21
78.16201150000001
 31
0.0
  0
LINE
  5
114
330
1E
100
AcDbEntity
  8
0
100
AcDbLine
 10
170.5
 20
84.8974115
 30
0.0
 11
170.5
 21
91.75001149999999
 31
0.0
  0
LINE
  5
115
330
1E
100
AcDbEntity
  8
0
100
AcDbLine
 10
170.5
 20
84.8974115
 30
0.0
 11
170.5
 21
78.16201150000001
 31
0.0
  0
LINE
  5
116
330
1E
100
AcDbEntity
  8
0
100
AcDbLine
 10
170.5
 20
98.60261149999999
 30
0.0
 11
170.5
 21
91.75001149999999
 31
0.0
  0
LINE
  5
117
330
1E
100
AcDbEntity
  8
0
100
AcDbLine
 10
170.5
 20
98.60261149999999
 30
0.0
 11
170.5
 21
105.3380114999999
 31
0.0
  0
LINE
  5
118
330
1E
100
AcDbEntity
  8
0
100
AcDbLine
 10
170.5
 20
105.3380114999999
 30
0.0
 11
170.5
 21
111.8410114999999
 31
0.0
  0
LINE
  5
119
330
1E
100
AcDbEntity
  8
0
100
AcDbLine
 10
170.5
 20
105.3380114999999
 30
0.0
 11
170.5
 21
98.60261149999999
 31
0.0
  0
LINE
  5
11A
330
1E
100
AcDbEntity
  8
0
100
AcDbLine
 10
170.5
 20
111.8410114999999
 30
0.0
 11
170.5
 21
118.0000115
 31
0.0
  0
LINE
  5
11B
330
1E
100
AcDbEntity
  8
0
100
AcDbLine
 10
170.5
 20
111.8410114999999
 30
0.0
 11
170.5
 21
105.3380114999999
 31
0.0
  0
LINE
  5
11C
330
1E
100
AcDbEntity
  8
0
100
AcDbLine
 10
170.5
 20
91.75001149999999
 30
0.0
 11
170.5
 21
84.8974115
 31
0.0
  0
LINE
  5
11D
330
1E
100
AcDbEntity
  8
0
100
AcDbLine
 10
170.5
 20
91.75001149999999
 30
0.0
 11
170.5
 21
98.60261149999999
 31
0.0
  0
LINE
  5
11E
330
1E
100
AcDbEntity
  8
0
100
AcDbLine
 10
170.5
 20
113.7500114999999
 30
0.0
 11
184.4999999999999
 21
113.7500114999999
 31
0.0
  0
LINE
  5
11F
330
1E
100
AcDbEntity
  8
0
100
AcDbLine
 10
184.4999999999999
 20
113.7500114999999
 30
0.0
 11
186.0
 21
113.9500115
 31
0.0
  0
LINE
  5
120
330
1E
100
AcDbEntity
  8
0
100
AcDbLine
 10
149.5
 20
111.8410114999999
 30
0.0
 11
149.5
 21
118.0000115
 31
0.0
  0
LINE
  5
121
330
1E
100
AcDbEntity
  8
0
100
AcDbLine
 10
149.5
 20
111.8410114999999
 30
0.0
 11
149.5
 21
105.3380114999999
 31
0.0
  0
LINE
  5
122
330
1E
100
AcDbEntity
  8
0
100
AcDbLine
 10
149.5
 20
43.2463115
 30
0.0
 11
149.5
 21
9.766221500000009
 31
0.0
  0
LINE
  5
123
330
1E
100
AcDbEntity
  8
0
100
AcDbLine
 10
149.5
 20
43.2463115
 30
0.0
 11
149.5
 21
46.2837115
 31
0.0
  0
LINE
  5
125
330
1E
100
AcDbEntity
  8
0
100
AcDbLine
 10
184.4999999999999
 20
114.0500115
 30
0.0
 11
186.0
 21
114.2500115
 31
0.0
  0
LINE
  5
126
330
1E
100
AcDbEntity
  8
0
100
AcDbLine
 10
186.0
 20
114.2500115
 30
0.0
 11
187.3
 21
114.8500115
 31
0.0
  0
LINE
  5
127
330
1E
100
AcDbEntity
  8
0
100
AcDbLine
 10
170.5
 20
114.0500115
 30
0.0
 11
184.4999999999999
 21
114.0500115
 31
0.0
  0
LINE
  5
128
330
1E
100
AcDbEntity
  8
0
100
AcDbLine
 10
187.5
 20
114.5500114999999
 30
0.0
 11
188.7
 21
115.5500114999999
 31
0.0
  0
LINE
  5
129
330
1E
100
AcDbEntity
  8
0
100
AcDbLine
 10
186.0
 20
113.9500115
 30
0.0
 11
187.5
 21
114.5500114999999
 31
0.0
  0
LINE
  5
12B
330
1E
100
AcDbEntity
  8
0
100
AcDbLine
 10
187.3
 20
114.8500115
 30
0.0
 11
188.4999999999999
 21
115.7500114999999
 31
0.0
  0
LINE
  5
139
330
1E
100
AcDbEntity
  8
0
100
AcDbLine
 10
188.4999999999999
 20
115.7500114999999
 30
0.0
 11
189.4
 21
116.9500114999999
 31
0.0
  0
LINE
  5
13B
330
1E
100
AcDbEntity
  8
0
100
AcDbLine
 10
189.7
 20
116.7500114999999
 30
0.0
 11
190.3
 21
118.2500115
 31
0.0
  0
LINE
  5
13C
330
1E
100
AcDbEntity
  8
0
100
AcDbLine
 10
189.4
 20
116.9500114999999
 30
0.0
 11
190.0
 21
118.2500115
 31
0.0
  0
LINE
  5
144
330
1E
100
AcDbEntity
  8
0
100
AcDbLine
 10
149.5
 20
9.766221500000009
 30
0.0
 11
149.5
 21
43.2463115
 31
0.0
  0
LINE
  5
145
330
1E
100
AcDbEntity
  8
0
100
AcDbLine
 10
149.5
 20
9.766221500000009
 30
0.0
 11
149.9
 21
7.319191500000009
 31
0.0
  0
LINE
  5
146
330
1E
100
AcDbEntity
  8
0
100
AcDbLine
 10
135.4999999999999
 20
113.7500114999999
 30
0.0
 11
149.5
 21
113.7500114999999
 31
0.0
  0
LINE
  5
148
330
1E
100
AcDbEntity
  8
0
100
AcDbLine
 10
170.5
 20
118.0000115
 30
0.0
 11
170.5
 21
123.7100115
 31
0.0
  0
LINE
  5
149
330
1E
100
AcDbEntity
  8
0
100
AcDbLine
 10
170.5
 20
118.0000115
 30
0.0
 11
170.5
 21
111.8410114999999
 31
0.0
  0
LINE
  5
14A
330
1E
100
AcDbEntity
  8
0
100
AcDbLine
 10
190.0
 20
118.2500115
 30
0.0
 11
190.1999999999999
 21
119.7500114999999
 31
0.0
  0
LINE
  5
14B
330
1E
100
AcDbEntity
  8
0
100
AcDbLine
 10
149.5
 20
118.0000115
 30
0.0
 11
149.5
 21
111.8410114999999
 31
0.0
  0
LINE
  5
14C
330
1E
100
AcDbEntity
  8
0
100
AcDbLine
 10
149.5
 20
118.0000115
 30
0.0
 11
149.5
 21
123.7100115
 31
0.0
  0
LINE
  5
151
330
1E
100
AcDbEntity
  8
0
100
AcDbLine
 10
130.6
 20
116.9500114999999
 30
0.0
 11
131.4999999999999
 21
115.7500114999999
 31
0.0
  0
LINE
  5
152
330
1E
100
AcDbEntity
  8
0
100
AcDbLine
 10
130.0
 20
118.2500115
 30
0.0
 11
130.6
 21
116.9500114999999
 31
0.0
  0
LINE
  5
153
330
1E
100
AcDbEntity
  8
0
100
AcDbLine
 10
129.8
 20
168.7500114999999
 30
0.0
 11
130.0
 21
170.2500115
 31
0.0
  0
LINE
  5
154
330
1E
100
AcDbEntity
  8
0
100
AcDbLine
 10
129.8
 20
168.7500114999999
 30
0.0
 11
129.8
 21
144.2500115
 31
0.0
  0
LINE
  5
155
330
1E
100
AcDbEntity
  8
0
100
AcDbLine
 10
129.6999999999999
 20
170.2500115
 30
0.0
 11
130.3
 21
171.7500114999999
 31
0.0
  0
LINE
  5
156
330
1E
100
AcDbEntity
  8
0
100
AcDbLine
 10
129.8
 20
144.2500115
 30
0.0
 11
129.8
 21
119.7500114999999
 31
0.0
  0
LINE
  5
157
330
1E
100
AcDbEntity
  8
0
100
AcDbLine
 10
129.8
 20
144.2500115
 30
0.0
 11
129.8
 21
168.7500114999999
 31
0.0
  0
LINE
  5
158
330
1E
100
AcDbEntity
  8
0
100
AcDbLine
 10
190.1999999999999
 20
119.7500114999999
 30
0.0
 11
190.1999999999999
 21
144.2500115
 31
0.0
  0
LINE
  5
159
330
1E
100
AcDbEntity
  8
0
100
AcDbLine
 10
190.5
 20
119.7500114999999
 30
0.0
 11
190.5
 21
144.2500115
 31
0.0
  0
LINE
  5
15A
330
1E
100
AcDbEntity
  8
0
100
AcDbLine
 10
170.5
 20
119.381829681818
 30
0.0
 11
173.5999999999999
 21
120.6500115
 31
0.0
  0
LINE
  5
15E
330
1E
100
AcDbEntity
  8
0
100
AcDbLine
 10
173.5999999999999
 20
120.6500115
 30
0.0
 11
179.3
 21
124.9500115
 31
0.0
  0
LINE
  5
165
330
1E
100
AcDbEntity
  8
0
100
AcDbLine
 10
170.5
 20
123.7100115
 30
0.0
 11
170.5
 21
118.0000115
 31
0.0
  0
LINE
  5
166
330
1E
100
AcDbEntity
  8
0
100
AcDbLine
 10
170.5
 20
123.7100115
 30
0.0
 11
170.5
 21
128.8730114999999
 31
0.0
  0
LINE
  5
168
330
1E
100
AcDbEntity
  8
0
100
AcDbLine
 10
149.5
 20
123.7100115
 30
0.0
 11
149.5
 21
128.8730114999999
 31
0.0
  0
LINE
  5
169
330
1E
100
AcDbEntity
  8
0
100
AcDbLine
 10
149.5
 20
123.7100115
 30
0.0
 11
149.5
 21
118.0000115
 31
0.0
  0
LINE
  5
16B
330
1E
100
AcDbEntity
  8
0
100
AcDbLine
 10
170.5
 20
128.8730114999999
 30
0.0
 11
170.5
 21
123.7100115
 31
0.0
  0
LINE
  5
16C
330
1E
100
AcDbEntity
  8
0
100
AcDbLine
 10
170.5
 20
128.8730114999999
 30
0.0
 11
170.5
 21
133.4010115
 31
0.0
  0
LINE
  5
16D
330
1E
100
AcDbEntity
  8
0
100
AcDbLine
 10
179.3
 20
124.9500115
 30
0.0
 11
183.6
 21
130.6500115
 31
0.0
  0
LINE
  5
16E
330
1E
100
AcDbEntity
  8
0
100
AcDbLine
 10
149.5
 20
128.8730114999999
 30
0.0
 11
149.5
 21
133.4010115
 31
0.0
  0
LINE
  5
16F
330
1E
100
AcDbEntity
  8
0
100
AcDbLine
 10
149.5
 20
128.8730114999999
 30
0.0
 11
149.5
 21
123.7100115
 31
0.0
  0
LINE
  5
178
330
1E
100
AcDbEntity
  8
0
100
AcDbLine
 10
140.6999999999999
 20
124.9500115
 30
0.0
 11
146.4
 21
120.6500115
 31
0.0
  0
LINE
  5
179
330
1E
100
AcDbEntity
  8
0
100
AcDbLine
 10
146.4
 20
120.6500115
 30
0.0
 11
149.5
 21
119.381829681818
 31
0.0
  0
LINE
  5
17B
330
1E
100
AcDbEntity
  8
0
100
AcDbLine
 10
130.6
 20
171.5500115
 30
0.0
 11
131.4999999999999
 21
172.7500114999999
 31
0.0
  0
LINE
  5
17C
330
1E
100
AcDbEntity
  8
0
100
AcDbLine
 10
130.0
 20
170.2500115
 30
0.0
 11
130.6
 21
171.5500115
 31
0.0
  0
LINE
  5
17D
330
1E
100
AcDbEntity
  8
0
100
AcDbLine
 10
130.3
 20
171.7500114999999
 30
0.0
 11
131.3
 21
172.9500115
 31
0.0
  0
LINE
  5
17E
330
1E
100
AcDbEntity
  8
0
100
AcDbLine
 10
131.4999999999999
 20
172.7500114999999
 30
0.0
 11
132.6999999999999
 21
173.6500115
 31
0.0
  0
LINE
  5
17F
330
1E
100
AcDbEntity
  8
0
100
AcDbLine
 10
132.6999999999999
 20
173.6500115
 30
0.0
 11
134.0
 21
174.2500115
 31
0.0
  0
LINE
  5
180
330
1E
100
AcDbEntity
  8
0
100
AcDbLine
 10
131.3
 20
172.9500115
 30
0.0
 11
132.4999999999999
 21
173.9500115
 31
0.0
  0
LINE
  5
181
330
1E
100
AcDbEntity
  8
0
100
AcDbLine
 10
132.4999999999999
 20
173.9500115
 30
0.0
 11
134.0
 21
174.5500115
 31
0.0
  0
LINE
  5
182
330
1E
100
AcDbEntity
  8
0
100
AcDbLine
 10
183.6
 20
130.6500115
 30
0.0
 11
186.3
 21
137.2500115
 31
0.0
  0
LINE
  5
186
330
1E
100
AcDbEntity
  8
0
100
AcDbLine
 10
170.5
 20
133.2156364999999
 30
0.0
 11
170.8
 21
133.4500114999999
 31
0.0
  0
LINE
  5
18D
330
1E
100
AcDbEntity
  8
0
100
AcDbLine
 10
170.5
 20
133.4010115
 30
0.0
 11
170.5
 21
128.8730114999999
 31
0.0
  0
LINE
  5
18E
330
1E
100
AcDbEntity
  8
0
100
AcDbLine
 10
170.5
 20
133.4010115
 30
0.0
 11
170.5
 21
137.2160115
 31
0.0
  0
LINE
  5
18F
330
1E
100
AcDbEntity
  8
0
100
AcDbLine
 10
170.8
 20
133.4500114999999
 30
0.0
 11
173.3
 21
136.6500115
 31
0.0
  0
LINE
  5
191
330
1E
100
AcDbEntity
  8
0
100
AcDbLine
 10
149.5
 20
133.4010115
 30
0.0
 11
149.5
 21
128.8730114999999
 31
0.0
  0
LINE
  5
192
330
1E
100
AcDbEntity
  8
0
100
AcDbLine
 10
149.5
 20
133.4010115
 30
0.0
 11
149.5
 21
137.2160115
 31
0.0
  0
LINE
  5
1AD
330
1E
100
AcDbEntity
  8
0
100
AcDbLine
 10
149.1999999999999
 20
133.4500114999999
 30
0.0
 11
149.5
 21
133.2156364999999
 31
0.0
  0
LINE
  5
1B0
330
1E
100
AcDbEntity
  8
0
100
AcDbLine
 10
173.3
 20
136.6500115
 30
0.0
 11
174.6999999999999
 21
140.3500114999999
 31
0.0
  0
LINE
  5
1B5
330
1E
100
AcDbEntity
  8
0
100
AcDbLine
 10
170.5
 20
137.2160115
 30
0.0
 11
170.5
 21
140.2540114999999
 31
0.0
  0
LINE
  5
1B6
330
1E
100
AcDbEntity
  8
0
100
AcDbLine
 10
170.5
 20
137.2160115
 30
0.0
 11
170.5
 21
133.4010115
 31
0.0
  0
LINE
  5
1B7
330
1E
100
AcDbEntity
  8
0
100
AcDbLine
 10
186.3
 20
137.2500115
 30
0.0
 11
187.3
 21
144.2500115
 31
0.0
  0
LINE
  5
1B8
330
1E
100
AcDbEntity
  8
0
100
AcDbLine
 10
149.5
 20
137.2160115
 30
0.0
 11
149.5
 21
133.4010115
 31
0.0
  0
LINE
  5
1B9
330
1E
100
AcDbEntity
  8
0
100
AcDbLine
 10
149.5
 20
137.2160115
 30
0.0
 11
149.5
 21
140.2540114999999
 31
0.0
  0
LINE
  5
1BE
330
1E
100
AcDbEntity
  8
0
100
AcDbLine
 10
146.6999999999999
 20
136.6500115
 30
0.0
 11
149.1999999999999
 21
133.4500114999999
 31
0.0
  0
LINE
  5
1C0
330
1E
100
AcDbEntity
  8
0
100
AcDbLine
 10
136.4
 20
130.6500115
 30
0.0
 11
140.6999999999999
 21
124.9500115
 31
0.0
  0
LINE
  5
1C1
330
1E
100
AcDbEntity
  8
0
100
AcDbLine
 10
133.6999999999999
 20
151.2500114999999
 30
0.0
 11
136.4
 21
157.8500114999999
 31
0.0
  0
LINE
  5
1C2
330
1E
100
AcDbEntity
  8
0
100
AcDbLine
 10
136.4
 20
157.8500114999999
 30
0.0
 11
140.6999999999999
 21
163.5500115
 31
0.0
  0
LINE
  5
1C4
330
1E
100
AcDbEntity
  8
0
100
AcDbLine
 10
134.0
 20
174.2500115
 30
0.0
 11
135.4999999999999
 21
174.4500114999999
 31
0.0
  0
LINE
  5
1C5
330
1E
100
AcDbEntity
  8
0
100
AcDbLine
 10
135.4999999999999
 20
174.4500114999999
 30
0.0
 11
160.0
 21
174.4500114999999
 31
0.0
  0
LINE
  5
1C6
330
1E
100
AcDbEntity
  8
0
100
AcDbLine
 10
140.6999999999999
 20
163.5500115
 30
0.0
 11
146.4
 21
167.8500115
 31
0.0
  0
LINE
  5
1C8
330
1E
100
AcDbEntity
  8
0
100
AcDbLine
 10
135.4999999999999
 20
174.7500115
 30
0.0
 11
160.0
 21
174.7500115
 31
0.0
  0
LINE
  5
1C9
330
1E
100
AcDbEntity
  8
0
100
AcDbLine
 10
134.0
 20
174.5500115
 30
0.0
 11
135.4999999999999
 21
174.7500115
 31
0.0
  0
LINE
  5
1CB
330
1E
100
AcDbEntity
  8
0
100
AcDbLine
 10
170.5
 20
140.2540114999999
 30
0.0
 11
170.5
 21
142.4610115
 31
0.0
  0
LINE
  5
1CC
330
1E
100
AcDbEntity
  8
0
100
AcDbLine
 10
170.5
 20
140.2540114999999
 30
0.0
 11
170.5
 21
137.2160115
 31
0.0
  0
LINE
  5
1CD
330
1E
100
AcDbEntity
  8
0
100
AcDbLine
 10
174.6999999999999
 20
140.3500114999999
 30
0.0
 11
175.3
 21
144.2500115
 31
0.0
  0
LINE
  5
1CE
330
1E
100
AcDbEntity
  8
0
100
AcDbLine
 10
149.5
 20
140.2540114999999
 30
0.0
 11
149.5
 21
137.2160115
 31
0.0
  0
LINE
  5
1CF
330
1E
100
AcDbEntity
  8
0
100
AcDbLine
 10
149.5
 20
140.2540114999999
 30
0.0
 11
149.5
 21
142.4610115
 31
0.0
  0
LINE
  5
1D5
330
1E
100
AcDbEntity
  8
0
100
AcDbLine
 10
149.5
 20
142.4610115
 30
0.0
 11
149.5
 21
143.8010114999999
 31
0.0
  0
LINE
  5
1D6
330
1E
100
AcDbEntity
  8
0
100
AcDbLine
 10
149.5
 20
142.4610115
 30
0.0
 11
149.5
 21
140.2540114999999
 31
0.0
  0
LINE
  5
1D7
330
1E
100
AcDbEntity
  8
0
100
AcDbLine
 10
149.5
 20
143.8010114999999
 30
0.0
 11
149.5
 21
144.2500115
 31
0.0
  0
LINE
  5
1D8
330
1E
100
AcDbEntity
  8
0
100
AcDbLine
 10
149.5
 20
143.8010114999999
 30
0.0
 11
149.5
 21
142.4610115
 31
0.0
  0
LINE
  5
1D9
330
1E
100
AcDbEntity
  8
0
100
AcDbLine
 10
149.9
 20
146.9500114999999
 30
0.0
 11
150.9
 21
149.4500114999999
 31
0.0
  0
LINE
  5
1DA
330
1E
100
AcDbEntity
  8
0
100
AcDbLine
 10
149.5
 20
144.2500115
 30
0.0
 11
149.9
 21
146.9500114999999
 31
0.0
  0
LINE
  5
1DB
330
1E
100
AcDbEntity
  8
0
100
AcDbLine
 10
149.5
 20
144.2500115
 30
0.0
 11
149.5
 21
143.8010114999999
 31
0.0
  0
LINE
  5
1DC
330
1E
100
AcDbEntity
  8
0
100
AcDbLine
 10
150.9
 20
149.4500114999999
 30
0.0
 11
152.5999999999999
 21
151.6500115
 31
0.0
  0
LINE
  5
1DE
330
1E
100
AcDbEntity
  8
0
100
AcDbLine
 10
145.3
 20
148.1500115
 30
0.0
 11
146.6999999999999
 21
151.8500114999999
 31
0.0
  0
LINE
  5
1E0
330
1E
100
AcDbEntity
  8
0
100
AcDbLine
 10
146.6999999999999
 20
151.8500114999999
 30
0.0
 11
149.1999999999999
 21
155.0500115
 31
0.0
  0
LINE
  5
1E4
330
1E
100
AcDbEntity
  8
0
100
AcDbLine
 10
149.1999999999999
 20
155.0500115
 30
0.0
 11
152.4
 21
157.5500115
 31
0.0
  0
LINE
  5
1E5
330
1E
100
AcDbEntity
  8
0
100
AcDbLine
 10
152.4
 20
157.5500115
 30
0.0
 11
156.0999999999999
 21
158.9500114999999
 31
0.0
  0
LINE
  5
1E7
330
1E
100
AcDbEntity
  8
0
100
AcDbLine
 10
146.4
 20
167.8500115
 30
0.0
 11
153.0
 21
170.5500115
 31
0.0
  0
LINE
  5
1E8
330
1E
100
AcDbEntity
  8
0
100
AcDbLine
 10
153.0
 20
170.5500115
 30
0.0
 11
158.0
 21
171.264297214286
 31
0.0
  0
LINE
  5
1E9
330
1E
100
AcDbEntity
  8
0
100
AcDbLine
 10
152.5999999999999
 20
151.6500115
 30
0.0
 11
154.8
 21
153.3500115
 31
0.0
  0
LINE
  5
1EA
330
1E
100
AcDbEntity
  8
0
100
AcDbLine
 10
170.5
 20
142.4610115
 30
0.0
 11
170.5
 21
143.8010114999999
 31
0.0
  0
LINE
  5
1EB
330
1E
100
AcDbEntity
  8
0
100
AcDbLine
 10
170.5
 20
142.4610115
 30
0.0
 11
170.5
 21
140.2540114999999
 31
0.0
  0
LINE
  5
1EC
330
1E
100
AcDbEntity
  8
0
100
AcDbLine
 10
170.5
 20
143.8010114999999
 30
0.0
 11
170.5
 21
144.2500115
 31
0.0
  0
LINE
  5
1ED
330
1E
100
AcDbEntity
  8
0
100
AcDbLine
 10
170.5
 20
143.8010114999999
 30
0.0
 11
170.5
 21
142.4610115
 31
0.0
  0
LINE
  5
1EE
330
1E
100
AcDbEntity
  8
0
100
AcDbLine
 10
190.1999999999999
 20
144.2500115
 30
0.0
 11
190.1999999999999
 21
119.7500114999999
 31
0.0
  0
LINE
  5
1EF
330
1E
100
AcDbEntity
  8
0
100
AcDbLine
 10
190.1999999999999
 20
144.2500115
 30
0.0
 11
190.1999999999999
 21
168.7500114999999
 31
0.0
  0
LINE
  5
1F0
330
1E
100
AcDbEntity
  8
0
100
AcDbLine
 10
190.5
 20
144.2500115
 30
0.0
 11
190.5
 21
119.7500114999999
 31
0.0
  0
LINE
  5
1F1
330
1E
100
AcDbEntity
  8
0
100
AcDbLine
 10
190.5
 20
144.2500115
 30
0.0
 11
190.5
 21
168.7500114999999
 31
0.0
  0
LINE
  5
1FB
330
1E
100
AcDbEntity
  8
0
100
AcDbLine
 10
170.5
 20
144.2500115
 30
0.0
 11
170.5
 21
143.8010114999999
 31
0.0
  0
LINE
  5
1FC
330
1E
100
AcDbEntity
  8
0
100
AcDbLine
 10
170.1
 20
146.9500114999999
 30
0.0
 11
170.5
 21
144.2500115
 31
0.0
  0
LINE
  5
1FD
330
1E
100
AcDbEntity
  8
0
100
AcDbLine
 10
174.6999999999999
 20
148.1500115
 30
0.0
 11
175.3
 21
144.2500115
 31
0.0
  0
LINE
  5
1FE
330
1E
100
AcDbEntity
  8
0
100
AcDbLine
 10
186.3
 20
151.2500114999999
 30
0.0
 11
187.3
 21
144.2500115
 31
0.0
  0
LINE
  5
1FF
330
1E
100
AcDbEntity
  8
0
100
AcDbLine
 10
169.1
 20
149.4500114999999
 30
0.0
 11
170.1
 21
146.9500114999999
 31
0.0
  0
LINE
  5
202
330
1E
100
AcDbEntity
  8
0
100
AcDbLine
 10
160.0
 20
154.7500115
 30
0.0
 11
162.6999999999999
 21
154.3500115
 31
0.0
  0
LINE
  5
203
330
1E
100
AcDbEntity
  8
0
100
AcDbLine
 10
162.6999999999999
 20
154.3500115
 30
0.0
 11
165.1999999999999
 21
153.3500115
 31
0.0
  0
LINE
  5
206
330
1E
100
AcDbEntity
  8
0
100
AcDbLine
 10
173.3
 20
151.8500114999999
 30
0.0
 11
174.6999999999999
 21
148.1500115
 31
0.0
  0
LINE
  5
207
330
1E
100
AcDbEntity
  8
0
100
AcDbLine
 10
165.1999999999999
 20
153.3500115
 30
0.0
 11
167.4
 21
151.6500115
 31
0.0
  0
LINE
  5
208
330
1E
100
AcDbEntity
  8
0
100
AcDbLine
 10
167.4
 20
151.6500115
 30
0.0
 11
169.1
 21
149.4500114999999
 31
0.0
  0
LINE
  5
215
330
1E
100
AcDbEntity
  8
0
100
AcDbLine
 10
170.8
 20
155.0500115
 30
0.0
 11
173.3
 21
151.8500114999999
 31
0.0
  0
LINE
  5
220
330
1E
100
AcDbEntity
  8
0
100
AcDbLine
 10
167.5999999999999
 20
157.5500115
 30
0.0
 11
170.8
 21
155.0500115
 31
0.0
  0
LINE
  5
221
330
1E
100
AcDbEntity
  8
0
100
AcDbLine
 10
162.0
 20
157.7500115
 30
0.0
 11
162.0
 21
157.8520115
 31
0.0
  0
LINE
  5
222
330
1E
100
AcDbEntity
  8
0
100
AcDbLine
 10
162.0
 20
157.8520115
 30
0.0
 11
162.0
 21
158.1520115
 31
0.0
  0
LINE
  5
223
330
1E
100
AcDbEntity
  8
0
100
AcDbLine
 10
162.0
 20
157.8520115
 30
0.0
 11
162.0
 21
157.7500115
 31
0.0
  0
LINE
  5
224
330
1E
100
AcDbEntity
  8
0
100
AcDbLine
 10
158.0
 20
157.8520115
 30
0.0
 11
158.0
 21
157.7500115
 31
0.0
  0
LINE
  5
225
330
1E
100
AcDbEntity
  8
0
100
AcDbLine
 10
158.0
 20
157.8520115
 30
0.0
 11
158.0
 21
158.1520115
 31
0.0
  0
LINE
  5
226
330
1E
100
AcDbEntity
  8
0
100
AcDbLine
 10
158.0
 20
157.7500115
 30
0.0
 11
158.0
 21
157.8520115
 31
0.0
  0
LINE
  5
227
330
1E
100
AcDbEntity
  8
0
100
AcDbLine
 10
158.0
 20
157.7500115
 30
0.0
 11
158.0073001988069
 21
157.801924024851
 31
0.0
  0
LINE
  5
228
330
1E
100
AcDbEntity
  8
0
100
AcDbLine
 10
183.6
 20
157.8500114999999
 30
0.0
 11
186.3
 21
151.2500114999999
 31
0.0
  0
LINE
  5
22D
330
1E
100
AcDbEntity
  8
0
100
AcDbLine
 10
162.0
 20
158.1520115
 30
0.0
 11
162.0
 21
157.8520115
 31
0.0
  0
LINE
  5
22E
330
1E
100
AcDbEntity
  8
0
100
AcDbLine
 10
162.0
 20
158.1520115
 30
0.0
 11
162.0
 21
158.6290114999999
 31
0.0
  0
LINE
  5
22F
330
1E
100
AcDbEntity
  8
0
100
AcDbLine
 10
162.0
 20
158.6290114999999
 30
0.0
 11
162.0
 21
159.2500114999999
 31
0.0
  0
LINE
  5
230
330
1E
100
AcDbEntity
  8
0
100
AcDbLine
 10
162.0
 20
158.6290114999999
 30
0.0
 11
162.0
 21
158.1520115
 31
0.0
  0
LINE
  5
231
330
1E
100
AcDbEntity
  8
0
100
AcDbLine
 10
158.0
 20
158.1520115
 30
0.0
 11
158.0
 21
157.8520115
 31
0.0
  0
LINE
  5
232
330
1E
100
AcDbEntity
  8
0
100
AcDbLine
 10
158.0
 20
158.1520115
 30
0.0
 11
158.0
 21
158.6290114999999
 31
0.0
  0
LINE
  5
233
330
1E
100
AcDbEntity
  8
0
100
AcDbLine
 10
158.0
 20
158.6290114999999
 30
0.0
 11
158.0
 21
159.2500114999999
 31
0.0
  0
LINE
  5
234
330
1E
100
AcDbEntity
  8
0
100
AcDbLine
 10
158.0
 20
158.6290114999999
 30
0.0
 11
158.0
 21
158.1520115
 31
0.0
  0
LINE
  5
238
330
1E
100
AcDbEntity
  8
0
100
AcDbLine
 10
163.9
 20
158.9500114999999
 30
0.0
 11
167.5999999999999
 21
157.5500115
 31
0.0
  0
LINE
  5
24B
330
1E
100
AcDbEntity
  8
0
100
AcDbLine
 10
157.3
 20
154.3500115
 30
0.0
 11
160.0
 21
154.7500115
 31
0.0
  0
LINE
  5
24C
330
1E
100
AcDbEntity
  8
0
100
AcDbLine
 10
162.0
 20
159.2500114999999
 30
0.0
 11
162.0
 21
158.6290114999999
 31
0.0
  0
LINE
  5
24D
330
1E
100
AcDbEntity
  8
0
100
AcDbLine
 10
162.0
 20
159.2500114999999
 30
0.0
 11
162.0
 21
159.9740114999999
 31
0.0
  0
LINE
  5
24E
330
1E
100
AcDbEntity
  8
0
100
AcDbLine
 10
158.0
 20
159.2500114999999
 30
0.0
 11
158.0
 21
158.6290114999999
 31
0.0
  0
LINE
  5
24F
330
1E
100
AcDbEntity
  8
0
100
AcDbLine
 10
158.0
 20
159.2500114999999
 30
0.0
 11
158.0
 21
159.9740114999999
 31
0.0
  0
LINE
  5
250
330
1E
100
AcDbEntity
  8
0
100
AcDbLine
 10
162.0
 20
159.242319192308
 30
0.0
 11
163.9
 21
158.9500114999999
 31
0.0
  0
LINE
  5
251
330
1E
100
AcDbEntity
  8
0
100
AcDbLine
 10
158.0
 20
159.9740114999999
 30
0.0
 11
158.0
 21
160.7500115
 31
0.0
  0
LINE
  5
252
330
1E
100
AcDbEntity
  8
0
100
AcDbLine
 10
158.0
 20
159.9740114999999
 30
0.0
 11
158.0
 21
159.2500114999999
 31
0.0
  0
LINE
  5
253
330
1E
100
AcDbEntity
  8
0
100
AcDbLine
 10
162.0
 20
159.9740114999999
 30
0.0
 11
162.0
 21
159.2500114999999
 31
0.0
  0
LINE
  5
254
330
1E
100
AcDbEntity
  8
0
100
AcDbLine
 10
162.0
 20
159.9740114999999
 30
0.0
 11
162.0
 21
160.7500115
 31
0.0
  0
LINE
  5
255
330
1E
100
AcDbEntity
  8
0
100
AcDbLine
 10
162.0
 20
160.7500115
 30
0.0
 11
162.0
 21
172.6220114999999
 31
0.0
  0
LINE
  5
256
330
1E
100
AcDbEntity
  8
0
100
AcDbLine
 10
162.0
 20
160.7500115
 30
0.0
 11
162.0
 21
159.9740114999999
 31
0.0
  0
LINE
  5
257
330
1E
100
AcDbEntity
  8
0
100
AcDbLine
 10
158.0
 20
160.7500115
 30
0.0
 11
158.0
 21
172.6220114999999
 31
0.0
  0
LINE
  5
258
330
1E
100
AcDbEntity
  8
0
100
AcDbLine
 10
158.0
 20
160.7500115
 30
0.0
 11
158.0
 21
159.9740114999999
 31
0.0
  0
LINE
  5
259
330
1E
100
AcDbEntity
  8
0
100
AcDbLine
 10
173.5999999999999
 20
167.8500115
 30
0.0
 11
179.3
 21
163.5500115
 31
0.0
  0
LINE
  5
25A
330
1E
100
AcDbEntity
  8
0
100
AcDbLine
 10
179.3
 20
163.5500115
 30
0.0
 11
183.6
 21
157.8500114999999
 31
0.0
  0
LINE
  5
25C
330
1E
100
AcDbEntity
  8
0
100
AcDbLine
 10
190.1999999999999
 20
168.7500114999999
 30
0.0
 11
190.1999999999999
 21
144.2500115
 31
0.0
  0
LINE
  5
25D
330
1E
100
AcDbEntity
  8
0
100
AcDbLine
 10
190.5
 20
168.7500114999999
 30
0.0
 11
190.5
 21
144.2500115
 31
0.0
  0
LINE
  5
25F
330
1E
100
AcDbEntity
  8
0
100
AcDbLine
 10
158.048
 20
172.7500114999999
 30
0.0
 11
158.12
 21
172.7500114999999
 31
0.0
  0
LINE
  5
260
330
1E
100
AcDbEntity
  8
0
100
AcDbLine
 10
158.12
 20
172.7500114999999
 30
0.0
 11
158.312
 21
172.7500114999999
 31
0.0
  0
LINE
  5
261
330
1E
100
AcDbEntity
  8
0
100
AcDbLine
 10
158.312
 20
172.7500114999999
 30
0.0
 11
158.624
 21
172.7500114999999
 31
0.0
  0
LINE
  5
262
330
1E
100
AcDbEntity
  8
0
100
AcDbLine
 10
158.624
 20
172.7500114999999
 30
0.0
 11
159.032
 21
172.7500114999999
 31
0.0
  0
LINE
  5
263
330
1E
100
AcDbEntity
  8
0
100
AcDbLine
 10
161.88
 20
172.7500114999999
 30
0.0
 11
161.952
 21
172.7500114999999
 31
0.0
  0
LINE
  5
264
330
1E
100
AcDbEntity
  8
0
100
AcDbLine
 10
161.6879999999999
 20
172.7500114999999
 30
0.0
 11
161.88
 21
172.7500114999999
 31
0.0
  0
LINE
  5
265
330
1E
100
AcDbEntity
  8
0
100
AcDbLine
 10
161.376
 20
172.7500114999999
 30
0.0
 11
161.6879999999999
 21
172.7500114999999
 31
0.0
  0
LINE
  5
266
330
1E
100
AcDbEntity
  8
0
100
AcDbLine
 10
160.9679999999999
 20
172.7500114999999
 30
0.0
 11
161.376
 21
172.7500114999999
 31
0.0
  0
LINE
  5
267
330
1E
100
AcDbEntity
  8
0
100
AcDbLine
 10
160.5039999999999
 20
172.7500114999999
 30
0.0
 11
160.9679999999999
 21
172.7500114999999
 31
0.0
  0
LINE
  5
268
330
1E
100
AcDbEntity
  8
0
100
AcDbLine
 10
160.0
 20
172.7500114999999
 30
0.0
 11
160.5039999999999
 21
172.7500114999999
 31
0.0
  0
LINE
  5
269
330
1E
100
AcDbEntity
  8
0
100
AcDbLine
 10
162.0
 20
172.6220114999999
 30
0.0
 11
162.0
 21
160.7500115
 31
0.0
  0
LINE
  5
26A
330
1E
100
AcDbEntity
  8
0
100
AcDbLine
 10
161.952
 20
172.7500114999999
 30
0.0
 11
162.0
 21
172.6220114999999
 31
0.0
  0
LINE
  5
26B
330
1E
100
AcDbEntity
  8
0
100
AcDbLine
 10
159.032
 20
172.7500114999999
 30
0.0
 11
159.496
 21
172.7500114999999
 31
0.0
  0
LINE
  5
26C
330
1E
100
AcDbEntity
  8
0
100
AcDbLine
 10
159.496
 20
172.7500114999999
 30
0.0
 11
160.0
 21
172.7500114999999
 31
0.0
  0
LINE
  5
26D
330
1E
100
AcDbEntity
  8
0
100
AcDbLine
 10
158.0
 20
172.6220114999999
 30
0.0
 11
158.048
 21
172.7500114999999
 31
0.0
  0
LINE
  5
26E
330
1E
100
AcDbEntity
  8
0
100
AcDbLine
 10
158.0
 20
172.6220114999999
 30
0.0
 11
158.0
 21
160.7500115
 31
0.0
  0
LINE
  5
26F
330
1E
100
AcDbEntity
  8
0
100
AcDbLine
 10
160.0
 20
174.4500114999999
 30
0.0
 11
184.4999999999999
 21
174.4500114999999
 31
0.0
  0
LINE
  5
270
330
1E
100
AcDbEntity
  8
0
100
AcDbLine
 10
190.0
 20
170.2500115
 30
0.0
 11
190.1999999999999
 21
168.7500114999999
 31
0.0
  0
LINE
  5
271
330
1E
100
AcDbEntity
  8
0
100
AcDbLine
 10
187.3
 20
173.6500115
 30
0.0
 11
188.4999999999999
 21
172.7500114999999
 31
0.0
  0
LINE
  5
272
330
1E
100
AcDbEntity
  8
0
100
AcDbLine
 10
186.0
 20
174.2500115
 30
0.0
 11
187.3
 21
173.6500115
 31
0.0
  0
LINE
  5
273
330
1E
100
AcDbEntity
  8
0
100
AcDbLine
 10
184.4999999999999
 20
174.4500114999999
 30
0.0
 11
186.0
 21
174.2500115
 31
0.0
  0
LINE
  5
274
330
1E
100
AcDbEntity
  8
0
100
AcDbLine
 10
189.4
 20
171.5500115
 30
0.0
 11
190.0
 21
170.2500115
 31
0.0
  0
LINE
  5
275
330
1E
100
AcDbEntity
  8
0
100
AcDbLine
 10
188.4999999999999
 20
172.7500114999999
 30
0.0
 11
189.4
 21
171.5500115
 31
0.0
  0
LINE
  5
276
330
1E
100
AcDbEntity
  8
0
100
AcDbLine
 10
188.7
 20
172.9500115
 30
0.0
 11
189.7
 21
171.7500114999999
 31
0.0
  0
LINE
  5
277
330
1E
100
AcDbEntity
  8
0
100
AcDbLine
 10
189.7
 20
171.7500114999999
 30
0.0
 11
190.3
 21
170.2500115
 31
0.0
  0
LINE
  5
278
330
1E
100
AcDbEntity
  8
0
100
AcDbLine
 10
187.5
 20
173.9500115
 30
0.0
 11
188.7
 21
172.9500115
 31
0.0
  0
LINE
  5
279
330
1E
100
AcDbEntity
  8
0
100
AcDbLine
 10
167.0
 20
170.5500115
 30
0.0
 11
173.5999999999999
 21
167.8500115
 31
0.0
  0
LINE
  5
27A
330
1E
100
AcDbEntity
  8
0
100
AcDbLine
 10
162.0
 20
171.264297214286
 30
0.0
 11
167.0
 21
170.5500115
 31
0.0
  0
LINE
  5
28D
330
1E
100
AcDbEntity
  8
0
100
AcDbLine
 10
186.0
 20
174.5500115
 30
0.0
 11
187.5
 21
173.9500115
 31
0.0
  0
LINE
  5
28E
330
1E
100
AcDbEntity
  8
0
100
AcDbLine
 10
184.4999999999999
 20
174.7500115
 30
0.0
 11
186.0
 21
174.5500115
 31
0.0
  0
LINE
  5
28F
330
1E
100
AcDbEntity
  8
0
100
AcDbLine
 10
160.0
 20
174.7500115
 30
0.0
 11
184.4999999999999
 21
174.7500115
 31
0.0
  0
LINE
  5
2A6
330
1E
100
AcDbEntity
  8
0
100
AcDbLine
 10
156.0999999999999
 20
158.9500114999999
 30
0.0
 11
158.0
 21
159.242319192308
 31
0.0
  0
LINE
  5
2A7
330
1E
100
AcDbEntity
  8
0
100
AcDbLine
 10
154.8
 20
153.3500115
 30
0.0
 11
157.3
 21
154.3500115
 31
0.0
  0
LINE
  5
2A8
330
1E
100
AcDbEntity
  8
0
100
AcDbLine
 10
154.8
 20
153.3500115
 30
0.0
 11
157.3
 21
154.3500115
 31
0.0
  0
LINE
  5
2A9
330
1E
100
AcDbEntity
  8
0
100
AcDbLine
 10
145.3
 20
140.3500114999999
 30
0.0
 11
146.6999999999999
 21
136.6500115
 31
0.0
  0
LINE
  5
2AA
330
1E
100
AcDbEntity
  8
0
100
AcDbLine
 10
144.6999999999999
 20
144.2500115
 30
0.0
 11
145.3
 21
140.3500114999999
 31
0.0
  0
LINE
  5
2AB
330
1E
100
AcDbEntity
  8
0
100
AcDbLine
 10
144.6999999999999
 20
144.2500115
 30
0.0
 11
145.3
 21
148.1500115
 31
0.0
  0
LINE
  5
2AC
330
1E
100
AcDbEntity
  8
0
100
AcDbLine
 10
133.6999999999999
 20
137.2500115
 30
0.0
 11
136.4
 21
130.6500115
 31
0.0
  0
LINE
  5
2AD
330
1E
100
AcDbEntity
  8
0
100
AcDbLine
 10
132.6999999999999
 20
144.2500115
 30
0.0
 11
133.6999999999999
 21
137.2500115
 31
0.0
  0
LINE
  5
2AE
330
1E
100
AcDbEntity
  8
0
100
AcDbLine
 10
132.6999999999999
 20
144.2500115
 30
0.0
 11
133.6999999999999
 21
151.2500114999999
 31
0.0
  0
LINE
  5
2B0
330
1E
100
AcDbEntity
  8
0
100
AcDbLine
 10
129.8
 20
119.7500114999999
 30
0.0
 11
129.8
 21
144.2500115
 31
0.0
  0
LINE
  5
2B1
330
1E
100
AcDbEntity
  8
0
100
AcDbLine
 10
129.8
 20
119.7500114999999
 30
0.0
 11
130.0
 21
118.2500115
 31
0.0
  0
LINE
  5
2B2
330
1E
100
AcDbEntity
  8
0
100
AcDbLine
 10
129.6999999999999
 20
118.2500115
 30
0.0
 11
130.3
 21
116.7500114999999
 31
0.0
  0
LINE
  5
2B3
330
1E
100
AcDbEntity
  8
0
100
AcDbLine
 10
129.4999999999999
 20
119.7500114999999
 30
0.0
 11
129.4999999999999
 21
144.2500115
 31
0.0
  0
LINE
  5
2B8
330
1E
100
AcDbEntity
  8
0
100
AcDbLine
 10
90.5
 20
119.7500114999999
 30
0.0
 11
90.5
 21
168.7500114999999
 31
0.0
  0
LINE
  5
2B9
330
1E
100
AcDbEntity
  8
0
100
AcDbLine
 10
31.3
 20
172.9500115
 30
0.0
 11
32.5
 21
173.9500115
 31
0.0
  0
LINE
  5
2BA
330
1E
100
AcDbEntity
  8
0
100
AcDbLine
 10
34.0
 20
113.9500115
 30
0.0
 11
35.5
 21
113.7500114999999
 31
0.0
  0
LINE
  5
2BB
330
1E
100
AcDbEntity
  8
0
100
AcDbLine
 10
84.50000000000001
 20
113.7500114999999
 30
0.0
 11
86.0
 21
113.9500115
 31
0.0
  0
LINE
  5
2BC
330
1E
100
AcDbEntity
  8
0
100
AcDbLine
 10
88.7
 20
115.5500114999999
 30
0.0
 11
89.7
 21
116.7500114999999
 31
0.0
  0
LINE
  5
2BD
330
1E
100
AcDbEntity
  8
0
100
AcDbLine
 10
62.7
 20
154.4500114999999
 30
0.0
 11
65.2
 21
153.3500115
 31
0.0
  0
LINE
  5
2BE
330
1E
100
AcDbEntity
  8
0
100
AcDbLine
 10
62.7
 20
134.0500115
 30
0.0
 11
65.2
 21
135.1500115
 31
0.0
  0
LINE
  5
2BF
330
1E
100
AcDbEntity
  8
0
100
AcDbLine
 10
284.5
 20
174.7500115
 30
0.0
 11
260.0
 21
174.7500115
 31
0.0
  0
LINE
  5
2C0
330
1E
100
AcDbEntity
  8
0
100
AcDbLine
 10
284.5
 20
174.4500114999999
 30
0.0
 11
260.0
 21
174.4500114999999
 31
0.0
  0
LINE
  5
2C1
330
1E
100
AcDbEntity
  8
0
100
AcDbLine
 10
267.0
 20
170.5500115
 30
0.0
 11
260.0
 21
171.5500115
 31
0.0
  0
LINE
  5
2C2
330
1E
100
AcDbEntity
  8
0
100
AcDbLine
 10
263.8999999999999
 20
158.9500114999999
 30
0.0
 11
260.0
 21
159.5500115
 31
0.0
  0
LINE
  5
2C3
330
1E
100
AcDbEntity
  8
0
100
AcDbLine
 10
309.5
 20
154.7500115
 30
0.0
 11
260.0
 21
154.7500115
 31
0.0
  0
LINE
  5
2C4
330
1E
100
AcDbEntity
  8
0
100
AcDbLine
 10
309.5
 20
154.7500115
 30
0.0
 11
260.0
 21
154.7500115
 31
0.0
  0
LINE
  5
2C5
330
1E
100
AcDbEntity
  8
0
100
AcDbLine
 10
260.3999999999999
 20
133.7500115
 30
0.0
 11
260.0
 21
133.7500115
 31
0.0
  0
LINE
  5
2C6
330
1E
100
AcDbEntity
  8
0
100
AcDbLine
 10
280.0
 20
133.7500115
 30
0.0
 11
260.0
 21
133.7500115
 31
0.0
  0
LINE
  5
2C7
330
1E
100
AcDbEntity
  8
0
100
AcDbLine
 10
263.8999999999999
 20
129.5500115
 30
0.0
 11
260.0
 21
128.9500114999999
 31
0.0
  0
LINE
  5
2C8
330
1E
100
AcDbEntity
  8
0
100
AcDbLine
 10
267.0
 20
117.9500114999999
 30
0.0
 11
260.0
 21
116.9500114999999
 31
0.0
  0
LINE
  5
2C9
330
1E
100
AcDbEntity
  8
0
100
AcDbLine
 10
284.5
 20
113.7500114999999
 30
0.0
 11
260.0
 21
113.7500114999999
 31
0.0
  0
LINE
  5
2CA
330
1E
100
AcDbEntity
  8
0
100
AcDbLine
 10
284.5
 20
114.0500115
 30
0.0
 11
260.0
 21
114.0500115
 31
0.0
  0
LINE
  5
2CB
330
1E
100
AcDbEntity
  8
0
100
AcDbLine
 10
309.5
 20
133.7500115
 30
0.0
 11
260.0
 21
133.7500115
 31
0.0
  0
LINE
  5
2CC
330
1E
100
AcDbEntity
  8
0
100
AcDbLine
 10
320.0
 20
144.2500115
 30
0.0
 11
319.7
 21
141.5500115
 31
0.0
  0
LINE
  5
2CD
330
1E
100
AcDbEntity
  8
0
100
AcDbLine
 10
312.1999999999999
 20
134.0500115
 30
0.0
 11
309.5
 21
133.7500115
 31
0.0
  0
LINE
  5
2CE
330
1E
100
AcDbEntity
  8
0
100
AcDbLine
 10
317.0
 20
136.7500115
 30
0.0
 11
314.6999999999999
 21
135.1500115
 31
0.0
  0
LINE
  5
2CF
330
1E
100
AcDbEntity
  8
0
100
AcDbLine
 10
314.6999999999999
 20
135.1500115
 30
0.0
 11
312.1999999999999
 21
134.0500115
 31
0.0
  0
LINE
  5
2D0
330
1E
100
AcDbEntity
  8
0
100
AcDbLine
 10
316.6
 20
137.1500115
 30
0.0
 11
314.5
 21
135.5500115
 31
0.0
  0
LINE
  5
2D1
330
1E
100
AcDbEntity
  8
0
100
AcDbLine
 10
318.6
 20
139.0500115
 30
0.0
 11
317.0
 21
136.7500115
 31
0.0
  0
LINE
  5
2D2
330
1E
100
AcDbEntity
  8
0
100
AcDbLine
 10
318.1999999999999
 20
139.2500115
 30
0.0
 11
316.6
 21
137.1500115
 31
0.0
  0
LINE
  5
2D3
330
1E
100
AcDbEntity
  8
0
100
AcDbLine
 10
319.7
 20
141.5500115
 30
0.0
 11
318.6
 21
139.0500115
 31
0.0
  0
LINE
  5
2D4
330
1E
100
AcDbEntity
  8
0
100
AcDbLine
 10
319.7
 20
141.5500115
 30
0.0
 11
318.6
 21
139.0500115
 31
0.0
  0
LINE
  5
2D5
330
1E
100
AcDbEntity
  8
0
100
AcDbLine
 10
288.7
 20
115.5500114999999
 30
0.0
 11
287.5
 21
114.5500114999999
 31
0.0
  0
LINE
  5
2D6
330
1E
100
AcDbEntity
  8
0
100
AcDbLine
 10
287.3
 20
114.8500115
 30
0.0
 11
286.0
 21
114.2500115
 31
0.0
  0
LINE
  5
2D7
330
1E
100
AcDbEntity
  8
0
100
AcDbLine
 10
286.0
 20
113.9500115
 30
0.0
 11
284.5
 21
113.7500114999999
 31
0.0
  0
LINE
  5
2D8
330
1E
100
AcDbEntity
  8
0
100
AcDbLine
 10
286.0
 20
114.2500115
 30
0.0
 11
284.5
 21
114.0500115
 31
0.0
  0
LINE
  5
2D9
330
1E
100
AcDbEntity
  8
0
100
AcDbLine
 10
287.5
 20
114.5500114999999
 30
0.0
 11
286.0
 21
113.9500115
 31
0.0
  0
LINE
  5
2DA
330
1E
100
AcDbEntity
  8
0
100
AcDbLine
 10
309.5
 20
133.7500115
 30
0.0
 11
280.0
 21
133.7500115
 31
0.0
  0
LINE
  5
2DB
330
1E
100
AcDbEntity
  8
0
100
AcDbLine
 10
290.5
 20
119.7500114999999
 30
0.0
 11
290.5
 21
133.7500115
 31
0.0
  0
LINE
  5
2DC
330
1E
100
AcDbEntity
  8
0
100
AcDbLine
 10
290.2
 20
133.7500115
 30
0.0
 11
290.2
 21
119.7500114999999
 31
0.0
  0
LINE
  5
2DD
330
1E
100
AcDbEntity
  8
0
100
AcDbLine
 10
290.2
 20
119.7500114999999
 30
0.0
 11
290.2
 21
133.7500115
 31
0.0
  0
LINE
  5
2DE
330
1E
100
AcDbEntity
  8
0
100
AcDbLine
 10
290.5
 20
133.7500115
 30
0.0
 11
290.5
 21
119.7500114999999
 31
0.0
  0
LINE
  5
2DF
330
1E
100
AcDbEntity
  8
0
100
AcDbLine
 10
290.3
 20
118.2500115
 30
0.0
 11
289.6999999999999
 21
116.7500114999999
 31
0.0
  0
LINE
  5
2E0
330
1E
100
AcDbEntity
  8
0
100
AcDbLine
 10
290.0
 20
118.2500115
 30
0.0
 11
289.3999999999999
 21
116.9500114999999
 31
0.0
  0
LINE
  5
2E1
330
1E
100
AcDbEntity
  8
0
100
AcDbLine
 10
288.5
 20
115.7500114999999
 30
0.0
 11
287.3
 21
114.8500115
 31
0.0
  0
LINE
  5
2E2
330
1E
100
AcDbEntity
  8
0
100
AcDbLine
 10
289.6999999999999
 20
116.7500114999999
 30
0.0
 11
288.7
 21
115.5500114999999
 31
0.0
  0
LINE
  5
2E3
330
1E
100
AcDbEntity
  8
0
100
AcDbLine
 10
289.3999999999999
 20
116.9500114999999
 30
0.0
 11
288.5
 21
115.7500114999999
 31
0.0
  0
LINE
  5
2E4
330
1E
100
AcDbEntity
  8
0
100
AcDbLine
 10
290.5
 20
119.7500114999999
 30
0.0
 11
290.3
 21
118.2500115
 31
0.0
  0
LINE
  5
2E5
330
1E
100
AcDbEntity
  8
0
100
AcDbLine
 10
290.2
 20
119.7500114999999
 30
0.0
 11
290.0
 21
118.2500115
 31
0.0
  0
LINE
  5
2E6
330
1E
100
AcDbEntity
  8
0
100
AcDbLine
 10
283.6
 20
130.6500115
 30
0.0
 11
279.3
 21
124.9500115
 31
0.0
  0
LINE
  5
2E7
330
1E
100
AcDbEntity
  8
0
100
AcDbLine
 10
273.6
 20
120.6500115
 30
0.0
 11
267.0
 21
117.9500114999999
 31
0.0
  0
LINE
  5
2E8
330
1E
100
AcDbEntity
  8
0
100
AcDbLine
 10
279.3
 20
124.9500115
 30
0.0
 11
273.6
 21
120.6500115
 31
0.0
  0
LINE
  5
2E9
330
1E
100
AcDbEntity
  8
0
100
AcDbLine
 10
273.0
 20
133.7500115
 30
0.0
 11
269.0
 21
133.7500115
 31
0.0
  0
LINE
  5
2EA
330
1E
100
AcDbEntity
  8
0
100
AcDbLine
 10
280.0
 20
133.7500115
 30
0.0
 11
276.6999999999999
 21
133.7500115
 31
0.0
  0
LINE
  5
2EB
330
1E
100
AcDbEntity
  8
0
100
AcDbLine
 10
284.8681818181818
 20
133.7500115
 30
0.0
 11
283.6
 21
130.6500115
 31
0.0
  0
LINE
  5
2EC
330
1E
100
AcDbEntity
  8
0
100
AcDbLine
 10
276.6999999999999
 20
133.7500115
 30
0.0
 11
273.0
 21
133.7500115
 31
0.0
  0
LINE
  5
2ED
330
1E
100
AcDbEntity
  8
0
100
AcDbLine
 10
267.6
 20
130.9500114999999
 30
0.0
 11
263.8999999999999
 21
129.5500115
 31
0.0
  0
LINE
  5
2EE
330
1E
100
AcDbEntity
  8
0
100
AcDbLine
 10
269.0
 20
133.7500115
 30
0.0
 11
264.6999999999999
 21
133.7500115
 31
0.0
  0
LINE
  5
2EF
330
1E
100
AcDbEntity
  8
0
100
AcDbLine
 10
270.8
 20
133.4500114999999
 30
0.0
 11
267.6
 21
130.9500114999999
 31
0.0
  0
LINE
  5
2F0
330
1E
100
AcDbEntity
  8
0
100
AcDbLine
 10
271.034375
 20
133.7500115
 30
0.0
 11
270.8
 21
133.4500114999999
 31
0.0
  0
LINE
  5
2F1
330
1E
100
AcDbEntity
  8
0
100
AcDbLine
 10
264.6999999999999
 20
133.7500115
 30
0.0
 11
261.8999999999999
 21
133.7500115
 31
0.0
  0
LINE
  5
2F2
330
1E
100
AcDbEntity
  8
0
100
AcDbLine
 10
261.8999999999999
 20
133.7500115
 30
0.0
 11
260.3999999999999
 21
133.7500115
 31
0.0
  0
LINE
  5
2F3
330
1E
100
AcDbEntity
  8
0
100
AcDbLine
 10
312.1999999999999
 20
154.4500114999999
 30
0.0
 11
309.5
 21
154.7500115
 31
0.0
  0
LINE
  5
2F4
330
1E
100
AcDbEntity
  8
0
100
AcDbLine
 10
319.7
 20
146.9500114999999
 30
0.0
 11
318.6
 21
149.4500114999999
 31
0.0
  0
LINE
  5
2F5
330
1E
100
AcDbEntity
  8
0
100
AcDbLine
 10
319.7
 20
146.9500114999999
 30
0.0
 11
318.6
 21
149.4500114999999
 31
0.0
  0
LINE
  5
2F6
330
1E
100
AcDbEntity
  8
0
100
AcDbLine
 10
320.0
 20
144.2500115
 30
0.0
 11
319.7
 21
146.9500114999999
 31
0.0
  0
LINE
  5
2F7
330
1E
100
AcDbEntity
  8
0
100
AcDbLine
 10
317.0
 20
151.7500114999999
 30
0.0
 11
314.6999999999999
 21
153.3500115
 31
0.0
  0
LINE
  5
2F8
330
1E
100
AcDbEntity
  8
0
100
AcDbLine
 10
316.6
 20
151.3500115
 30
0.0
 11
314.5
 21
152.9500114999999
 31
0.0
  0
LINE
  5
2F9
330
1E
100
AcDbEntity
  8
0
100
AcDbLine
 10
318.6
 20
149.4500114999999
 30
0.0
 11
317.0
 21
151.7500114999999
 31
0.0
  0
LINE
  5
2FA
330
1E
100
AcDbEntity
  8
0
100
AcDbLine
 10
318.1999999999999
 20
149.2500115
 30
0.0
 11
316.6
 21
151.3500115
 31
0.0
  0
LINE
  5
2FB
330
1E
100
AcDbEntity
  8
0
100
AcDbLine
 10
314.6999999999999
 20
153.3500115
 30
0.0
 11
312.1999999999999
 21
154.4500114999999
 31
0.0
  0
LINE
  5
2FC
330
1E
100
AcDbEntity
  8
0
100
AcDbLine
 10
273.6
 20
167.8500115
 30
0.0
 11
267.0
 21
170.5500115
 31
0.0
  0
LINE
  5
2FD
330
1E
100
AcDbEntity
  8
0
100
AcDbLine
 10
290.5
 20
168.7500114999999
 30
0.0
 11
290.3
 21
170.2500115
 31
0.0
  0
LINE
  5
2FE
330
1E
100
AcDbEntity
  8
0
100
AcDbLine
 10
290.2
 20
168.7500114999999
 30
0.0
 11
290.0
 21
170.2500115
 31
0.0
  0
LINE
  5
2FF
330
1E
100
AcDbEntity
  8
0
100
AcDbLine
 10
290.5
 20
168.7500114999999
 30
0.0
 11
290.5
 21
154.7500115
 31
0.0
  0
LINE
  5
300
330
1E
100
AcDbEntity
  8
0
100
AcDbLine
 10
290.5
 20
154.7500115
 30
0.0
 11
290.5
 21
168.7500114999999
 31
0.0
  0
LINE
  5
301
330
1E
100
AcDbEntity
  8
0
100
AcDbLine
 10
290.2
 20
168.7500114999999
 30
0.0
 11
290.2
 21
154.7500115
 31
0.0
  0
LINE
  5
302
330
1E
100
AcDbEntity
  8
0
100
AcDbLine
 10
290.2
 20
154.7500115
 30
0.0
 11
290.2
 21
168.7500114999999
 31
0.0
  0
LINE
  5
303
330
1E
100
AcDbEntity
  8
0
100
AcDbLine
 10
270.8
 20
155.0500115
 30
0.0
 11
267.6
 21
157.5500115
 31
0.0
  0
LINE
  5
304
330
1E
100
AcDbEntity
  8
0
100
AcDbLine
 10
284.8681818181818
 20
154.7500115
 30
0.0
 11
283.6
 21
157.8500114999999
 31
0.0
  0
LINE
  5
305
330
1E
100
AcDbEntity
  8
0
100
AcDbLine
 10
271.034375
 20
154.7500115
 30
0.0
 11
270.8
 21
155.0500115
 31
0.0
  0
LINE
  5
306
330
1E
100
AcDbEntity
  8
0
100
AcDbLine
 10
283.6
 20
157.8500114999999
 30
0.0
 11
279.3
 21
163.5500115
 31
0.0
  0
LINE
  5
307
330
1E
100
AcDbEntity
  8
0
100
AcDbLine
 10
279.3
 20
163.5500115
 30
0.0
 11
273.6
 21
167.8500115
 31
0.0
  0
LINE
  5
308
330
1E
100
AcDbEntity
  8
0
100
AcDbLine
 10
267.6
 20
157.5500115
 30
0.0
 11
263.8999999999999
 21
158.9500114999999
 31
0.0
  0
LINE
  5
309
330
1E
100
AcDbEntity
  8
0
100
AcDbLine
 10
286.0
 20
174.5500115
 30
0.0
 11
284.5
 21
174.7500115
 31
0.0
  0
LINE
  5
30A
330
1E
100
AcDbEntity
  8
0
100
AcDbLine
 10
286.0
 20
174.2500115
 30
0.0
 11
284.5
 21
174.4500114999999
 31
0.0
  0
LINE
  5
30B
330
1E
100
AcDbEntity
  8
0
100
AcDbLine
 10
289.6999999999999
 20
171.7500114999999
 30
0.0
 11
288.7
 21
172.9500115
 31
0.0
  0
LINE
  5
30C
330
1E
100
AcDbEntity
  8
0
100
AcDbLine
 10
289.3999999999999
 20
171.5500115
 30
0.0
 11
288.5
 21
172.7500114999999
 31
0.0
  0
LINE
  5
30D
330
1E
100
AcDbEntity
  8
0
100
AcDbLine
 10
290.3
 20
170.2500115
 30
0.0
 11
289.6999999999999
 21
171.7500114999999
 31
0.0
  0
LINE
  5
30E
330
1E
100
AcDbEntity
  8
0
100
AcDbLine
 10
290.0
 20
170.2500115
 30
0.0
 11
289.3999999999999
 21
171.5500115
 31
0.0
  0
LINE
  5
30F
330
1E
100
AcDbEntity
  8
0
100
AcDbLine
 10
288.7
 20
172.9500115
 30
0.0
 11
287.5
 21
173.9500115
 31
0.0
  0
LINE
  5
310
330
1E
100
AcDbEntity
  8
0
100
AcDbLine
 10
288.5
 20
172.7500114999999
 30
0.0
 11
287.3
 21
173.6500115
 31
0.0
  0
LINE
  5
311
330
1E
100
AcDbEntity
  8
0
100
AcDbLine
 10
287.5
 20
173.9500115
 30
0.0
 11
286.0
 21
174.5500115
 31
0.0
  0
LINE
  5
312
330
1E
100
AcDbEntity
  8
0
100
AcDbLine
 10
287.3
 20
173.6500115
 30
0.0
 11
286.0
 21
174.2500115
 31
0.0
  0
LINE
  5
313
330
1E
100
AcDbEntity
  8
0
100
AcDbLine
 10
229.4999999999999
 20
119.7500114999999
 30
0.0
 11
229.4999999999999
 21
168.7500114999999
 31
0.0
  0
LINE
  5
314
330
1E
100
AcDbEntity
  8
0
100
AcDbLine
 10
229.8
 20
144.2500115
 30
0.0
 11
229.8
 21
119.7500114999999
 31
0.0
  0
LINE
  5
315
330
1E
100
AcDbEntity
  8
0
100
AcDbLine
 10
233.6999999999999
 20
137.2500115
 30
0.0
 11
232.6999999999999
 21
144.2500115
 31
0.0
  0
LINE
  5
316
330
1E
100
AcDbEntity
  8
0
100
AcDbLine
 10
245.3
 20
140.3500114999999
 30
0.0
 11
244.7
 21
144.2500115
 31
0.0
  0
LINE
  5
317
330
1E
100
AcDbEntity
  8
0
100
AcDbLine
 10
249.8
 20
141.5500115
 30
0.0
 11
249.5
 21
144.2500115
 31
0.0
  0
LINE
  5
318
330
1E
100
AcDbEntity
  8
0
100
AcDbLine
 10
229.8
 20
119.7500114999999
 30
0.0
 11
229.8
 21
144.2500115
 31
0.0
  0
LINE
  5
319
330
1E
100
AcDbEntity
  8
0
100
AcDbLine
 10
232.5
 20
114.5500114999999
 30
0.0
 11
231.3
 21
115.5500114999999
 31
0.0
  0
LINE
  5
31A
330
1E
100
AcDbEntity
  8
0
100
AcDbLine
 10
234.0
 20
114.2500115
 30
0.0
 11
232.6999999999999
 21
114.8500115
 31
0.0
  0
LINE
  5
31B
330
1E
100
AcDbEntity
  8
0
100
AcDbLine
 10
235.4999999999999
 20
113.7500114999999
 30
0.0
 11
234.0
 21
113.9500115
 31
0.0
  0
LINE
  5
31C
330
1E
100
AcDbEntity
  8
0
100
AcDbLine
 10
235.4999999999999
 20
114.0500115
 30
0.0
 11
234.0
 21
114.2500115
 31
0.0
  0
LINE
  5
31D
330
1E
100
AcDbEntity
  8
0
100
AcDbLine
 10
260.0
 20
114.0500115
 30
0.0
 11
235.4999999999999
 21
114.0500115
 31
0.0
  0
LINE
  5
31E
330
1E
100
AcDbEntity
  8
0
100
AcDbLine
 10
260.0
 20
113.7500114999999
 30
0.0
 11
235.4999999999999
 21
113.7500114999999
 31
0.0
  0
LINE
  5
31F
330
1E
100
AcDbEntity
  8
0
100
AcDbLine
 10
234.0
 20
113.9500115
 30
0.0
 11
232.5
 21
114.5500114999999
 31
0.0
  0
LINE
  5
320
330
1E
100
AcDbEntity
  8
0
100
AcDbLine
 10
236.4
 20
130.6500115
 30
0.0
 11
233.6999999999999
 21
137.2500115
 31
0.0
  0
LINE
  5
321
330
1E
100
AcDbEntity
  8
0
100
AcDbLine
 10
240.7
 20
124.9500115
 30
0.0
 11
236.4
 21
130.6500115
 31
0.0
  0
LINE
  5
322
330
1E
100
AcDbEntity
  8
0
100
AcDbLine
 10
253.0
 20
117.9500114999999
 30
0.0
 11
246.3999999999999
 21
120.6500115
 31
0.0
  0
LINE
  5
323
330
1E
100
AcDbEntity
  8
0
100
AcDbLine
 10
260.0
 20
116.9500114999999
 30
0.0
 11
253.0
 21
117.9500114999999
 31
0.0
  0
LINE
  5
324
330
1E
100
AcDbEntity
  8
0
100
AcDbLine
 10
246.3999999999999
 20
120.6500115
 30
0.0
 11
240.7
 21
124.9500115
 31
0.0
  0
LINE
  5
325
330
1E
100
AcDbEntity
  8
0
100
AcDbLine
 10
249.1999999999999
 20
133.4500114999999
 30
0.0
 11
246.7
 21
136.6500115
 31
0.0
  0
LINE
  5
326
330
1E
100
AcDbEntity
  8
0
100
AcDbLine
 10
254.8
 20
135.1500115
 30
0.0
 11
252.4999999999999
 21
136.7500115
 31
0.0
  0
LINE
  5
327
330
1E
100
AcDbEntity
  8
0
100
AcDbLine
 10
256.1
 20
129.5500115
 30
0.0
 11
252.4
 21
130.9500114999999
 31
0.0
  0
LINE
  5
328
330
1E
100
AcDbEntity
  8
0
100
AcDbLine
 10
260.0
 20
128.9500114999999
 30
0.0
 11
256.1
 21
129.5500115
 31
0.0
  0
LINE
  5
329
330
1E
100
AcDbEntity
  8
0
100
AcDbLine
 10
257.2999999999999
 20
134.0500115
 30
0.0
 11
254.8
 21
135.1500115
 31
0.0
  0
LINE
  5
32A
330
1E
100
AcDbEntity
  8
0
100
AcDbLine
 10
260.0
 20
133.7500115
 30
0.0
 11
257.2999999999999
 21
134.0500115
 31
0.0
  0
LINE
  5
32B
330
1E
100
AcDbEntity
  8
0
100
AcDbLine
 10
252.4
 20
130.9500114999999
 30
0.0
 11
249.1999999999999
 21
133.4500114999999
 31
0.0
  0
LINE
  5
32C
330
1E
100
AcDbEntity
  8
0
100
AcDbLine
 10
252.4999999999999
 20
136.7500115
 30
0.0
 11
250.8999999999999
 21
139.0500115
 31
0.0
  0
LINE
  5
32D
330
1E
100
AcDbEntity
  8
0
100
AcDbLine
 10
250.8999999999999
 20
139.0500115
 30
0.0
 11
249.8
 21
141.5500115
 31
0.0
  0
LINE
  5
32E
330
1E
100
AcDbEntity
  8
0
100
AcDbLine
 10
246.7
 20
136.6500115
 30
0.0
 11
245.3
 21
140.3500114999999
 31
0.0
  0
LINE
  5
32F
330
1E
100
AcDbEntity
  8
0
100
AcDbLine
 10
230.3
 20
116.7500114999999
 30
0.0
 11
229.7
 21
118.2500115
 31
0.0
  0
LINE
  5
330
330
1E
100
AcDbEntity
  8
0
100
AcDbLine
 10
230.6
 20
116.9500114999999
 30
0.0
 11
230.0
 21
118.2500115
 31
0.0
  0
LINE
  5
331
330
1E
100
AcDbEntity
  8
0
100
AcDbLine
 10
232.6999999999999
 20
114.8500115
 30
0.0
 11
231.4999999999999
 21
115.7500114999999
 31
0.0
  0
LINE
  5
332
330
1E
100
AcDbEntity
  8
0
100
AcDbLine
 10
231.3
 20
115.5500114999999
 30
0.0
 11
230.3
 21
116.7500114999999
 31
0.0
  0
LINE
  5
333
330
1E
100
AcDbEntity
  8
0
100
AcDbLine
 10
231.4999999999999
 20
115.7500114999999
 30
0.0
 11
230.6
 21
116.9500114999999
 31
0.0
  0
LINE
  5
334
330
1E
100
AcDbEntity
  8
0
100
AcDbLine
 10
229.7
 20
118.2500115
 30
0.0
 11
229.4999999999999
 21
119.7500114999999
 31
0.0
  0
LINE
  5
335
330
1E
100
AcDbEntity
  8
0
100
AcDbLine
 10
230.0
 20
118.2500115
 30
0.0
 11
229.8
 21
119.7500114999999
 31
0.0
  0
LINE
  5
336
330
1E
100
AcDbEntity
  8
0
100
AcDbLine
 10
229.7
 20
170.2500115
 30
0.0
 11
229.4999999999999
 21
168.7500114999999
 31
0.0
  0
LINE
  5
337
330
1E
100
AcDbEntity
  8
0
100
AcDbLine
 10
230.0
 20
170.2500115
 30
0.0
 11
229.8
 21
168.7500114999999
 31
0.0
  0
LINE
  5
338
330
1E
100
AcDbEntity
  8
0
100
AcDbLine
 10
253.0
 20
170.5500115
 30
0.0
 11
246.3999999999999
 21
167.8500115
 31
0.0
  0
LINE
  5
339
330
1E
100
AcDbEntity
  8
0
100
AcDbLine
 10
236.4
 20
157.8500114999999
 30
0.0
 11
233.6999999999999
 21
151.2500114999999
 31
0.0
  0
LINE
  5
33A
330
1E
100
AcDbEntity
  8
0
100
AcDbLine
 10
252.4
 20
157.5500115
 30
0.0
 11
249.1999999999999
 21
155.0500115
 31
0.0
  0
LINE
  5
33B
330
1E
100
AcDbEntity
  8
0
100
AcDbLine
 10
249.1999999999999
 20
155.0500115
 30
0.0
 11
246.7
 21
151.8500114999999
 31
0.0
  0
LINE
  5
33C
330
1E
100
AcDbEntity
  8
0
100
AcDbLine
 10
250.8999999999999
 20
149.4500114999999
 30
0.0
 11
249.8
 21
146.9500114999999
 31
0.0
  0
LINE
  5
33D
330
1E
100
AcDbEntity
  8
0
100
AcDbLine
 10
249.8
 20
146.9500114999999
 30
0.0
 11
249.5
 21
144.2500115
 31
0.0
  0
LINE
  5
33E
330
1E
100
AcDbEntity
  8
0
100
AcDbLine
 10
254.8
 20
153.3500115
 30
0.0
 11
252.4999999999999
 21
151.7500114999999
 31
0.0
  0
LINE
  5
33F
330
1E
100
AcDbEntity
  8
0
100
AcDbLine
 10
257.2999999999999
 20
154.4500114999999
 30
0.0
 11
254.8
 21
153.3500115
 31
0.0
  0
LINE
  5
340
330
1E
100
AcDbEntity
  8
0
100
AcDbLine
 10
260.0
 20
154.7500115
 30
0.0
 11
257.2999999999999
 21
154.4500114999999
 31
0.0
  0
LINE
  5
341
330
1E
100
AcDbEntity
  8
0
100
AcDbLine
 10
252.4999999999999
 20
151.7500114999999
 30
0.0
 11
250.8999999999999
 21
149.4500114999999
 31
0.0
  0
LINE
  5
342
330
1E
100
AcDbEntity
  8
0
100
AcDbLine
 10
246.7
 20
151.8500114999999
 30
0.0
 11
245.3
 21
148.1500115
 31
0.0
  0
LINE
  5
343
330
1E
100
AcDbEntity
  8
0
100
AcDbLine
 10
245.3
 20
148.1500115
 30
0.0
 11
244.7
 21
144.2500115
 31
0.0
  0
LINE
  5
344
330
1E
100
AcDbEntity
  8
0
100
AcDbLine
 10
256.1
 20
158.9500114999999
 30
0.0
 11
252.4
 21
157.5500115
 31
0.0
  0
LINE
  5
345
330
1E
100
AcDbEntity
  8
0
100
AcDbLine
 10
260.0
 20
159.5500115
 30
0.0
 11
256.1
 21
158.9500114999999
 31
0.0
  0
LINE
  5
346
330
1E
100
AcDbEntity
  8
0
100
AcDbLine
 10
240.7
 20
163.5500115
 30
0.0
 11
236.4
 21
157.8500114999999
 31
0.0
  0
LINE
  5
347
330
1E
100
AcDbEntity
  8
0
100
AcDbLine
 10
246.3999999999999
 20
167.8500115
 30
0.0
 11
240.7
 21
163.5500115
 31
0.0
  0
LINE
  5
348
330
1E
100
AcDbEntity
  8
0
100
AcDbLine
 10
229.8
 20
168.7500114999999
 30
0.0
 11
229.8
 21
144.2500115
 31
0.0
  0
LINE
  5
349
330
1E
100
AcDbEntity
  8
0
100
AcDbLine
 10
229.8
 20
144.2500115
 30
0.0
 11
229.8
 21
168.7500114999999
 31
0.0
  0
LINE
  5
34A
330
1E
100
AcDbEntity
  8
0
100
AcDbLine
 10
233.6999999999999
 20
151.2500114999999
 30
0.0
 11
232.6999999999999
 21
144.2500115
 31
0.0
  0
LINE
  5
34B
330
1E
100
AcDbEntity
  8
0
100
AcDbLine
 10
235.4999999999999
 20
174.7500115
 30
0.0
 11
234.0
 21
174.5500115
 31
0.0
  0
LINE
  5
34C
330
1E
100
AcDbEntity
  8
0
100
AcDbLine
 10
235.4999999999999
 20
174.4500114999999
 30
0.0
 11
234.0
 21
174.2500115
 31
0.0
  0
LINE
  5
34D
330
1E
100
AcDbEntity
  8
0
100
AcDbLine
 10
260.0
 20
174.7500115
 30
0.0
 11
235.4999999999999
 21
174.7500115
 31
0.0
  0
LINE
  5
34E
330
1E
100
AcDbEntity
  8
0
100
AcDbLine
 10
260.0
 20
174.4500114999999
 30
0.0
 11
235.4999999999999
 21
174.4500114999999
 31
0.0
  0
LINE
  5
34F
330
1E
100
AcDbEntity
  8
0
100
AcDbLine
 10
260.0
 20
171.5500115
 30
0.0
 11
253.0
 21
170.5500115
 31
0.0
  0
LINE
  5
350
330
1E
100
AcDbEntity
  8
0
100
AcDbLine
 10
231.3
 20
172.9500115
 30
0.0
 11
230.3
 21
171.7500114999999
 31
0.0
  0
LINE
  5
351
330
1E
100
AcDbEntity
  8
0
100
AcDbLine
 10
231.4999999999999
 20
172.7500114999999
 30
0.0
 11
230.6
 21
171.5500115
 31
0.0
  0
LINE
  5
352
330
1E
100
AcDbEntity
  8
0
100
AcDbLine
 10
230.3
 20
171.7500114999999
 30
0.0
 11
229.7
 21
170.2500115
 31
0.0
  0
LINE
  5
353
330
1E
100
AcDbEntity
  8
0
100
AcDbLine
 10
230.6
 20
171.5500115
 30
0.0
 11
230.0
 21
170.2500115
 31
0.0
  0
LINE
  5
354
330
1E
100
AcDbEntity
  8
0
100
AcDbLine
 10
232.5
 20
173.9500115
 30
0.0
 11
231.3
 21
172.9500115
 31
0.0
  0
LINE
  5
355
330
1E
100
AcDbEntity
  8
0
100
AcDbLine
 10
232.6999999999999
 20
173.6500115
 30
0.0
 11
231.4999999999999
 21
172.7500114999999
 31
0.0
  0
LINE
  5
356
330
1E
100
AcDbEntity
  8
0
100
AcDbLine
 10
234.0
 20
174.5500115
 30
0.0
 11
232.5
 21
173.9500115
 31
0.0
  0
LINE
  5
357
330
1E
100
AcDbEntity
  8
0
100
AcDbLine
 10
234.0
 20
174.2500115
 30
0.0
 11
232.6999999999999
 21
173.6500115
 31
0.0
  0
LINE
  5
358
330
1E
100
AcDbEntity
  8
0
100
AcDbLine
 10
188.7
 20
115.5500114999999
 30
0.0
 11
189.7
 21
116.7500114999999
 31
0.0
  0
LINE
  5
359
330
1E
100
AcDbEntity
  8
0
100
AcDbLine
 10
190.3
 20
118.2500115
 30
0.0
 11
190.5
 21
119.7500114999999
 31
0.0
  0
LINE
  5
35A
330
1E
100
AcDbEntity
  8
0
100
AcDbLine
 10
190.3
 20
170.2500115
 30
0.0
 11
190.5
 21
168.7500114999999
 31
0.0
  0
LINE
  5
35B
330
1E
100
AcDbEntity
  8
0
100
AcDbLine
 10
129.4999999999999
 20
168.7500114999999
 30
0.0
 11
129.6999999999999
 21
170.2500115
 31
0.0
  0
LINE
  5
35C
330
1E
100
AcDbEntity
  8
0
100
AcDbLine
 10
130.3
 20
116.7500114999999
 30
0.0
 11
131.3
 21
115.5500114999999
 31
0.0
  0
LINE
  5
35D
330
1E
100
AcDbEntity
  8
0
100
AcDbLine
 10
129.4999999999999
 20
119.7500114999999
 30
0.0
 11
129.6999999999999
 21
118.2500115
 31
0.0
  0
LINE
  5
35E
330
1E
100
AcDbEntity
  8
0
100
AcDbLine
 10
134.0
 20
113.9500115
 30
0.0
 11
135.4999999999999
 21
113.7500114999999
 31
0.0
  0
ENDSEC
  0
SECTION
  2
OBJECTS
  0
DICTIONARY
  5
C
330
0
100
AcDbDictionary
281
     1
  3
ACAD_GROUP
350
D
  3
ACAD_LAYOUT
350
19
  3
ACAD_MLINESTYLE
350
16
  3
ACAD_PLOTSETTINGS
350
18
  3
ACAD_PLOTSTYLENAME
350
E
  3
AcDbVariableDictionary
350
35F
  0
DICTIONARY
  5
D
102
{ACAD_REACTORS
330
C
102
}
330
C
100
AcDbDictionary
281
     1
  0
DICTIONARY
  5
19
102
{ACAD_REACTORS
330
C
102
}
330
C
100
AcDbDictionary
281
     1
  3
Layout1
350
1D
  3
Model
350
21
  0
DICTIONARY
  5
16
102
{ACAD_REACTORS
330
C
102
}
330
C
100
AcDbDictionary
281
     1
  3
Standard
350
17
  0
DICTIONARY
  5
18
102
{ACAD_REACTORS
330
C
102
}
330
C
100
AcDbDictionary
281
     1
  0
ACDBDICTIONARYWDFLT
  5
E
102
{ACAD_REACTORS
330
C
102
}
330
C
100
AcDbDictionary
281
     1
  3
Normal
350
F
100
AcDbDictionaryWithDefault
340
F
  0
DICTIONARY
  5
35F
102
{ACAD_REACTORS
330
C
102
}
330
C
100
AcDbDictionary
281
     1
  3
DIMASSOC
350
360
  0
LAYOUT
  5
1D
102
{ACAD_REACTORS
330
19
102
}
330
19
100
AcDbPlotSettings
  1

  2
hp deskjet 980c series
  4

  6

 40
0.0
 41
0.0
 42
0.0
 43
0.0
 44
0.0
 45
0.0
 46
0.0
 47
0.0
 48
0.0
 49
0.0
140
0.0
141
0.0
142
1.0
143
1.0
 70
   688
 72
     0
 73
     0
 74
     5
  7

 75
    16
147
1.0
148
0.0
149
0.0
100
AcDbLayout
  1
Layout1
 70
     1
 71
     1
 10
0.0
 20
0.0
 11
12.0
 21
9.0
 12
0.0
 22
0.0
 32
0.0
 14
1.000000000000000E+20
 24
1.000000000000000E+20
 34
1.000000000000000E+20
 15
-1.000000000000000E+20
 25
-1.000000000000000E+20
 35
-1.000000000000000E+20
146
0.0
 13
0.0
 23
0.0
 33
0.0
 16
1.0
 26
0.0
 36
0.0
 17
0.0
 27
1.0
 37
0.0
 76
     0
330
1A
  0
LAYOUT
  5
21
102
{ACAD_REACTORS
330
19
102
}
330
19
100
AcDbPlotSettings
  1

  2
hp deskjet 980c series
  4

  6

 40
0.0
 41
0.0
 42
0.0
 43
0.0
 44
0.0
 45
0.0
 46
0.0
 47
0.0
 48
0.0
 49
0.0
140
0.0
141
0.0
142
1.0
143
1.0
 70
  1712
 72
     0
 73
     0
 74
     0
  7

 75
     0
147
1.0
148
0.0
149
0.0
100
AcDbLayout
  1
Model
 70
     1
 71
     0
 10
0.0
 20
0.0
 11
12.0
 21
9.0
 12
0.0
 22
0.0
 32
0.0
 14
0.0
 24
0.0
 34
0.0
 15
0.0
 25
0.0
 35
0.0
146
0.0
 13
0.0
 23
0.0
 33
0.0
 16
1.0
 26
0.0
 36
0.0
 17
0.0
 27
1.0
 37
0.0
 76
     0
330
1E
  0
MLINESTYLE
  5
17
102
{ACAD_REACTORS
330
16
102
}
330
16
100
AcDbMlineStyle
  2
STANDARD
 70
     0
  3

 62
   256
 51
90.0
 52
90.0
 71
     2
 49
0.5
 62
   256
  6
BYLAYER
 49
-0.5
 62
   256
  6
BYLAYER
  0
ACDBPLACEHOLDER
  5
F
102
{ACAD_REACTORS
330
E
102
}
330
E
  0
DICTIONARYVAR
  5
360
102
{ACAD_REACTORS
330
35F
102
}
330
35F
100
DictionaryVariables
280
     0
  1
1
  0
ENDSEC
  0
EOF
