  0
SECTION
  2
HEADER
  9
$ACADVER
  1
AC1015
  9
$ACADMAINTVER
 70
    13
  9
$DWGCODEPAGE
  3
ANSI_1252
  9
$INSBASE
 10
0.0
 20
0.0
 30
0.0
  9
$EXTMIN
 10
-0.143699999999999
 20
0.113009500000019
 30
0.0
  9
$EXTMAX
 10
51.1437
 20
207.8869904999999
 30
0.0
  9
$LIMMIN
 10
0.0
 20
0.0
  9
$LIMMAX
 10
12.0
 20
9.0
  9
$ORTHOMODE
 70
     0
  9
$REGENMODE
 70
     1
  9
$FILLMODE
 70
     1
  9
$QTEXTMODE
 70
     0
  9
$MIRRTEXT
 70
     1
  9
$LTSCALE
 40
1.0
  9
$ATTMODE
 70
     1
  9
$TEXTSIZE
 40
0.2
  9
$TRACEWID
 40
0.05
  9
$TEXTSTYLE
  7
Standard
  9
$CLAYER
  8
0
  9
$CELTYPE
  6
Continuous
  9
$CECOLOR
 62
   256
  9
$CELTSCALE
 40
1.0
  9
$DISPSILH
 70
     0
  9
$DIMSCALE
 40
1.0
  9
$DIMASZ
 40
0.18
  9
$DIMEXO
 40
0.0625
  9
$DIMDLI
 40
0.38
  9
$DIMRND
 40
0.0
  9
$DIMDLE
 40
0.0
  9
$DIMEXE
 40
0.18
  9
$DIMTP
 40
0.0
  9
$DIMTM
 40
0.0
  9
$DIMTXT
 40
0.18
  9
$DIMCEN
 40
0.09
  9
$DIMTSZ
 40
0.0
  9
$DIMTOL
 70
     0
  9
$DIMLIM
 70
     0
  9
$DIMTIH
 70
     1
  9
$DIMTOH
 70
     1
  9
$DIMSE1
 70
     0
  9
$DIMSE2
 70
     0
  9
$DIMTAD
 70
     0
  9
$DIMZIN
 70
     0
  9
$DIMBLK
  1

  9
$DIMASO
 70
     1
  9
$DIMSHO
 70
     1
  9
$DIMPOST
  1

  9
$DIMAPOST
  1

  9
$DIMALT
 70
     0
  9
$DIMALTD
 70
     2
  9
$DIMALTF
 40
25.4
  9
$DIMLFAC
 40
1.0
  9
$DIMTOFL
 70
     0
  9
$DIMTVP
 40
0.0
  9
$DIMTIX
 70
     0
  9
$DIMSOXD
 70
     0
  9
$DIMSAH
 70
     0
  9
$DIMBLK1
  1

  9
$DIMBLK2
  1

  9
$DIMSTYLE
  2
Standard
  9
$DIMCLRD
 70
     0
  9
$DIMCLRE
 70
     0
  9
$DIMCLRT
 70
     0
  9
$DIMTFAC
 40
1.0
  9
$DIMGAP
 40
0.09
  9
$DIMJUST
 70
     0
  9
$DIMSD1
 70
     0
  9
$DIMSD2
 70
     0
  9
$DIMTOLJ
 70
     1
  9
$DIMTZIN
 70
     0
  9
$DIMALTZ
 70
     0
  9
$DIMALTTZ
 70
     0
  9
$DIMUPT
 70
     0
  9
$DIMDEC
 70
     4
  9
$DIMTDEC
 70
     4
  9
$DIMALTU
 70
     2
  9
$DIMALTTD
 70
     2
  9
$DIMTXSTY
  7
Standard
  9
$DIMAUNIT
 70
     0
  9
$DIMADEC
 70
     0
  9
$DIMALTRND
 40
0.0
  9
$DIMAZIN
 70
     0
  9
$DIMDSEP
 70
    46
  9
$DIMATFIT
 70
     3
  9
$DIMFRAC
 70
     0
  9
$DIMLDRBLK
  1

  9
$DIMLUNIT
 70
     2
  9
$DIMLWD
 70
    -2
  9
$DIMLWE
 70
    -2
  9
$DIMTMOVE
 70
     0
  9
$LUNITS
 70
     2
  9
$LUPREC
 70
     4
  9
$SKETCHINC
 40
0.1
  9
$FILLETRAD
 40
0.0
  9
$AUNITS
 70
     0
  9
$AUPREC
 70
     0
  9
$MENU
  1
.
  9
$ELEVATION
 40
0.0
  9
$PELEVATION
 40
0.0
  9
$THICKNESS
 40
0.0
  9
$LIMCHECK
 70
     0
  9
$CHAMFERA
 40
0.0
  9
$CHAMFERB
 40
0.0
  9
$CHAMFERC
 40
0.0
  9
$CHAMFERD
 40
0.0
  9
$SKPOLY
 70
     0
  9
$TDCREATE
 40
2454637.697431064
  9
$TDUCREATE
 40
2454637.614097731
  9
$TDUPDATE
 40
2454637.699121423
  9
$TDUUPDATE
 40
2454637.615788090
  9
$TDINDWG
 40
0.0016907292
  9
$TDUSRTIMER
 40
0.0016907292
  9
$USRTIMER
 70
     1
  9
$ANGBASE
 50
0.0
  9
$ANGDIR
 70
     0
  9
$PDMODE
 70
     0
  9
$PDSIZE
 40
0.0
  9
$PLINEWID
 40
0.0
  9
$SPLFRAME
 70
     0
  9
$SPLINETYPE
 70
     6
  9
$SPLINESEGS
 70
     8
  9
$HANDSEED
  5
114
  9
$SURFTAB1
 70
     6
  9
$SURFTAB2
 70
     6
  9
$SURFTYPE
 70
     6
  9
$SURFU
 70
     6
  9
$SURFV
 70
     6
  9
$UCSBASE
  2

  9
$UCSNAME
  2

  9
$UCSORG
 10
0.0
 20
0.0
 30
0.0
  9
$UCSXDIR
 10
1.0
 20
0.0
 30
0.0
  9
$UCSYDIR
 10
0.0
 20
1.0
 30
0.0
  9
$UCSORTHOREF
  2

  9
$UCSORTHOVIEW
 70
     1
  9
$UCSORGTOP
 10
0.0
 20
0.0
 30
0.0
  9
$UCSORGBOTTOM
 10
0.0
 20
0.0
 30
0.0
  9
$UCSORGLEFT
 10
0.0
 20
0.0
 30
0.0
  9
$UCSORGRIGHT
 10
0.0
 20
0.0
 30
0.0
  9
$UCSORGFRONT
 10
0.0
 20
0.0
 30
0.0
  9
$UCSORGBACK
 10
0.0
 20
0.0
 30
0.0
  9
$PUCSBASE
  2

  9
$PUCSNAME
  2

  9
$PUCSORG
 10
0.0
 20
0.0
 30
0.0
  9
$PUCSXDIR
 10
1.0
 20
0.0
 30
0.0
  9
$PUCSYDIR
 10
0.0
 20
1.0
 30
0.0
  9
$PUCSORTHOREF
  2

  9
$PUCSORTHOVIEW
 70
     0
  9
$PUCSORGTOP
 10
0.0
 20
0.0
 30
0.0
  9
$PUCSORGBOTTOM
 10
0.0
 20
0.0
 30
0.0
  9
$PUCSORGLEFT
 10
0.0
 20
0.0
 30
0.0
  9
$PUCSORGRIGHT
 10
0.0
 20
0.0
 30
0.0
  9
$PUCSORGFRONT
 10
0.0
 20
0.0
 30
0.0
  9
$PUCSORGBACK
 10
0.0
 20
0.0
 30
0.0
  9
$USERI1
 70
     0
  9
$USERI2
 70
     0
  9
$USERI3
 70
     0
  9
$USERI4
 70
     0
  9
$USERI5
 70
     0
  9
$USERR1
 40
0.0
  9
$USERR2
 40
0.0
  9
$USERR3
 40
0.0
  9
$USERR4
 40
0.0
  9
$USERR5
 40
0.0
  9
$WORLDVIEW
 70
     1
  9
$SHADEDGE
 70
     3
  9
$SHADEDIF
 70
    70
  9
$TILEMODE
 70
     1
  9
$MAXACTVP
 70
    64
  9
$PINSBASE
 10
0.0
 20
0.0
 30
0.0
  9
$PLIMCHECK
 70
     0
  9
$PEXTMIN
 10
1.000000000000000E+20
 20
1.000000000000000E+20
 30
1.000000000000000E+20
  9
$PEXTMAX
 10
-1.000000000000000E+20
 20
-1.000000000000000E+20
 30
-1.000000000000000E+20
  9
$PLIMMIN
 10
0.0
 20
0.0
  9
$PLIMMAX
 10
12.0
 20
9.0
  9
$UNITMODE
 70
     0
  9
$VISRETAIN
 70
     1
  9
$PLINEGEN
 70
     0
  9
$PSLTSCALE
 70
     1
  9
$TREEDEPTH
 70
  3020
  9
$CMLSTYLE
  2
Standard
  9
$CMLJUST
 70
     0
  9
$CMLSCALE
 40
1.0
  9
$PROXYGRAPHICS
 70
     1
  9
$MEASUREMENT
 70
     0
  9
$CELWEIGHT
370
    -1
  9
$ENDCAPS
280
     0
  9
$JOINSTYLE
280
     0
  9
$LWDISPLAY
290
     0
  9
$INSUNITS
 70
     0
  9
$HYPERLINKBASE
  1

  9
$STYLESHEET
  1

  9
$XEDIT
290
     1
  9
$CEPSNTYPE
380
     0
  9
$PSTYLEMODE
290
     1
  9
$FINGERPRINTGUID
  2
{93478C57-C459-4400-8C26-26C3D5AA8845}
  9
$VERSIONGUID
  2
{1E035FDC-1569-4624-A906-AF05877A2B9A}
  9
$EXTNAMES
290
     1
  9
$PSVPSCALE
 40
0.0
  9
$OLESTARTUP
290
     0
  0
ENDSEC
  0
SECTION
  2
CLASSES
  0
CLASS
  1
ACDBDICTIONARYWDFLT
  2
AcDbDictionaryWithDefault
  3
AutoCAD 2000
 90
        0
280
     0
281
     0
  0
CLASS
  1
ACDBPLACEHOLDER
  2
AcDbPlaceHolder
  3
AutoCAD 2000
 90
        0
280
     0
281
     0
  0
CLASS
  1
LAYOUT
  2
AcDbLayout
  3
AutoCAD 2000
 90
        0
280
     0
281
     0
  0
CLASS
  1
DICTIONARYVAR
  2
AcDbDictionaryVar
  3
AutoCAD 2000
 90
        0
280
     0
281
     0
  0
ENDSEC
  0
SECTION
  2
TABLES
  0
TABLE
  2
VPORT
  5
8
330
0
100
AcDbSymbolTable
 70
     2
  0
VPORT
  5
113
330
8
100
AcDbSymbolTableRecord
100
AcDbViewportTableRecord
  2
*Active
 70
     0
 10
0.0
 20
0.0
 11
1.0
 21
1.0
 12
25.5
 22
104.0
 13
0.0
 23
0.0
 14
1.0
 24
1.0
 15
0.0
 25
0.0
 16
0.0
 26
0.0
 36
1.0
 17
0.0
 27
0.0
 37
0.0
 40
209.3681547672633
 41
2.043533930857874
 42
50.0
 43
0.0
 44
0.0
 50
0.0
 51
0.0
 71
     0
 72
   100
 73
     1
 74
     3
 75
     0
 76
     0
 77
     0
 78
     0
281
     0
 65
     1
110
0.0
120
0.0
130
0.0
111
1.0
121
0.0
131
0.0
112
0.0
122
1.0
132
0.0
 79
     1
146
0.0
  0
ENDTAB
  0
TABLE
  2
LTYPE
  5
5
330
0
100
AcDbSymbolTable
 70
     1
  0
LTYPE
  5
13
330
5
100
AcDbSymbolTableRecord
100
AcDbLinetypeTableRecord
  2
ByBlock
 70
     0
  3

 72
    65
 73
     0
 40
0.0
  0
LTYPE
  5
14
330
5
100
AcDbSymbolTableRecord
100
AcDbLinetypeTableRecord
  2
ByLayer
 70
     0
  3

 72
    65
 73
     0
 40
0.0
  0
LTYPE
  5
15
330
5
100
AcDbSymbolTableRecord
100
AcDbLinetypeTableRecord
  2
Continuous
 70
     0
  3
Solid line
 72
    65
 73
     0
 40
0.0
  0
ENDTAB
  0
TABLE
  2
LAYER
  5
2
330
0
100
AcDbSymbolTable
 70
     1
  0
LAYER
  5
10
330
2
100
AcDbSymbolTableRecord
100
AcDbLayerTableRecord
  2
0
 70
     0
 62
     7
  6
Continuous
370
    -3
390
F
  0
ENDTAB
  0
TABLE
  2
STYLE
  5
3
330
0
100
AcDbSymbolTable
 70
     1
  0
STYLE
  5
11
330
3
100
AcDbSymbolTableRecord
100
AcDbTextStyleTableRecord
  2
Standard
 70
     0
 40
0.0
 41
1.0
 50
0.0
 71
     0
 42
0.2
  3
txt
  4

  0
ENDTAB
  0
TABLE
  2
VIEW
  5
6
330
0
100
AcDbSymbolTable
 70
     0
  0
ENDTAB
  0
TABLE
  2
UCS
  5
7
330
0
100
AcDbSymbolTable
 70
     0
  0
ENDTAB
  0
TABLE
  2
APPID
  5
9
330
0
100
AcDbSymbolTable
 70
     1
  0
APPID
  5
12
330
9
100
AcDbSymbolTableRecord
100
AcDbRegAppTableRecord
  2
ACAD
 70
     0
  0
ENDTAB
  0
TABLE
  2
DIMSTYLE
  5
A
330
0
100
AcDbSymbolTable
 70
     1
100
AcDbDimStyleTable
 71
     0
  0
DIMSTYLE
105
108
330
A
100
AcDbSymbolTableRecord
100
AcDbDimStyleTableRecord
  2
Standard
 70
     0
340
11
  0
ENDTAB
  0
TABLE
  2
BLOCK_RECORD
  5
1
330
0
100
AcDbSymbolTable
 70
     0
  0
BLOCK_RECORD
  5
1E
330
1
100
AcDbSymbolTableRecord
100
AcDbBlockTableRecord
  2
*Model_Space
340
21
  0
BLOCK_RECORD
  5
1A
330
1
100
AcDbSymbolTableRecord
100
AcDbBlockTableRecord
  2
*Paper_Space
340
1D
  0
ENDTAB
  0
ENDSEC
  0
SECTION
  2
BLOCKS
  0
BLOCK
  5
1F
330
1E
100
AcDbEntity
  8
0
100
AcDbBlockBegin
  2
*Model_Space
 70
     0
 10
0.0
 20
0.0
 30
0.0
  3
*Model_Space
  1

  0
ENDBLK
  5
20
330
1E
100
AcDbEntity
  8
0
100
AcDbBlockEnd
  0
BLOCK
  5
1B
330
1A
100
AcDbEntity
 67
     1
  8
0
100
AcDbBlockBegin
  2
*Paper_Space
 70
     0
 10
0.0
 20
0.0
 30
0.0
  3
*Paper_Space
  1

  0
ENDBLK
  5
1C
330
1A
100
AcDbEntity
 67
     1
  8
0
100
AcDbBlockEnd
  0
ENDSEC
  0
SECTION
  2
ENTITIES
  0
LINE
  5
22
330
1E
100
AcDbEntity
  8
0
100
AcDbLine
 10
24.8563
 20
0.113009500000019
 30
0.0
 11
27.942
 21
0.5526715000000192
 31
0.0
  0
LINE
  5
23
330
1E
100
AcDbEntity
  8
0
100
AcDbLine
 10
21.7706
 20
0.5526715000000192
 30
0.0
 11
24.8563
 21
0.113009500000019
 31
0.0
  0
LINE
  5
24
330
1E
100
AcDbEntity
  8
0
100
AcDbLine
 10
21.7706
 20
0.5526715000000192
 30
0.0
 11
24.8563
 21
0.113009500000019
 31
0.0
  0
LINE
  5
25
330
1E
100
AcDbEntity
  8
0
100
AcDbLine
 10
14.4563
 20
5.938530500000019
 30
0.0
 11
16.3992
 21
3.52039050000002
 31
0.0
  0
LINE
  5
26
330
1E
100
AcDbEntity
  8
0
100
AcDbLine
 10
16.3992
 20
3.52039050000002
 30
0.0
 11
18.91339999999999
 21
1.651830500000019
 31
0.0
  0
LINE
  5
27
330
1E
100
AcDbEntity
  8
0
100
AcDbLine
 10
18.91339999999999
 20
1.651830500000019
 30
0.0
 11
21.7706
 21
0.5526715000000192
 31
0.0
  0
LINE
  5
28
330
1E
100
AcDbEntity
  8
0
100
AcDbLine
 10
18.91339999999999
 20
1.651830500000019
 30
0.0
 11
21.7706
 21
0.5526715000000192
 31
0.0
  0
LINE
  5
2A
330
1E
100
AcDbEntity
  8
0
100
AcDbLine
 10
12.6563
 20
16.87349049999999
 30
0.0
 11
12.8563
 21
13.2734905
 31
0.0
  0
LINE
  5
2B
330
1E
100
AcDbEntity
  8
0
100
AcDbLine
 10
12.8563
 20
13.2734905
 30
0.0
 11
12.8563
 21
11.6541905
 31
0.0
  0
LINE
  5
2C
330
1E
100
AcDbEntity
  8
0
100
AcDbLine
 10
21.8563
 20
6.573490500000018
 30
0.0
 11
24.8563
 21
6.173490500000019
 31
0.0
  0
LINE
  5
2D
330
1E
100
AcDbEntity
  8
0
100
AcDbLine
 10
19.0563
 20
7.673490500000019
 30
0.0
 11
21.8563
 21
6.573490500000018
 31
0.0
  0
LINE
  5
2E
330
1E
100
AcDbEntity
  8
0
100
AcDbLine
 10
16.6563
 20
9.47349050000003
 30
0.0
 11
19.0563
 21
7.673490500000019
 31
0.0
  0
LINE
  5
2F
330
1E
100
AcDbEntity
  8
0
100
AcDbLine
 10
14.8563
 20
11.87349049999999
 30
0.0
 11
16.6563
 21
9.47349050000003
 31
0.0
  0
LINE
  5
30
330
1E
100
AcDbEntity
  8
0
100
AcDbLine
 10
13.31339999999999
 20
8.686410500000018
 30
0.0
 11
14.4563
 21
5.938530500000019
 31
0.0
  0
LINE
  5
31
330
1E
100
AcDbEntity
  8
0
100
AcDbLine
 10
13.7563
 20
14.6734905
 30
0.0
 11
14.8563
 21
11.87349049999999
 31
0.0
  0
LINE
  5
32
330
1E
100
AcDbEntity
  8
0
100
AcDbLine
 10
13.3563
 20
17.67349049999999
 30
0.0
 11
13.7563
 21
14.6734905
 31
0.0
  0
LINE
  5
34
330
1E
100
AcDbEntity
  8
0
100
AcDbLine
 10
12.8563
 20
11.6541905
 30
0.0
 11
12.8563
 21
13.2734905
 31
0.0
  0
LINE
  5
35
330
1E
100
AcDbEntity
  8
0
100
AcDbLine
 10
12.8563
 20
11.6541905
 30
0.0
 11
13.31339999999999
 21
8.686410500000018
 31
0.0
  0
LINE
  5
36
330
1E
100
AcDbEntity
  8
0
100
AcDbLine
 10
24.8563
 20
6.173490500000019
 30
0.0
 11
27.8563
 21
6.573490500000018
 31
0.0
  0
LINE
  5
37
330
1E
100
AcDbEntity
  8
0
100
AcDbLine
 10
27.8563
 20
6.573490500000018
 30
0.0
 11
30.6563
 21
7.673490500000019
 31
0.0
  0
LINE
  5
38
330
1E
100
AcDbEntity
  8
0
100
AcDbLine
 10
27.942
 20
0.5526715000000192
 30
0.0
 11
30.79919999999999
 21
1.651830500000019
 31
0.0
  0
LINE
  5
39
330
1E
100
AcDbEntity
  8
0
100
AcDbLine
 10
30.6563
 20
7.673490500000019
 30
0.0
 11
33.0563
 21
9.47349050000003
 31
0.0
  0
LINE
  5
3A
330
1E
100
AcDbEntity
  8
0
100
AcDbLine
 10
33.0563
 20
9.47349050000003
 30
0.0
 11
34.8563
 21
11.87349049999999
 31
0.0
  0
LINE
  5
3B
330
1E
100
AcDbEntity
  8
0
100
AcDbLine
 10
35.2563
 20
5.938530500000019
 30
0.0
 11
36.3992
 21
8.686410500000018
 31
0.0
  0
LINE
  5
3C
330
1E
100
AcDbEntity
  8
0
100
AcDbLine
 10
34.8563
 20
11.87349049999999
 30
0.0
 11
35.95629999999999
 21
14.6734905
 31
0.0
  0
LINE
  5
3D
330
1E
100
AcDbEntity
  8
0
100
AcDbLine
 10
35.95629999999999
 20
14.6734905
 30
0.0
 11
36.35629999999999
 21
17.67349049999999
 31
0.0
  0
LINE
  5
3F
330
1E
100
AcDbEntity
  8
0
100
AcDbLine
 10
33.3134
 20
3.52039050000002
 30
0.0
 11
35.2563
 21
5.938530500000019
 31
0.0
  0
LINE
  5
40
330
1E
100
AcDbEntity
  8
0
100
AcDbLine
 10
30.79919999999999
 20
1.651830500000019
 30
0.0
 11
33.3134
 21
3.52039050000002
 31
0.0
  0
LINE
  5
41
330
1E
100
AcDbEntity
  8
0
100
AcDbLine
 10
27.942
 20
0.5526715000000192
 30
0.0
 11
30.79919999999999
 21
1.651830500000019
 31
0.0
  0
LINE
  5
42
330
1E
100
AcDbEntity
  8
0
100
AcDbLine
 10
24.8563
 20
0.113009500000019
 30
0.0
 11
27.942
 21
0.5526715000000192
 31
0.0
  0
LINE
  5
44
330
1E
100
AcDbEntity
  8
0
100
AcDbLine
 10
36.85629999999999
 20
11.6541905
 30
0.0
 11
36.85629999999999
 21
13.2734905
 31
0.0
  0
LINE
  5
45
330
1E
100
AcDbEntity
  8
0
100
AcDbLine
 10
36.3992
 20
8.686410500000018
 30
0.0
 11
36.85629999999999
 21
11.6541905
 31
0.0
  0
LINE
  5
46
330
1E
100
AcDbEntity
  8
0
100
AcDbLine
 10
36.85629999999999
 20
13.2734905
 30
0.0
 11
36.85629999999999
 21
11.6541905
 31
0.0
  0
LINE
  5
47
330
1E
100
AcDbEntity
  8
0
100
AcDbLine
 10
36.85629999999999
 20
13.2734905
 30
0.0
 11
37.0563
 21
16.87349049999999
 31
0.0
  0
LINE
  5
49
330
1E
100
AcDbEntity
  8
0
100
AcDbLine
 10
36.35629999999999
 20
17.67349049999999
 30
0.0
 11
39.4836230727396
 21
129.70570047683
 31
0.0
  0
LINE
  5
4A
330
1E
100
AcDbEntity
  8
0
100
AcDbLine
 10
12.4563
 20
21.1734905
 30
0.0
 11
12.6563
 21
16.87349049999999
 31
0.0
  0
LINE
  5
4B
330
1E
100
AcDbEntity
  8
0
100
AcDbLine
 10
12.25629999999999
 20
25.4734905
 30
0.0
 11
12.4563
 21
21.1734905
 31
0.0
  0
LINE
  5
4C
330
1E
100
AcDbEntity
  8
0
100
AcDbLine
 10
12.15629999999999
 20
29.9734905
 30
0.0
 11
12.25629999999999
 21
25.4734905
 31
0.0
  0
LINE
  5
4D
330
1E
100
AcDbEntity
  8
0
100
AcDbLine
 10
8.80868095238096
 20
156.4739905
 30
0.0
 11
12.15629999999999
 21
29.9734905
 31
0.0
  0
LINE
  5
4E
330
1E
100
AcDbEntity
  8
0
100
AcDbLine
 10
21.2563
 20
102.1239905
 30
0.0
 11
21.3896
 21
102.0879905
 31
0.0
  0
LINE
  5
4F
330
1E
100
AcDbEntity
  8
0
100
AcDbLine
 10
21.3896
 20
102.0879905
 30
0.0
 11
21.7896
 21
102.0619904999999
 31
0.0
  0
LINE
  5
50
330
1E
100
AcDbEntity
  8
0
100
AcDbLine
 10
21.3896
 20
102.0879905
 30
0.0
 11
24.8563
 21
101.7569904999999
 31
0.0
  0
LINE
  5
51
330
1E
100
AcDbEntity
  8
0
100
AcDbLine
 10
4.774329999999999
 20
156.4739905
 30
0.0
 11
8.80868095238096
 21
156.4739905
 31
0.0
  0
LINE
  5
52
330
1E
100
AcDbEntity
  8
0
100
AcDbLine
 10
2.479249999999999
 20
157.3749904999999
 30
0.0
 11
3.544819999999999
 21
156.8829905
 31
0.0
  0
LINE
  5
53
330
1E
100
AcDbEntity
  8
0
100
AcDbLine
 10
3.544819999999999
 20
156.8829905
 30
0.0
 11
4.774329999999999
 21
156.7189905
 31
0.0
  0
LINE
  5
54
330
1E
100
AcDbEntity
  8
0
100
AcDbLine
 10
0.0202340000000013
 20
160.1619904999999
 30
0.0
 11
0.5120380000000021
 21
158.9329905
 31
0.0
  0
LINE
  5
55
330
1E
100
AcDbEntity
  8
0
100
AcDbLine
 10
0.266136000000001
 20
160.1619904999999
 30
0.0
 11
0.7579390000000011
 21
159.0959905
 31
0.0
  0
LINE
  5
56
330
1E
100
AcDbEntity
  8
0
100
AcDbLine
 10
0.102202000000001
 20
161.3919904999999
 30
0.0
 11
0.102202000000001
 21
181.4739905
 31
0.0
  0
LINE
  5
57
330
1E
100
AcDbEntity
  8
0
100
AcDbLine
 10
0.102202000000001
 20
161.3919904999999
 30
0.0
 11
0.266136000000001
 21
160.1619904999999
 31
0.0
  0
LINE
  5
58
330
1E
100
AcDbEntity
  8
0
100
AcDbLine
 10
0.7579390000000011
 20
159.0959905
 30
0.0
 11
1.495639999999999
 21
158.1129905
 31
0.0
  0
LINE
  5
59
330
1E
100
AcDbEntity
  8
0
100
AcDbLine
 10
0.5120380000000021
 20
158.9329905
 30
0.0
 11
1.331709999999999
 21
157.9489905
 31
0.0
  0
LINE
  5
5A
330
1E
100
AcDbEntity
  8
0
100
AcDbLine
 10
0.102202000000001
 20
181.4739905
 30
0.0
 11
0.102202000000001
 21
161.3919904999999
 31
0.0
  0
LINE
  5
5B
330
1E
100
AcDbEntity
  8
0
100
AcDbLine
 10
0.102202000000001
 20
181.4739905
 30
0.0
 11
0.102202000000001
 21
201.5549904999999
 31
0.0
  0
LINE
  5
5C
330
1E
100
AcDbEntity
  8
0
100
AcDbLine
 10
-0.143699999999999
 20
181.4739905
 30
0.0
 11
-0.143699999999999
 21
161.3919904999999
 31
0.0
  0
LINE
  5
5D
330
1E
100
AcDbEntity
  8
0
100
AcDbLine
 10
-0.143699999999999
 20
181.4739905
 30
0.0
 11
-0.143699999999999
 21
201.5549904999999
 31
0.0
  0
LINE
  5
5E
330
1E
100
AcDbEntity
  8
0
100
AcDbLine
 10
-0.143699999999999
 20
161.3919904999999
 30
0.0
 11
-0.143699999999999
 21
181.4739905
 31
0.0
  0
LINE
  5
5F
330
1E
100
AcDbEntity
  8
0
100
AcDbLine
 10
1.495639999999999
 20
158.1129905
 30
0.0
 11
2.479249999999999
 21
157.3749904999999
 31
0.0
  0
LINE
  5
60
330
1E
100
AcDbEntity
  8
0
100
AcDbLine
 10
1.331709999999999
 20
157.9489905
 30
0.0
 11
2.31532
 21
157.1289905
 31
0.0
  0
LINE
  5
61
330
1E
100
AcDbEntity
  8
0
100
AcDbLine
 10
4.774329999999999
 20
156.7189905
 30
0.0
 11
8.799347619047619
 21
156.7189905
 31
0.0
  0
LINE
  5
62
330
1E
100
AcDbEntity
  8
0
100
AcDbLine
 10
6.2563
 20
176.3729905
 30
0.0
 11
8.156299999999999
 21
171.7739905
 31
0.0
  0
LINE
  5
63
330
1E
100
AcDbEntity
  8
0
100
AcDbLine
 10
5.7563
 20
181.4739905
 30
0.0
 11
6.2563
 21
186.5729905
 31
0.0
  0
LINE
  5
64
330
1E
100
AcDbEntity
  8
0
100
AcDbLine
 10
5.7563
 20
181.4739905
 30
0.0
 11
6.2563
 21
176.3729905
 31
0.0
  0
LINE
  5
65
330
1E
100
AcDbEntity
  8
0
100
AcDbLine
 10
7.8563
 20
180.6069905
 30
0.0
 11
7.8563
 21
181.4739905
 31
0.0
  0
LINE
  5
66
330
1E
100
AcDbEntity
  8
0
100
AcDbLine
 10
7.8563
 20
180.6069905
 30
0.0
 11
7.99171
 21
178.9549905
 31
0.0
  0
LINE
  5
68
330
1E
100
AcDbEntity
  8
0
100
AcDbLine
 10
7.8563
 20
182.1339905
 30
0.0
 11
8.34201
 21
186.3369905
 31
0.0
  0
LINE
  5
69
330
1E
100
AcDbEntity
  8
0
100
AcDbLine
 10
7.8563
 20
182.1339905
 30
0.0
 11
7.8563
 21
181.4739905
 31
0.0
  0
LINE
  5
6A
330
1E
100
AcDbEntity
  8
0
100
AcDbLine
 10
6.2563
 20
186.5729905
 30
0.0
 11
8.156299999999999
 21
191.1739905
 31
0.0
  0
LINE
  5
6B
330
1E
100
AcDbEntity
  8
0
100
AcDbLine
 10
4.774329999999999
 20
156.7189905
 30
0.0
 11
8.799347619047619
 21
156.7189905
 31
0.0
  0
LINE
  5
6C
330
1E
100
AcDbEntity
  8
0
100
AcDbLine
 10
3.544819999999999
 20
156.6369904999999
 30
0.0
 11
4.774329999999999
 21
156.4739905
 31
0.0
  0
LINE
  5
6D
330
1E
100
AcDbEntity
  8
0
100
AcDbLine
 10
4.774329999999999
 20
156.4739905
 30
0.0
 11
8.80868095238096
 21
156.4739905
 31
0.0
  0
LINE
  5
6E
330
1E
100
AcDbEntity
  8
0
100
AcDbLine
 10
14.8563
 20
105.4279905
 30
0.0
 11
17.923
 21
103.4699905
 31
0.0
  0
LINE
  5
6F
330
1E
100
AcDbEntity
  8
0
100
AcDbLine
 10
10.85629999999999
 20
115.0759905
 30
0.0
 11
11.25629999999999
 21
111.3029905
 31
0.0
  0
LINE
  5
70
330
1E
100
AcDbEntity
  8
0
100
AcDbLine
 10
11.25629999999999
 20
111.3029905
 30
0.0
 11
12.72299999999999
 21
108.2429905
 31
0.0
  0
LINE
  5
72
330
1E
100
AcDbEntity
  8
0
100
AcDbLine
 10
12.72299999999999
 20
108.2429905
 30
0.0
 11
14.8563
 21
105.4279905
 31
0.0
  0
LINE
  5
75
330
1E
100
AcDbEntity
  8
0
100
AcDbLine
 10
10.2289603319293
 20
129.7062949826029
 30
0.0
 11
13.3563
 21
17.67349049999999
 31
0.0
  0
LINE
  5
76
330
1E
100
AcDbEntity
  8
0
100
AcDbLine
 10
17.923
 20
103.4699905
 30
0.0
 11
21.2563
 21
102.1239905
 31
0.0
  0
LINE
  5
78
330
1E
100
AcDbEntity
  8
0
100
AcDbLine
 10
7.99171
 20
178.9549905
 30
0.0
 11
8.16683
 21
175.6219905
 31
0.0
  0
LINE
  5
7D
330
1E
100
AcDbEntity
  8
0
100
AcDbLine
 10
8.16683
 20
175.6219905
 30
0.0
 11
10.85629999999999
 21
115.0759905
 31
0.0
  0
LINE
  5
7F
330
1E
100
AcDbEntity
  8
0
100
AcDbLine
 10
10.12299999999999
 20
190.2289905
 30
0.0
 11
12.7134
 21
193.8099904999999
 31
0.0
  0
LINE
  5
80
330
1E
100
AcDbEntity
  8
0
100
AcDbLine
 10
12.7134
 20
193.8099904999999
 30
0.0
 11
16.4372
 21
196.3009905
 31
0.0
  0
LINE
  5
83
330
1E
100
AcDbEntity
  8
0
100
AcDbLine
 10
8.34201
 20
186.3369905
 30
0.0
 11
10.12299999999999
 21
190.2289905
 31
0.0
  0
LINE
  5
86
330
1E
100
AcDbEntity
  8
0
100
AcDbLine
 10
8.156299999999999
 20
191.1739905
 30
0.0
 11
11.25629999999999
 21
195.0729905
 31
0.0
  0
LINE
  5
87
330
1E
100
AcDbEntity
  8
0
100
AcDbLine
 10
11.25629999999999
 20
195.0729905
 30
0.0
 11
15.15629999999999
 21
198.1739904999999
 31
0.0
  0
LINE
  5
88
330
1E
100
AcDbEntity
  8
0
100
AcDbLine
 10
16.4372
 20
196.3009905
 30
0.0
 11
20.4849
 21
198.0139905
 31
0.0
  0
LINE
  5
89
330
1E
100
AcDbEntity
  8
0
100
AcDbLine
 10
20.4849
 20
198.0139905
 30
0.0
 11
24.8563
 21
198.4809904999999
 31
0.0
  0
LINE
  5
8A
330
1E
100
AcDbEntity
  8
0
100
AcDbLine
 10
15.15629999999999
 20
198.1739904999999
 30
0.0
 11
19.75629999999999
 21
200.0729905
 31
0.0
  0
LINE
  5
8B
330
1E
100
AcDbEntity
  8
0
100
AcDbLine
 10
10.2289603319293
 20
129.7062949826029
 30
0.0
 11
13.3563
 21
17.67349049999999
 31
0.0
  0
LINE
  5
8C
330
1E
100
AcDbEntity
  8
0
100
AcDbLine
 10
7.8563
 20
181.4739905
 30
0.0
 11
7.8563
 21
182.1339905
 31
0.0
  0
LINE
  5
8D
330
1E
100
AcDbEntity
  8
0
100
AcDbLine
 10
7.8563
 20
181.4739905
 30
0.0
 11
7.8563
 21
180.6069905
 31
0.0
  0
LINE
  5
8F
330
1E
100
AcDbEntity
  8
0
100
AcDbLine
 10
24.8563
 20
101.7569904999999
 30
0.0
 11
28.323
 21
102.0879905
 31
0.0
  0
LINE
  5
90
330
1E
100
AcDbEntity
  8
0
100
AcDbLine
 10
0.102202000000001
 20
201.5549904999999
 30
0.0
 11
0.266136000000001
 21
202.7849905
 31
0.0
  0
LINE
  5
91
330
1E
100
AcDbEntity
  8
0
100
AcDbLine
 10
0.102202000000001
 20
201.5549904999999
 30
0.0
 11
0.102202000000001
 21
181.4739905
 31
0.0
  0
LINE
  5
92
330
1E
100
AcDbEntity
  8
0
100
AcDbLine
 10
0.0202340000000013
 20
202.7849905
 30
0.0
 11
0.5120380000000021
 21
204.0139905
 31
0.0
  0
LINE
  5
93
330
1E
100
AcDbEntity
  8
0
100
AcDbLine
 10
0.7579390000000011
 20
203.8509905
 30
0.0
 11
1.495639999999999
 21
204.8339905
 31
0.0
  0
LINE
  5
94
330
1E
100
AcDbEntity
  8
0
100
AcDbLine
 10
0.266136000000001
 20
202.7849905
 30
0.0
 11
0.7579390000000011
 21
203.8509905
 31
0.0
  0
LINE
  5
95
330
1E
100
AcDbEntity
  8
0
100
AcDbLine
 10
0.5120380000000021
 20
204.0139905
 30
0.0
 11
1.331709999999999
 21
204.9979905
 31
0.0
  0
LINE
  5
96
330
1E
100
AcDbEntity
  8
0
100
AcDbLine
 10
0.0202340000000014
 20
202.7849905
 30
0.0
 11
0.5120380000000021
 21
204.0139905
 31
0.0
  0
LINE
  5
97
330
1E
100
AcDbEntity
  8
0
100
AcDbLine
 10
-0.143699999999999
 20
201.5549904999999
 30
0.0
 11
-0.143699999999999
 21
181.4739905
 31
0.0
  0
LINE
  5
98
330
1E
100
AcDbEntity
  8
0
100
AcDbLine
 10
-0.143699999999999
 20
201.5549904999999
 30
0.0
 11
0.0202340000000014
 21
202.7849905
 31
0.0
  0
LINE
  5
99
330
1E
100
AcDbEntity
  8
0
100
AcDbLine
 10
-0.143699999999999
 20
201.5549904999999
 30
0.0
 11
0.0202340000000014
 21
202.7849905
 31
0.0
  0
LINE
  5
9A
330
1E
100
AcDbEntity
  8
0
100
AcDbLine
 10
1.495639999999999
 20
204.8339905
 30
0.0
 11
2.479249999999999
 21
205.5719905
 31
0.0
  0
LINE
  5
9B
330
1E
100
AcDbEntity
  8
0
100
AcDbLine
 10
2.479249999999999
 20
205.5719905
 30
0.0
 11
3.544819999999999
 21
206.0639905
 31
0.0
  0
LINE
  5
9C
330
1E
100
AcDbEntity
  8
0
100
AcDbLine
 10
1.331709999999999
 20
204.9979905
 30
0.0
 11
2.31532
 21
205.8179905
 31
0.0
  0
LINE
  5
9D
330
1E
100
AcDbEntity
  8
0
100
AcDbLine
 10
3.544819999999999
 20
206.0639905
 30
0.0
 11
4.774329999999999
 21
206.2279905
 31
0.0
  0
LINE
  5
9E
330
1E
100
AcDbEntity
  8
0
100
AcDbLine
 10
2.31532
 20
205.8179905
 30
0.0
 11
3.544819999999999
 21
206.3099905
 31
0.0
  0
LINE
  5
9F
330
1E
100
AcDbEntity
  8
0
100
AcDbLine
 10
4.774329999999999
 20
206.2279905
 30
0.0
 11
24.8563
 21
206.2279905
 31
0.0
  0
LINE
  5
A0
330
1E
100
AcDbEntity
  8
0
100
AcDbLine
 10
4.774329999999999
 20
206.4739905
 30
0.0
 11
24.8563
 21
206.4739905
 31
0.0
  0
LINE
  5
A1
330
1E
100
AcDbEntity
  8
0
100
AcDbLine
 10
4.774329999999999
 20
206.2279905
 30
0.0
 11
24.8563
 21
206.2279905
 31
0.0
  0
LINE
  5
A2
330
1E
100
AcDbEntity
  8
0
100
AcDbLine
 10
3.544819999999999
 20
206.3099905
 30
0.0
 11
4.774329999999999
 21
206.4739905
 31
0.0
  0
LINE
  5
A3
330
1E
100
AcDbEntity
  8
0
100
AcDbLine
 10
4.774329999999999
 20
206.4739905
 30
0.0
 11
24.8563
 21
206.4739905
 31
0.0
  0
LINE
  5
A4
330
1E
100
AcDbEntity
  8
0
100
AcDbLine
 10
19.75629999999999
 20
200.0729905
 30
0.0
 11
24.8563
 21
200.5729904999999
 31
0.0
  0
LINE
  5
A5
330
1E
100
AcDbEntity
  8
0
100
AcDbLine
 10
24.8563
 20
198.4809904999999
 30
0.0
 11
29.22769999999999
 21
198.0139905
 31
0.0
  0
LINE
  5
A6
330
1E
100
AcDbEntity
  8
0
100
AcDbLine
 10
24.8563
 20
206.2279905
 30
0.0
 11
44.93829999999999
 21
206.2279905
 31
0.0
  0
LINE
  5
A7
330
1E
100
AcDbEntity
  8
0
100
AcDbLine
 10
24.8563
 20
206.4739905
 30
0.0
 11
44.93829999999999
 21
206.4739905
 31
0.0
  0
LINE
  5
A8
330
1E
100
AcDbEntity
  8
0
100
AcDbLine
 10
27.923
 20
102.0619904999999
 30
0.0
 11
28.323
 21
102.0879905
 31
0.0
  0
LINE
  5
A9
330
1E
100
AcDbEntity
  8
0
100
AcDbLine
 10
28.45629999999999
 20
102.1239905
 30
0.0
 11
31.7896
 21
103.4699905
 31
0.0
  0
LINE
  5
AB
330
1E
100
AcDbEntity
  8
0
100
AcDbLine
 10
31.7896
 20
103.4699905
 30
0.0
 11
34.8563
 21
105.4279905
 31
0.0
  0
LINE
  5
AC
330
1E
100
AcDbEntity
  8
0
100
AcDbLine
 10
28.323
 20
102.0879905
 30
0.0
 11
28.45629999999999
 21
102.1239905
 31
0.0
  0
LINE
  5
AD
330
1E
100
AcDbEntity
  8
0
100
AcDbLine
 10
29.22769999999999
 20
198.0139905
 30
0.0
 11
33.27539999999999
 21
196.3009905
 31
0.0
  0
LINE
  5
AE
330
1E
100
AcDbEntity
  8
0
100
AcDbLine
 10
33.27539999999999
 20
196.3009905
 30
0.0
 11
36.9992
 21
193.8099904999999
 31
0.0
  0
LINE
  5
AF
330
1E
100
AcDbEntity
  8
0
100
AcDbLine
 10
35.3446770966081
 20
194.916767596608
 30
0.0
 11
37.8149
 21
197.3869904999999
 31
0.0
  0
LINE
  5
B1
330
1E
100
AcDbEntity
  8
0
100
AcDbLine
 10
34.8563
 20
105.4279905
 30
0.0
 11
36.9896
 21
108.2429905
 31
0.0
  0
LINE
  5
B2
330
1E
100
AcDbEntity
  8
0
100
AcDbLine
 10
34.5563
 20
198.1739904999999
 30
0.0
 11
36.80995519211539
 21
196.3820456921149
 31
0.0
  0
LINE
  5
B3
330
1E
100
AcDbEntity
  8
0
100
AcDbLine
 10
29.9563
 20
200.0729905
 30
0.0
 11
34.5563
 21
198.1739904999999
 31
0.0
  0
LINE
  5
B4
330
1E
100
AcDbEntity
  8
0
100
AcDbLine
 10
24.8563
 20
200.5729904999999
 30
0.0
 11
29.9563
 21
200.0729905
 31
0.0
  0
LINE
  5
B5
330
1E
100
AcDbEntity
  8
0
100
AcDbLine
 10
36.35629999999999
 20
17.67349049999999
 30
0.0
 11
39.4836230727396
 21
129.70570047683
 31
0.0
  0
LINE
  5
B6
330
1E
100
AcDbEntity
  8
0
100
AcDbLine
 10
37.0563
 20
16.87349049999999
 30
0.0
 11
37.2563
 21
21.1734905
 31
0.0
  0
LINE
  5
B7
330
1E
100
AcDbEntity
  8
0
100
AcDbLine
 10
37.2563
 20
21.1734905
 30
0.0
 11
37.4563
 21
25.4734905
 31
0.0
  0
LINE
  5
B8
330
1E
100
AcDbEntity
  8
0
100
AcDbLine
 10
37.4563
 20
25.4734905
 30
0.0
 11
37.5563
 21
29.9734905
 31
0.0
  0
LINE
  5
B9
330
1E
100
AcDbEntity
  8
0
100
AcDbLine
 10
36.9896
 20
108.2429905
 30
0.0
 11
38.45629999999999
 21
111.3029905
 31
0.0
  0
LINE
  5
BA
330
1E
100
AcDbEntity
  8
0
100
AcDbLine
 10
37.5563
 20
29.9734905
 30
0.0
 11
37.7563
 21
33.9734905
 31
0.0
  0
LINE
  5
BC
330
1E
100
AcDbEntity
  8
0
100
AcDbLine
 10
38.45629999999999
 20
111.3029905
 30
0.0
 11
38.85629999999999
 21
114.6069905
 31
0.0
  0
LINE
  5
BD
330
1E
100
AcDbEntity
  8
0
100
AcDbLine
 10
38.85629999999999
 20
114.6069905
 30
0.0
 11
41.72089999999999
 21
178.9549905
 31
0.0
  0
LINE
  5
BF
330
1E
100
AcDbEntity
  8
0
100
AcDbLine
 10
37.7563
 20
33.9734905
 30
0.0
 11
40.2563
 21
139.4739905
 31
0.0
  0
LINE
  5
C0
330
1E
100
AcDbEntity
  8
0
100
AcDbLine
 10
38.2148167871148
 20
192.1295072871149
 30
0.0
 11
40.6433
 21
194.5579905
 31
0.0
  0
LINE
  5
C1
330
1E
100
AcDbEntity
  8
0
100
AcDbLine
 10
39.58959999999999
 20
190.2289905
 30
0.0
 11
41.3706
 21
186.3369905
 31
0.0
  0
LINE
  5
C2
330
1E
100
AcDbEntity
  8
0
100
AcDbLine
 10
38.0268
 20
197.5989905
 30
0.0
 11
38.3639
 21
197.9359905
 31
0.0
  0
LINE
  5
C3
330
1E
100
AcDbEntity
  8
0
100
AcDbLine
 10
37.8149
 20
197.3869904999999
 30
0.0
 11
38.0268
 21
197.5989905
 31
0.0
  0
LINE
  5
C4
330
1E
100
AcDbEntity
  8
0
100
AcDbLine
 10
38.80319999999999
 20
198.3749904999999
 30
0.0
 11
39.3148
 21
198.8869904999999
 31
0.0
  0
LINE
  5
C5
330
1E
100
AcDbEntity
  8
0
100
AcDbLine
 10
39.3148
 20
198.8869904999999
 30
0.0
 11
39.8639
 21
199.4359904999999
 31
0.0
  0
LINE
  5
C6
330
1E
100
AcDbEntity
  8
0
100
AcDbLine
 10
38.3639
 20
197.9359905
 30
0.0
 11
38.80319999999999
 21
198.3749904999999
 31
0.0
  0
LINE
  5
C7
330
1E
100
AcDbEntity
  8
0
100
AcDbLine
 10
39.8639
 20
199.4359904999999
 30
0.0
 11
48.25849999999999
 21
207.8309905
 31
0.0
  0
LINE
  5
C8
330
1E
100
AcDbEntity
  8
0
100
AcDbLine
 10
36.9992
 20
193.8099904999999
 30
0.0
 11
39.58959999999999
 21
190.2289905
 31
0.0
  0
LINE
  5
C9
330
1E
100
AcDbEntity
  8
0
100
AcDbLine
 10
39.6530709672811
 20
193.567761467281
 30
0.0
 11
41.5563
 21
191.1739905
 31
0.0
  0
LINE
  5
CD
330
1E
100
AcDbEntity
  8
0
100
AcDbLine
 10
44.93829999999999
 20
156.7189905
 30
0.0
 11
46.1678
 21
156.8829905
 31
0.0
  0
LINE
  5
CE
330
1E
100
AcDbEntity
  8
0
100
AcDbLine
 10
47.23329999999999
 20
157.3749904999999
 30
0.0
 11
48.21699999999999
 21
158.1129905
 31
0.0
  0
LINE
  5
CF
330
1E
100
AcDbEntity
  8
0
100
AcDbLine
 10
46.1678
 20
156.8829905
 30
0.0
 11
47.23329999999999
 21
157.3749904999999
 31
0.0
  0
LINE
  5
D0
330
1E
100
AcDbEntity
  8
0
100
AcDbLine
 10
40.91325238095239
 20
156.7189905
 30
0.0
 11
44.93829999999999
 21
156.7189905
 31
0.0
  0
LINE
  5
D1
330
1E
100
AcDbEntity
  8
0
100
AcDbLine
 10
48.21699999999999
 20
158.1129905
 30
0.0
 11
48.9547
 21
159.0959905
 31
0.0
  0
LINE
  5
D2
330
1E
100
AcDbEntity
  8
0
100
AcDbLine
 10
48.9547
 20
159.0959905
 30
0.0
 11
49.4465
 21
160.1619904999999
 31
0.0
  0
LINE
  5
D3
330
1E
100
AcDbEntity
  8
0
100
AcDbLine
 10
49.6104
 20
161.3919904999999
 30
0.0
 11
49.6104
 21
181.4739905
 31
0.0
  0
LINE
  5
D4
330
1E
100
AcDbEntity
  8
0
100
AcDbLine
 10
49.4465
 20
160.1619904999999
 30
0.0
 11
49.6104
 21
161.3919904999999
 31
0.0
  0
LINE
  5
D5
330
1E
100
AcDbEntity
  8
0
100
AcDbLine
 10
49.8563
 20
161.3919904999999
 30
0.0
 11
49.8563
 21
181.4739905
 31
0.0
  0
LINE
  5
D6
330
1E
100
AcDbEntity
  8
0
100
AcDbLine
 10
49.2006
 20
158.9329905
 30
0.0
 11
49.6924
 21
160.1619904999999
 31
0.0
  0
LINE
  5
D7
330
1E
100
AcDbEntity
  8
0
100
AcDbLine
 10
47.3973
 20
157.1289905
 30
0.0
 11
48.3809
 21
157.9489905
 31
0.0
  0
LINE
  5
D8
330
1E
100
AcDbEntity
  8
0
100
AcDbLine
 10
44.93829999999999
 20
156.4739905
 30
0.0
 11
46.1678
 21
156.6369904999999
 31
0.0
  0
LINE
  5
D9
330
1E
100
AcDbEntity
  8
0
100
AcDbLine
 10
40.903919047619
 20
156.4739905
 30
0.0
 11
44.93829999999999
 21
156.4739905
 31
0.0
  0
LINE
  5
DB
330
1E
100
AcDbEntity
  8
0
100
AcDbLine
 10
41.3706
 20
186.3369905
 30
0.0
 11
41.85629999999999
 21
182.1339905
 31
0.0
  0
LINE
  5
DD
330
1E
100
AcDbEntity
  8
0
100
AcDbLine
 10
41.5563
 20
171.7739905
 30
0.0
 11
43.45629999999999
 21
176.3729905
 31
0.0
  0
LINE
  5
DE
330
1E
100
AcDbEntity
  8
0
100
AcDbLine
 10
40.6433
 20
194.5579905
 30
0.0
 11
40.8552
 21
194.7699905
 31
0.0
  0
LINE
  5
DF
330
1E
100
AcDbEntity
  8
0
100
AcDbLine
 10
41.1923
 20
195.1079905
 30
0.0
 11
41.6317
 21
195.5469904999999
 31
0.0
  0
LINE
  5
E0
330
1E
100
AcDbEntity
  8
0
100
AcDbLine
 10
40.8552
 20
194.7699905
 30
0.0
 11
41.1923
 21
195.1079905
 31
0.0
  0
LINE
  5
E1
330
1E
100
AcDbEntity
  8
0
100
AcDbLine
 10
41.5563
 20
191.1739905
 30
0.0
 11
43.45629999999999
 21
186.5729905
 31
0.0
  0
LINE
  5
E2
330
1E
100
AcDbEntity
  8
0
100
AcDbLine
 10
41.72089999999999
 20
178.9549905
 30
0.0
 11
41.85629999999999
 21
182.1339905
 31
0.0
  0
LINE
  5
E3
330
1E
100
AcDbEntity
  8
0
100
AcDbLine
 10
43.45629999999999
 20
176.3729905
 30
0.0
 11
43.95629999999999
 21
181.4739905
 31
0.0
  0
LINE
  5
E4
330
1E
100
AcDbEntity
  8
0
100
AcDbLine
 10
49.6104
 20
181.4739905
 30
0.0
 11
49.6104
 21
161.3919904999999
 31
0.0
  0
LINE
  5
E5
330
1E
100
AcDbEntity
  8
0
100
AcDbLine
 10
49.6104
 20
181.4739905
 30
0.0
 11
49.6104
 21
201.5549904999999
 31
0.0
  0
LINE
  5
E6
330
1E
100
AcDbEntity
  8
0
100
AcDbLine
 10
41.6317
 20
195.5469904999999
 30
0.0
 11
42.1433
 21
196.0579905
 31
0.0
  0
LINE
  5
E7
330
1E
100
AcDbEntity
  8
0
100
AcDbLine
 10
42.6923
 20
196.6079904999999
 30
0.0
 11
51.08699999999999
 21
205.0019905
 31
0.0
  0
LINE
  5
E8
330
1E
100
AcDbEntity
  8
0
100
AcDbLine
 10
42.1433
 20
196.0579905
 30
0.0
 11
42.6923
 21
196.6079904999999
 31
0.0
  0
LINE
  5
E9
330
1E
100
AcDbEntity
  8
0
100
AcDbLine
 10
46.1678
 20
206.0639905
 30
0.0
 11
46.38930706279078
 21
205.961708496346
 31
0.0
  0
LINE
  5
EA
330
1E
100
AcDbEntity
  8
0
100
AcDbLine
 10
44.93829999999999
 20
206.2279905
 30
0.0
 11
46.1678
 21
206.0639905
 31
0.0
  0
LINE
  5
EB
330
1E
100
AcDbEntity
  8
0
100
AcDbLine
 10
49.6104
 20
201.5549904999999
 30
0.0
 11
49.6104
 21
181.4739905
 31
0.0
  0
LINE
  5
EC
330
1E
100
AcDbEntity
  8
0
100
AcDbLine
 10
49.26445003124211
 20
203.179592506295
 30
0.0
 11
49.4465
 21
202.7849905
 31
0.0
  0
LINE
  5
ED
330
1E
100
AcDbEntity
  8
0
100
AcDbLine
 10
49.4465
 20
202.7849905
 30
0.0
 11
49.6104
 21
201.5549904999999
 31
0.0
  0
LINE
  5
EE
330
1E
100
AcDbEntity
  8
0
100
AcDbLine
 10
49.45732145988699
 20
203.3724478521739
 30
0.0
 11
49.6924
 21
202.7849905
 31
0.0
  0
LINE
  5
EF
330
1E
100
AcDbEntity
  8
0
100
AcDbLine
 10
50.73640000000001
 20
205.5339905
 30
0.0
 11
50.957
 21
205.3129905
 31
0.0
  0
LINE
  5
F0
330
1E
100
AcDbEntity
  8
0
100
AcDbLine
 10
51.0928
 20
205.1779905
 30
0.0
 11
51.1437
 21
205.1269905
 31
0.0
  0
LINE
  5
F1
330
1E
100
AcDbEntity
  8
0
100
AcDbLine
 10
51.08699999999999
 20
205.0019905
 30
0.0
 11
51.1437
 21
205.1269905
 31
0.0
  0
LINE
  5
F2
330
1E
100
AcDbEntity
  8
0
100
AcDbLine
 10
50.957
 20
205.3129905
 30
0.0
 11
51.0928
 21
205.1779905
 31
0.0
  0
LINE
  5
F3
330
1E
100
AcDbEntity
  8
0
100
AcDbLine
 10
50.1198
 20
206.1509905
 30
0.0
 11
50.44789999999999
 21
205.8229905
 31
0.0
  0
LINE
  5
F4
330
1E
100
AcDbEntity
  8
0
100
AcDbLine
 10
50.44789999999999
 20
205.8229905
 30
0.0
 11
50.73640000000001
 21
205.5339905
 31
0.0
  0
LINE
  5
F5
330
1E
100
AcDbEntity
  8
0
100
AcDbLine
 10
49.6924
 20
202.7849905
 30
0.0
 11
49.8563
 21
201.5549904999999
 31
0.0
  0
LINE
  5
F6
330
1E
100
AcDbEntity
  8
0
100
AcDbLine
 10
49.8563
 20
201.5549904999999
 30
0.0
 11
49.8563
 21
181.4739905
 31
0.0
  0
LINE
  5
F7
330
1E
100
AcDbEntity
  8
0
100
AcDbLine
 10
46.1678
 20
206.3099905
 30
0.0
 11
46.5747385963607
 21
206.1471488656689
 31
0.0
  0
LINE
  5
F8
330
1E
100
AcDbEntity
  8
0
100
AcDbLine
 10
48.79039999999999
 20
207.4799905
 30
0.0
 11
49.0789
 21
207.1909905
 31
0.0
  0
LINE
  5
F9
330
1E
100
AcDbEntity
  8
0
100
AcDbLine
 10
48.25849999999999
 20
207.8309905
 30
0.0
 11
48.38309999999999
 21
207.8869904999999
 31
0.0
  0
LINE
  5
FA
330
1E
100
AcDbEntity
  8
0
100
AcDbLine
 10
48.43399999999999
 20
207.8359905
 30
0.0
 11
48.5698
 21
207.7009904999999
 31
0.0
  0
LINE
  5
FB
330
1E
100
AcDbEntity
  8
0
100
AcDbLine
 10
48.38309999999999
 20
207.8869904999999
 30
0.0
 11
48.43399999999999
 21
207.8359905
 31
0.0
  0
LINE
  5
FC
330
1E
100
AcDbEntity
  8
0
100
AcDbLine
 10
48.5698
 20
207.7009904999999
 30
0.0
 11
48.79039999999999
 21
207.4799905
 31
0.0
  0
LINE
  5
FD
330
1E
100
AcDbEntity
  8
0
100
AcDbLine
 10
49.7634
 20
206.5069905
 30
0.0
 11
50.1198
 21
206.1509905
 31
0.0
  0
LINE
  5
FE
330
1E
100
AcDbEntity
  8
0
100
AcDbLine
 10
49.40699999999999
 20
206.8629904999999
 30
0.0
 11
49.7634
 21
206.5069905
 31
0.0
  0
LINE
  5
FF
330
1E
100
AcDbEntity
  8
0
100
AcDbLine
 10
49.0789
 20
207.1909905
 30
0.0
 11
49.40699999999999
 21
206.8629904999999
 31
0.0
  0
LINE
  5
100
330
1E
100
AcDbEntity
  8
0
100
AcDbLine
 10
44.93829999999999
 20
206.4739905
 30
0.0
 11
46.1678
 21
206.3099905
 31
0.0
  0
LINE
  5
101
330
1E
100
AcDbEntity
  8
0
100
AcDbLine
 10
43.45629999999999
 20
186.5729905
 30
0.0
 11
43.95629999999999
 21
181.4739905
 31
0.0
  0
LINE
  5
102
330
1E
100
AcDbEntity
  8
0
100
AcDbLine
 10
49.8563
 20
181.4739905
 30
0.0
 11
49.8563
 21
161.3919904999999
 31
0.0
  0
LINE
  5
103
330
1E
100
AcDbEntity
  8
0
100
AcDbLine
 10
49.8563
 20
181.4739905
 30
0.0
 11
49.8563
 21
201.5549904999999
 31
0.0
  0
LINE
  5
10C
330
1E
100
AcDbEntity
  8
0
100
AcDbLine
 10
-0.143699999999999
 20
161.3919904999999
 30
0.0
 11
0.0202340000000013
 21
160.1619904999999
 31
0.0
  0
LINE
  5
10D
330
1E
100
AcDbEntity
  8
0
100
AcDbLine
 10
2.31532
 20
157.1289905
 30
0.0
 11
3.544819999999999
 21
156.6369904999999
 31
0.0
  0
LINE
  5
10E
330
1E
100
AcDbEntity
  8
0
100
AcDbLine
 10
46.1678
 20
156.6369904999999
 30
0.0
 11
47.3973
 21
157.1289905
 31
0.0
  0
LINE
  5
10F
330
1E
100
AcDbEntity
  8
0
100
AcDbLine
 10
48.3809
 20
157.9489905
 30
0.0
 11
49.2006
 21
158.9329905
 31
0.0
  0
LINE
  5
110
330
1E
100
AcDbEntity
  8
0
100
AcDbLine
 10
49.6924
 20
160.1619904999999
 30
0.0
 11
49.8563
 21
161.3919904999999
 31
0.0
  0
ENDSEC
  0
SECTION
  2
OBJECTS
  0
DICTIONARY
  5
C
330
0
100
AcDbDictionary
281
     1
  3
ACAD_GROUP
350
D
  3
ACAD_LAYOUT
350
19
  3
ACAD_MLINESTYLE
350
16
  3
ACAD_PLOTSETTINGS
350
18
  3
ACAD_PLOTSTYLENAME
350
E
  3
AcDbVariableDictionary
350
111
  0
DICTIONARY
  5
D
102
{ACAD_REACTORS
330
C
102
}
330
C
100
AcDbDictionary
281
     1
  0
DICTIONARY
  5
19
102
{ACAD_REACTORS
330
C
102
}
330
C
100
AcDbDictionary
281
     1
  3
Layout1
350
1D
  3
Model
350
21
  0
DICTIONARY
  5
16
102
{ACAD_REACTORS
330
C
102
}
330
C
100
AcDbDictionary
281
     1
  3
Standard
350
17
  0
DICTIONARY
  5
18
102
{ACAD_REACTORS
330
C
102
}
330
C
100
AcDbDictionary
281
     1
  0
ACDBDICTIONARYWDFLT
  5
E
102
{ACAD_REACTORS
330
C
102
}
330
C
100
AcDbDictionary
281
     1
  3
Normal
350
F
100
AcDbDictionaryWithDefault
340
F
  0
DICTIONARY
  5
111
102
{ACAD_REACTORS
330
C
102
}
330
C
100
AcDbDictionary
281
     1
  3
DIMASSOC
350
112
  0
LAYOUT
  5
1D
102
{ACAD_REACTORS
330
19
102
}
330
19
100
AcDbPlotSettings
  1

  2
hp deskjet 980c series
  4

  6

 40
0.0
 41
0.0
 42
0.0
 43
0.0
 44
0.0
 45
0.0
 46
0.0
 47
0.0
 48
0.0
 49
0.0
140
0.0
141
0.0
142
1.0
143
1.0
 70
   688
 72
     0
 73
     0
 74
     5
  7

 75
    16
147
1.0
148
0.0
149
0.0
100
AcDbLayout
  1
Layout1
 70
     1
 71
     1
 10
0.0
 20
0.0
 11
12.0
 21
9.0
 12
0.0
 22
0.0
 32
0.0
 14
1.000000000000000E+20
 24
1.000000000000000E+20
 34
1.000000000000000E+20
 15
-1.000000000000000E+20
 25
-1.000000000000000E+20
 35
-1.000000000000000E+20
146
0.0
 13
0.0
 23
0.0
 33
0.0
 16
1.0
 26
0.0
 36
0.0
 17
0.0
 27
1.0
 37
0.0
 76
     0
330
1A
  0
LAYOUT
  5
21
102
{ACAD_REACTORS
330
19
102
}
330
19
100
AcDbPlotSettings
  1

  2
hp deskjet 980c series
  4

  6

 40
0.0
 41
0.0
 42
0.0
 43
0.0
 44
0.0
 45
0.0
 46
0.0
 47
0.0
 48
0.0
 49
0.0
140
0.0
141
0.0
142
1.0
143
1.0
 70
  1712
 72
     0
 73
     0
 74
     0
  7

 75
     0
147
1.0
148
0.0
149
0.0
100
AcDbLayout
  1
Model
 70
     1
 71
     0
 10
0.0
 20
0.0
 11
12.0
 21
9.0
 12
0.0
 22
0.0
 32
0.0
 14
0.0
 24
0.0
 34
0.0
 15
0.0
 25
0.0
 35
0.0
146
0.0
 13
0.0
 23
0.0
 33
0.0
 16
1.0
 26
0.0
 36
0.0
 17
0.0
 27
1.0
 37
0.0
 76
     0
330
1E
  0
MLINESTYLE
  5
17
102
{ACAD_REACTORS
330
16
102
}
330
16
100
AcDbMlineStyle
  2
STANDARD
 70
     0
  3

 62
   256
 51
90.0
 52
90.0
 71
     2
 49
0.5
 62
   256
  6
BYLAYER
 49
-0.5
 62
   256
  6
BYLAYER
  0
ACDBPLACEHOLDER
  5
F
102
{ACAD_REACTORS
330
E
102
}
330
E
  0
DICTIONARYVAR
  5
112
102
{ACAD_REACTORS
330
111
102
}
330
111
100
DictionaryVariables
280
     0
  1
1
  0
ENDSEC
  0
EOF
