  0
SECTION
  2
HEADER
  9
$ACADVER
  1
AC1014
  9
$ACADMAINTVER
 70
     9
  9
$DWGCODEPAGE
  3
ANSI_1252
  9
$INSBASE
 10
0.0
 20
0.0
 30
0.0
  9
$EXTMIN
 10
0.0000250000000082
 20
0.0000000000000012
 30
0.0
  9
$EXTMAX
 10
236.999975
 20
117.0
 30
0.0
  9
$LIMMIN
 10
0.0
 20
0.0
  9
$LIMMAX
 10
12.0
 20
9.0
  9
$ORTHOMODE
 70
     0
  9
$REGENMODE
 70
     1
  9
$FILLMODE
 70
     1
  9
$QTEXTMODE
 70
     0
  9
$MIRRTEXT
 70
     1
  9
$DRAGMODE
 70
     2
  9
$LTSCALE
 40
1.0
  9
$OSMODE
 70
    37
  9
$ATTMODE
 70
     1
  9
$TEXTSIZE
 40
0.2
  9
$TRACEWID
 40
0.05
  9
$TEXTSTYLE
  7
STANDARD
  9
$CLAYER
  8
0
  9
$CELTYPE
  6
CONTINUOUS
  9
$CECOLOR
 62
   256
  9
$CELTSCALE
 40
1.0
  9
$DELOBJ
 70
     1
  9
$DISPSILH
 70
     0
  9
$DIMSCALE
 40
1.0
  9
$DIMASZ
 40
0.18
  9
$DIMEXO
 40
0.0625
  9
$DIMDLI
 40
0.38
  9
$DIMRND
 40
0.0
  9
$DIMDLE
 40
0.0
  9
$DIMEXE
 40
0.18
  9
$DIMTP
 40
0.0
  9
$DIMTM
 40
0.0
  9
$DIMTXT
 40
0.18
  9
$DIMCEN
 40
0.09
  9
$DIMTSZ
 40
0.0
  9
$DIMTOL
 70
     0
  9
$DIMLIM
 70
     0
  9
$DIMTIH
 70
     1
  9
$DIMTOH
 70
     1
  9
$DIMSE1
 70
     0
  9
$DIMSE2
 70
     0
  9
$DIMTAD
 70
     0
  9
$DIMZIN
 70
     0
  9
$DIMBLK
  1

  9
$DIMASO
 70
     1
  9
$DIMSHO
 70
     1
  9
$DIMPOST
  1

  9
$DIMAPOST
  1

  9
$DIMALT
 70
     0
  9
$DIMALTD
 70
     2
  9
$DIMALTF
 40
25.4
  9
$DIMLFAC
 40
1.0
  9
$DIMTOFL
 70
     0
  9
$DIMTVP
 40
0.0
  9
$DIMTIX
 70
     0
  9
$DIMSOXD
 70
     0
  9
$DIMSAH
 70
     0
  9
$DIMBLK1
  1

  9
$DIMBLK2
  1

  9
$DIMSTYLE
  2
STANDARD
  9
$DIMCLRD
 70
     0
  9
$DIMCLRE
 70
     0
  9
$DIMCLRT
 70
     0
  9
$DIMTFAC
 40
1.0
  9
$DIMGAP
 40
0.09
  9
$DIMJUST
 70
     0
  9
$DIMSD1
 70
     0
  9
$DIMSD2
 70
     0
  9
$DIMTOLJ
 70
     1
  9
$DIMTZIN
 70
     0
  9
$DIMALTZ
 70
     0
  9
$DIMALTTZ
 70
     0
  9
$DIMFIT
 70
     3
  9
$DIMUPT
 70
     0
  9
$DIMUNIT
 70
     2
  9
$DIMDEC
 70
     4
  9
$DIMTDEC
 70
     4
  9
$DIMALTU
 70
     2
  9
$DIMALTTD
 70
     2
  9
$DIMTXSTY
  7
STANDARD
  9
$DIMAUNIT
 70
     0
  9
$LUNITS
 70
     2
  9
$LUPREC
 70
     4
  9
$SKETCHINC
 40
0.1
  9
$FILLETRAD
 40
0.0
  9
$AUNITS
 70
     0
  9
$AUPREC
 70
     0
  9
$MENU
  1
.
  9
$ELEVATION
 40
0.0
  9
$PELEVATION
 40
0.0
  9
$THICKNESS
 40
0.0
  9
$LIMCHECK
 70
     0
  9
$BLIPMODE
 70
     0
  9
$CHAMFERA
 40
0.0
  9
$CHAMFERB
 40
0.0
  9
$CHAMFERC
 40
0.0
  9
$CHAMFERD
 40
0.0
  9
$SKPOLY
 70
     0
  9
$TDCREATE
 40
2454637.675278831
  9
$TDUPDATE
 40
2454687.532010809
  9
$TDINDWG
 40
0.0631244560
  9
$TDUSRTIMER
 40
0.0631244560
  9
$USRTIMER
 70
     1
  9
$ANGBASE
 50
0.0
  9
$ANGDIR
 70
     0
  9
$PDMODE
 70
     0
  9
$PDSIZE
 40
0.0
  9
$PLINEWID
 40
0.0
  9
$COORDS
 70
     1
  9
$SPLFRAME
 70
     0
  9
$SPLINETYPE
 70
     6
  9
$SPLINESEGS
 70
     8
  9
$ATTDIA
 70
     0
  9
$ATTREQ
 70
     1
  9
$HANDLING
 70
 22529
  9
$HANDSEED
  5
1C2
  9
$SURFTAB1
 70
     6
  9
$SURFTAB2
 70
     6
  9
$SURFTYPE
 70
     6
  9
$SURFU
 70
     6
  9
$SURFV
 70
     6
  9
$UCSNAME
  2

  9
$UCSORG
 10
0.0
 20
0.0
 30
0.0
  9
$UCSXDIR
 10
1.0
 20
0.0
 30
0.0
  9
$UCSYDIR
 10
0.0
 20
1.0
 30
0.0
  9
$PUCSNAME
  2

  9
$PUCSORG
 10
0.0
 20
0.0
 30
0.0
  9
$PUCSXDIR
 10
1.0
 20
0.0
 30
0.0
  9
$PUCSYDIR
 10
0.0
 20
1.0
 30
0.0
  9
$USERI1
 70
     0
  9
$USERI2
 70
     0
  9
$USERI3
 70
     0
  9
$USERI4
 70
     0
  9
$USERI5
 70
     0
  9
$USERR1
 40
0.0
  9
$USERR2
 40
0.0
  9
$USERR3
 40
0.0
  9
$USERR4
 40
0.0
  9
$USERR5
 40
0.0
  9
$WORLDVIEW
 70
     1
  9
$SHADEDGE
 70
     3
  9
$SHADEDIF
 70
    70
  9
$TILEMODE
 70
     1
  9
$MAXACTVP
 70
    64
  9
$PINSBASE
 10
0.0
 20
0.0
 30
0.0
  9
$PLIMCHECK
 70
     0
  9
$PEXTMIN
 10
1.000000000000000E+20
 20
1.000000000000000E+20
 30
1.000000000000000E+20
  9
$PEXTMAX
 10
-1.000000000000000E+20
 20
-1.000000000000000E+20
 30
-1.000000000000000E+20
  9
$PLIMMIN
 10
0.0
 20
0.0
  9
$PLIMMAX
 10
12.0
 20
9.0
  9
$UNITMODE
 70
     0
  9
$VISRETAIN
 70
     1
  9
$PLINEGEN
 70
     0
  9
$PSLTSCALE
 70
     1
  9
$TREEDEPTH
 70
  3020
  9
$PICKSTYLE
 70
     1
  9
$CMLSTYLE
  2
STANDARD
  9
$CMLJUST
 70
     0
  9
$CMLSCALE
 40
1.0
  9
$PROXYGRAPHICS
 70
     1
  9
$MEASUREMENT
 70
     0
  0
ENDSEC
  0
SECTION
  2
CLASSES
  0
CLASS
  1
ACDBDICTIONARYWDFLT
  2
AcDbDictionaryWithDefault
  3
AutoCAD 2000
 90
        0
280
     0
281
     0
  0
CLASS
  1
ACDBPLACEHOLDER
  2
AcDbPlaceHolder
  3
AutoCAD 2000
 90
        0
280
     0
281
     0
  0
CLASS
  1
LAYOUT
  2
AcDbLayout
  3
AutoCAD 2000
 90
        0
280
     0
281
     0
  0
CLASS
  1
DICTIONARYVAR
  2
AcDbDictionaryVar
  3
AutoCAD 2000
 90
        0
280
     0
281
     0
  0
CLASS
  1
LONG_TRANSACTION
  2
AcDbLongTransaction
  3
AutoCAD 2000
 90
        0
280
     0
281
     0
  0
CLASS
  1
LWPOLYLINE
  2
AcDbPolyline
  3
AutoCAD 2000
 90
        0
280
     0
281
     1
  0
CLASS
  1
HATCH
  2
AcDbHatch
  3
AutoCAD 2000
 90
        0
280
     0
281
     1
  0
CLASS
  1
XRECORD
  2
AcDbXrecord
  3
AutoCAD 2000
 90
        0
280
     0
281
     0
  0
ENDSEC
  0
SECTION
  2
TABLES
  0
TABLE
  2
VPORT
  5
8
330
0
100
AcDbSymbolTable
 70
     3
  0
VPORT
  5
19D
330
8
100
AcDbSymbolTableRecord
100
AcDbViewportTableRecord
  2
*ACTIVE
 70
     0
 10
0.0
 20
0.0
 11
1.0
 21
1.0
 12
118.5
 22
58.5
 13
0.0
 23
0.0
 14
1.0
 24
1.0
 15
0.0
 25
0.0
 16
0.0
 26
0.0
 36
1.0
 17
0.0
 27
0.0
 37
0.0
 40
117.8976982097186
 41
2.043533930857874
 42
50.0
 43
0.0
 44
0.0
 50
0.0
 51
0.0
 71
     0
 72
   100
 73
     1
 74
     3
 75
     0
 76
     0
 77
     0
 78
     0
  0
ENDTAB
  0
TABLE
  2
LTYPE
  5
5
330
0
100
AcDbSymbolTable
 70
     1
  0
LTYPE
  5
13
330
5
100
AcDbSymbolTableRecord
100
AcDbLinetypeTableRecord
  2
BYBLOCK
 70
     0
  3

 72
    65
 73
     0
 40
0.0
  0
LTYPE
  5
14
330
5
100
AcDbSymbolTableRecord
100
AcDbLinetypeTableRecord
  2
BYLAYER
 70
     0
  3

 72
    65
 73
     0
 40
0.0
  0
LTYPE
  5
15
330
5
100
AcDbSymbolTableRecord
100
AcDbLinetypeTableRecord
  2
CONTINUOUS
 70
     0
  3
Solid line
 72
    65
 73
     0
 40
0.0
  0
ENDTAB
  0
TABLE
  2
LAYER
  5
2
330
0
100
AcDbSymbolTable
 70
     1
  0
LAYER
  5
10
330
2
100
AcDbSymbolTableRecord
100
AcDbLayerTableRecord
  2
0
 70
     0
 62
     7
  6
CONTINUOUS
  0
ENDTAB
  0
TABLE
  2
STYLE
  5
3
330
0
100
AcDbSymbolTable
 70
     1
  0
STYLE
  5
11
330
3
100
AcDbSymbolTableRecord
100
AcDbTextStyleTableRecord
  2
STANDARD
 70
     0
 40
0.0
 41
1.0
 50
0.0
 71
     0
 42
0.2
  3
txt
  4

  0
ENDTAB
  0
TABLE
  2
VIEW
  5
6
330
0
100
AcDbSymbolTable
 70
     0
  0
ENDTAB
  0
TABLE
  2
UCS
  5
7
330
0
100
AcDbSymbolTable
 70
     0
  0
ENDTAB
  0
TABLE
  2
APPID
  5
9
330
0
100
AcDbSymbolTable
 70
     1
  0
APPID
  5
12
330
9
100
AcDbSymbolTableRecord
100
AcDbRegAppTableRecord
  2
ACAD
 70
     0
  0
ENDTAB
  0
TABLE
  2
DIMSTYLE
  5
A
330
0
100
AcDbSymbolTable
 70
     1
  0
DIMSTYLE
105
189
330
A
100
AcDbSymbolTableRecord
100
AcDbDimStyleTableRecord
  2
STANDARD
 70
     0
  3

  4

  5

  6

  7

 40
1.0
 41
0.18
 42
0.0625
 43
0.38
 44
0.18
 45
0.0
 46
0.0
 47
0.0
 48
0.0
140
0.18
141
0.09
142
0.0
143
25.4
144
1.0
145
0.0
146
1.0
147
0.09
 71
     0
 72
     0
 73
     1
 74
     1
 75
     0
 76
     0
 77
     0
 78
     0
170
     0
171
     2
172
     0
173
     0
174
     0
175
     0
176
     0
177
     0
178
     0
270
     2
271
     4
272
     4
273
     2
274
     2
340
11
275
     0
280
     0
281
     0
282
     0
283
     1
284
     0
285
     0
286
     0
287
     3
288
     0
  0
ENDTAB
  0
TABLE
  2
BLOCK_RECORD
  5
1
330
0
100
AcDbSymbolTable
 70
     0
  0
BLOCK_RECORD
  5
1E
102
{ACAD_XDICTIONARY
360
1C0
102
}
330
1
100
AcDbSymbolTableRecord
100
AcDbBlockTableRecord
  2
*MODEL_SPACE
  0
BLOCK_RECORD
  5
1A
102
{ACAD_XDICTIONARY
360
1BE
102
}
330
1
100
AcDbSymbolTableRecord
100
AcDbBlockTableRecord
  2
*PAPER_SPACE
  0
ENDTAB
  0
ENDSEC
  0
SECTION
  2
BLOCKS
  0
BLOCK
  5
1F
330
1E
100
AcDbEntity
  8
0
100
AcDbBlockBegin
  2
*MODEL_SPACE
 70
     0
 10
0.0
 20
0.0
 30
0.0
  3
*MODEL_SPACE
  1

  0
ENDBLK
  5
20
330
1E
100
AcDbEntity
  8
0
100
AcDbBlockEnd
  0
BLOCK
  5
1B
330
1A
100
AcDbEntity
 67
     1
  8
0
100
AcDbBlockBegin
  2
*PAPER_SPACE
 70
     0
 10
0.0
 20
0.0
 30
0.0
  3
*PAPER_SPACE
  1

  0
ENDBLK
  5
1C
330
1A
100
AcDbEntity
 67
     1
  8
0
100
AcDbBlockEnd
  0
ENDSEC
  0
SECTION
  2
ENTITIES
  0
LINE
  5
22
330
1E
100
AcDbEntity
  8
0
100
AcDbLine
 10
14.394275
 20
21.28989999999999
 30
0.0
 11
16.36757499999999
 21
20.5717
 31
0.0
  0
LINE
  5
23
330
1E
100
AcDbEntity
  8
0
100
AcDbLine
 10
0.0000250000000082
 20
27.0611
 30
0.0
 11
0.298861000000008
 21
26.4202
 31
0.0
  0
LINE
  5
24
330
1E
100
AcDbEntity
  8
0
100
AcDbLine
 10
0.6747380000000091
 20
26.2834
 30
0.0
 11
1.2385552776571
 21
26.07820026289469
 31
0.0
  0
LINE
  5
25
330
1E
100
AcDbEntity
  8
0
100
AcDbLine
 10
0.6747380000000091
 20
26.2834
 30
0.0
 11
1.52046500000001
 21
25.9756
 31
0.0
  0
LINE
  5
26
330
1E
100
AcDbEntity
  8
0
100
AcDbLine
 10
3.023965000000008
 20
25.42839999999999
 30
0.0
 11
4.997325000000008
 21
24.7101
 31
0.0
  0
LINE
  5
27
330
1E
100
AcDbEntity
  8
0
100
AcDbLine
 10
11.9037853828893
 20
22.1963973573627
 30
0.0
 11
13.92437499999999
 21
21.4609
 31
0.0
  0
LINE
  5
28
330
1E
100
AcDbEntity
  8
0
100
AcDbLine
 10
11.90378538288918
 20
22.1963973573627
 30
0.0
 11
13.92437499999999
 21
21.4609
 31
0.0
  0
LINE
  5
29
330
1E
100
AcDbEntity
  8
0
100
AcDbLine
 10
9.695785000000007
 20
23.0
 30
0.0
 11
12.138975
 21
22.1108
 31
0.0
  0
LINE
  5
2A
330
1E
100
AcDbEntity
  8
0
100
AcDbLine
 10
12.138975
 20
22.1108
 30
0.0
 11
14.394275
 21
21.28989999999999
 31
0.0
  0
LINE
  5
2B
330
1E
100
AcDbEntity
  8
0
100
AcDbLine
 10
9.86679500000001
 20
23.46989999999999
 30
0.0
 11
12.403975
 21
22.54639999999999
 31
0.0
  0
LINE
  5
2C
330
1E
100
AcDbEntity
  8
0
100
AcDbLine
 10
12.403975
 20
22.54639999999999
 30
0.0
 11
14.753175
 21
21.6914
 31
0.0
  0
LINE
  5
2D
330
1E
100
AcDbEntity
  8
0
100
AcDbLine
 10
14.753175
 20
21.6914
 30
0.0
 11
16.82047499999999
 21
20.9389
 31
0.0
  0
LINE
  5
2E
330
1E
100
AcDbEntity
  8
0
100
AcDbLine
 10
7.252585000000008
 20
23.88929999999999
 30
0.0
 11
9.695785000000007
 21
23.0
 31
0.0
  0
LINE
  5
2F
330
1E
100
AcDbEntity
  8
0
100
AcDbLine
 10
4.997325000000008
 20
24.7101
 30
0.0
 11
7.252585000000008
 21
23.88929999999999
 31
0.0
  0
LINE
  5
30
330
1E
100
AcDbEntity
  8
0
100
AcDbLine
 10
7.329625000000008
 20
24.39329999999999
 30
0.0
 11
9.86679500000001
 21
23.46989999999999
 31
0.0
  0
LINE
  5
31
330
1E
100
AcDbEntity
  8
0
100
AcDbLine
 10
4.980395000000007
 20
25.2484
 30
0.0
 11
7.329625000000008
 21
24.39329999999999
 31
0.0
  0
LINE
  5
32
330
1E
100
AcDbEntity
  8
0
100
AcDbLine
 10
2.913075000000008
 20
26.0008
 30
0.0
 11
4.980395000000007
 21
25.2484
 31
0.0
  0
LINE
  5
33
330
1E
100
AcDbEntity
  8
0
100
AcDbLine
 10
1.23855500000001
 20
26.0782
 30
0.0
 11
1.52046500000001
 21
25.9756
 31
0.0
  0
LINE
  5
34
330
1E
100
AcDbEntity
  8
0
100
AcDbLine
 10
1.52046500000001
 20
25.9756
 30
0.0
 11
3.023965000000008
 21
25.42839999999999
 31
0.0
  0
LINE
  5
35
330
1E
100
AcDbEntity
  8
0
100
AcDbLine
 10
0.6747380000000091
 20
26.2834
 30
0.0
 11
1.2385552776571
 21
26.07820026289469
 31
0.0
  0
LINE
  5
36
330
1E
100
AcDbEntity
  8
0
100
AcDbLine
 10
0.6747380000000091
 20
26.2834
 30
0.0
 11
1.52046500000001
 21
25.9756
 31
0.0
  0
LINE
  5
37
330
1E
100
AcDbEntity
  8
0
100
AcDbLine
 10
0.0000250000000083
 20
27.0611
 30
0.0
 11
0.3759020000000079
 21
26.92429999999999
 31
0.0
  0
LINE
  5
38
330
1E
100
AcDbEntity
  8
0
100
AcDbLine
 10
1.31559500000001
 20
26.5823
 30
0.0
 11
2.913075000000008
 21
26.0008
 31
0.0
  0
LINE
  5
39
330
1E
100
AcDbEntity
  8
0
100
AcDbLine
 10
0.3759020000000079
 20
26.92429999999999
 30
0.0
 11
1.31559500000001
 21
26.5823
 31
0.0
  0
LINE
  5
3A
330
1E
100
AcDbEntity
  8
0
100
AcDbLine
 10
0.0000250000000085
 20
27.0611
 30
0.0
 11
14.311175
 21
66.6467
 31
0.0
  0
LINE
  5
3B
330
1E
100
AcDbEntity
  8
0
100
AcDbLine
 10
14.311175
 20
66.6467
 30
0.0
 11
16.82787499999999
 21
71.75
 31
0.0
  0
LINE
  5
3C
330
1E
100
AcDbEntity
  8
0
100
AcDbLine
 10
0.298861000000008
 20
26.4202
 30
0.0
 11
0.6747380000000091
 21
26.2834
 31
0.0
  0
LINE
  5
3D
330
1E
100
AcDbEntity
  8
0
100
AcDbLine
 10
0.0000250000000082
 20
27.0611
 30
0.0
 11
14.311175
 21
66.6467
 31
0.0
  0
LINE
  5
3E
330
1E
100
AcDbEntity
  8
0
100
AcDbLine
 10
0.0000250000000082
 20
27.0611
 30
0.0
 11
0.3759020000000079
 21
26.92429999999999
 31
0.0
  0
LINE
  5
3F
330
1E
100
AcDbEntity
  8
0
100
AcDbLine
 10
0.0000250000000082
 20
27.0611
 30
0.0
 11
0.298861000000008
 21
26.4202
 31
0.0
  0
LINE
  5
40
330
1E
100
AcDbEntity
  8
0
100
AcDbLine
 10
13.92437499999999
 20
21.4609
 30
0.0
 11
15.709775
 21
20.8111
 31
0.0
  0
LINE
  5
41
330
1E
100
AcDbEntity
  8
0
100
AcDbLine
 10
16.82047499999999
 20
20.9389
 30
0.0
 11
18.417975
 21
20.3575
 31
0.0
  0
LINE
  5
42
330
1E
100
AcDbEntity
  8
0
100
AcDbLine
 10
16.82787499999999
 20
71.75
 30
0.0
 11
19.98907499999998
 21
76.48109999999999
 31
0.0
  0
LINE
  5
43
330
1E
100
AcDbEntity
  8
0
100
AcDbLine
 10
15.709775
 20
20.8111
 30
0.0
 11
16.36757499982389
 21
20.5717000000641
 31
0.0
  0
LINE
  5
44
330
1E
100
AcDbEntity
  8
0
100
AcDbLine
 10
16.36757499999999
 20
20.5717
 30
0.0
 11
17.871075
 21
20.0245
 31
0.0
  0
LINE
  5
45
330
1E
100
AcDbEntity
  8
0
100
AcDbLine
 10
18.716875
 20
19.71659999999999
 30
0.0
 11
19.092675
 21
19.5798
 31
0.0
  0
LINE
  5
46
330
1E
100
AcDbEntity
  8
0
100
AcDbLine
 10
18.417975
 20
20.3575
 30
0.0
 11
19.357675
 21
20.01549999999999
 31
0.0
  0
LINE
  5
47
330
1E
100
AcDbEntity
  8
0
100
AcDbLine
 10
19.357675
 20
20.01549999999999
 30
0.0
 11
19.73357499999998
 21
19.8787
 31
0.0
  0
LINE
  5
48
330
1E
100
AcDbEntity
  8
0
100
AcDbLine
 10
17.871075
 20
20.0245
 30
0.0
 11
18.716875
 21
19.71659999999999
 31
0.0
  0
LINE
  5
49
330
1E
100
AcDbEntity
  8
0
100
AcDbLine
 10
19.092675
 20
19.5798
 30
0.0
 11
19.73357499999998
 21
19.8787
 31
0.0
  0
LINE
  5
4A
330
1E
100
AcDbEntity
  8
0
100
AcDbLine
 10
33.712675
 20
58.6104
 30
0.0
 11
35.014375
 21
61.25
 31
0.0
  0
LINE
  5
4B
330
1E
100
AcDbEntity
  8
0
100
AcDbLine
 10
36.64957499999999
 20
63.6971
 30
0.0
 11
38.590075
 21
65.90989999999999
 31
0.0
  0
LINE
  5
4C
330
1E
100
AcDbEntity
  8
0
100
AcDbLine
 10
35.014375
 20
61.25
 30
0.0
 11
36.64957499999999
 21
63.6971
 31
0.0
  0
LINE
  5
4D
330
1E
100
AcDbEntity
  8
0
100
AcDbLine
 10
43.249975
 20
69.4856
 30
0.0
 11
45.889575
 21
70.7873
 31
0.0
  0
LINE
  5
4E
330
1E
100
AcDbEntity
  8
0
100
AcDbLine
 10
45.889575
 20
70.7873
 30
0.0
 11
48.67657499999999
 21
71.73329999999999
 31
0.0
  0
LINE
  5
4F
330
1E
100
AcDbEntity
  8
0
100
AcDbLine
 10
54.499975
 20
72.5
 30
0.0
 11
174.0627008158089
 21
72.5
 31
0.0
  0
LINE
  5
50
330
1E
100
AcDbEntity
  8
0
100
AcDbLine
 10
51.563175
 20
72.3075
 30
0.0
 11
54.499975
 21
72.5
 31
0.0
  0
LINE
  5
51
330
1E
100
AcDbEntity
  8
0
100
AcDbLine
 10
48.67657499999999
 20
71.73329999999999
 30
0.0
 11
51.563175
 21
72.3075
 31
0.0
  0
LINE
  5
52
330
1E
100
AcDbEntity
  8
0
100
AcDbLine
 10
40.80287499999999
 20
67.85039999999999
 30
0.0
 11
43.249975
 21
69.4856
 31
0.0
  0
LINE
  5
53
330
1E
100
AcDbEntity
  8
0
100
AcDbLine
 10
38.590075
 20
65.90989999999999
 30
0.0
 11
40.80287499999999
 21
67.85039999999999
 31
0.0
  0
LINE
  5
54
330
1E
100
AcDbEntity
  8
0
100
AcDbLine
 10
19.73357499999998
 20
19.8787
 30
0.0
 11
33.712675
 21
58.6104
 31
0.0
  0
LINE
  5
55
330
1E
100
AcDbEntity
  8
0
100
AcDbLine
 10
19.98907499999998
 20
76.48109999999999
 30
0.0
 11
23.74087499999999
 21
80.7591
 31
0.0
  0
LINE
  5
56
330
1E
100
AcDbEntity
  8
0
100
AcDbLine
 10
32.749975
 20
87.6721
 30
0.0
 11
37.85327499999999
 21
90.18880000000001
 31
0.0
  0
LINE
  5
57
330
1E
100
AcDbEntity
  8
0
100
AcDbLine
 10
37.85327499999999
 20
90.18880000000001
 30
0.0
 11
43.24137499999999
 21
92.01779999999999
 31
0.0
  0
LINE
  5
58
330
1E
100
AcDbEntity
  8
0
100
AcDbLine
 10
54.499975
 20
93.49999999999999
 30
0.0
 11
173.999975
 21
93.49999999999999
 31
0.0
  0
LINE
  5
59
330
1E
100
AcDbEntity
  8
0
100
AcDbLine
 10
48.82207499999999
 20
93.12789999999999
 30
0.0
 11
54.499975
 21
93.49999999999999
 31
0.0
  0
LINE
  5
5A
330
1E
100
AcDbEntity
  8
0
100
AcDbLine
 10
43.24137499999999
 20
92.01779999999999
 30
0.0
 11
48.82207499999999
 21
93.12789999999999
 31
0.0
  0
LINE
  5
5B
330
1E
100
AcDbEntity
  8
0
100
AcDbLine
 10
28.018875
 20
84.5109
 30
0.0
 11
32.749975
 21
87.6721
 31
0.0
  0
LINE
  5
5C
330
1E
100
AcDbEntity
  8
0
100
AcDbLine
 10
23.74087499999999
 20
80.7591
 30
0.0
 11
28.018875
 21
84.5109
 31
0.0
  0
LINE
  5
5D
330
1E
100
AcDbEntity
  8
0
100
AcDbLine
 10
54.499975
 20
72.5
 30
0.0
 11
174.0627008158089
 21
72.5
 31
0.0
  0
LINE
  5
5E
330
1E
100
AcDbEntity
  8
0
100
AcDbLine
 10
174.415975
 20
7.0
 30
0.0
 11
174.415975
 21
10.0545
 31
0.0
  0
LINE
  5
5F
330
1E
100
AcDbEntity
  8
0
100
AcDbLine
 10
174.415975
 20
7.0
 30
0.0
 11
174.415975
 21
4.327269999999998
 31
0.0
  0
LINE
  5
60
330
1E
100
AcDbEntity
  8
0
100
AcDbLine
 10
173.999975
 20
87.2095
 30
0.0
 11
173.999975
 21
91.09520000000001
 31
0.0
  0
LINE
  5
61
330
1E
100
AcDbEntity
  8
0
100
AcDbLine
 10
173.999975
 20
87.2095
 30
0.0
 11
173.999975
 21
83.0
 31
0.0
  0
LINE
  5
62
330
1E
100
AcDbEntity
  8
0
100
AcDbLine
 10
173.999975
 20
94.49519999999999
 30
0.0
 11
173.999975
 21
97.08570000000001
 31
0.0
  0
LINE
  5
63
330
1E
100
AcDbEntity
  8
0
100
AcDbLine
 10
173.999975
 20
94.49519999999999
 30
0.0
 11
173.999975
 21
91.09520000000001
 31
0.0
  0
LINE
  5
64
330
1E
100
AcDbEntity
  8
0
100
AcDbLine
 10
173.999975
 20
98.5429
 30
0.0
 11
173.999975
 21
99.1905
 31
0.0
  0
LINE
  5
65
330
1E
100
AcDbEntity
  8
0
100
AcDbLine
 10
173.999975
 20
98.5429
 30
0.0
 11
173.999975
 21
97.08570000000001
 31
0.0
  0
LINE
  5
66
330
1E
100
AcDbEntity
  8
0
100
AcDbLine
 10
173.999975
 20
91.09520000000001
 30
0.0
 11
173.999975
 21
87.2095
 31
0.0
  0
LINE
  5
67
330
1E
100
AcDbEntity
  8
0
100
AcDbLine
 10
173.999975
 20
91.09520000000001
 30
0.0
 11
173.999975
 21
94.49519999999999
 31
0.0
  0
LINE
  5
68
330
1E
100
AcDbEntity
  8
0
100
AcDbLine
 10
173.999975
 20
97.08570000000001
 30
0.0
 11
173.999975
 21
94.49519999999999
 31
0.0
  0
LINE
  5
69
330
1E
100
AcDbEntity
  8
0
100
AcDbLine
 10
173.999975
 20
97.08570000000001
 30
0.0
 11
173.999975
 21
98.5429
 31
0.0
  0
LINE
  5
6A
330
1E
100
AcDbEntity
  8
0
100
AcDbLine
 10
173.999975
 20
99.1905
 30
0.0
 11
173.999975
 21
98.5429
 31
0.0
  0
LINE
  5
6B
330
1E
100
AcDbEntity
  8
0
100
AcDbLine
 10
173.999975
 20
99.1905
 30
0.0
 11
174.2529749999999
 21
99.6762
 31
0.0
  0
LINE
  5
6C
330
1E
100
AcDbEntity
  8
0
100
AcDbLine
 10
174.2529749999999
 20
99.6762
 30
0.0
 11
174.6319749999998
 21
100.0
 31
0.0
  0
LINE
  5
6D
330
1E
100
AcDbEntity
  8
0
100
AcDbLine
 10
173.999975
 20
83.0
 30
0.0
 11
174.415975
 21
13.36359999999999
 31
0.0
  0
LINE
  5
6E
330
1E
100
AcDbEntity
  8
0
100
AcDbLine
 10
173.999975
 20
83.0
 30
0.0
 11
174.415975
 21
13.36359999999999
 31
0.0
  0
LINE
  5
6F
330
1E
100
AcDbEntity
  8
0
100
AcDbLine
 10
173.999975
 20
83.0
 30
0.0
 11
173.999975
 21
87.2095
 31
0.0
  0
LINE
  5
70
330
1E
100
AcDbEntity
  8
0
100
AcDbLine
 10
174.415975
 20
10.0545
 30
0.0
 11
174.415975
 21
13.36359999999999
 31
0.0
  0
LINE
  5
71
330
1E
100
AcDbEntity
  8
0
100
AcDbLine
 10
174.415975
 20
10.0545
 30
0.0
 11
174.415975
 21
7.0
 31
0.0
  0
LINE
  5
72
330
1E
100
AcDbEntity
  8
0
100
AcDbLine
 10
174.415975
 20
13.36359999999999
 30
0.0
 11
174.415975
 21
10.0545
 31
0.0
  0
LINE
  5
73
330
1E
100
AcDbEntity
  8
0
100
AcDbLine
 10
174.415975
 20
4.327269999999998
 30
0.0
 11
174.415975
 21
2.290909999999998
 31
0.0
  0
LINE
  5
74
330
1E
100
AcDbEntity
  8
0
100
AcDbLine
 10
174.415975
 20
4.327269999999998
 30
0.0
 11
174.415975
 21
7.0
 31
0.0
  0
LINE
  5
75
330
1E
100
AcDbEntity
  8
0
100
AcDbLine
 10
174.415975
 20
2.290909999999998
 30
0.0
 11
174.415975
 21
1.14546
 31
0.0
  0
LINE
  5
76
330
1E
100
AcDbEntity
  8
0
100
AcDbLine
 10
174.415975
 20
2.290909999999998
 30
0.0
 11
174.415975
 21
4.327269999999998
 31
0.0
  0
LINE
  5
77
330
1E
100
AcDbEntity
  8
0
100
AcDbLine
 10
174.415975
 20
1.14546
 30
0.0
 11
174.415975
 21
0.6363640000000022
 31
0.0
  0
LINE
  5
78
330
1E
100
AcDbEntity
  8
0
100
AcDbLine
 10
174.415975
 20
1.14546
 30
0.0
 11
174.415975
 21
2.290909999999998
 31
0.0
  0
LINE
  5
8B
330
1E
100
AcDbEntity
  8
0
100
AcDbLine
 10
174.6319749999998
 20
100.0
 30
0.0
 11
176.525975
 21
100.0
 31
0.0
  0
LINE
  5
8D
330
1E
100
AcDbEntity
  8
0
100
AcDbLine
 10
174.415975
 20
0.6363640000000022
 30
0.0
 11
174.642975
 21
0.254545000000001
 31
0.0
  0
LINE
  5
8E
330
1E
100
AcDbEntity
  8
0
100
AcDbLine
 10
174.415975
 20
0.6363640000000022
 30
0.0
 11
174.415975
 21
1.14546
 31
0.0
  0
LINE
  5
8F
330
1E
100
AcDbEntity
  8
0
100
AcDbLine
 10
174.642975
 20
0.254545000000001
 30
0.0
 11
174.9849749999999
 21
0.0000000000000013
 31
0.0
  0
LINE
  5
90
330
1E
100
AcDbEntity
  8
0
100
AcDbLine
 10
174.642975
 20
0.254545000000001
 30
0.0
 11
174.9849749999999
 21
0.0000000000000013
 31
0.0
  0
LINE
  5
9D
330
1E
100
AcDbEntity
  8
0
100
AcDbLine
 10
176.525975
 20
100.0
 30
0.0
 11
202.9999749999999
 21
100.0
 31
0.0
  0
LINE
  5
9E
330
1E
100
AcDbEntity
  8
0
100
AcDbLine
 10
174.9849749999999
 20
0.0000000000000013
 30
0.0
 11
176.6919749999999
 21
0.0000000000000012
 31
0.0
  0
LINE
  5
A0
330
1E
100
AcDbEntity
  8
0
100
AcDbLine
 10
176.6919749999999
 20
0.0000000000000012
 30
0.0
 11
177.0339749999997
 21
0.381818000000001
 31
0.0
  0
LINE
  5
A1
330
1E
100
AcDbEntity
  8
0
100
AcDbLine
 10
177.0339749999997
 20
0.3818180000000011
 30
0.0
 11
177.602975
 21
3.81818
 31
0.0
  0
LINE
  5
A4
330
1E
100
AcDbEntity
  8
0
100
AcDbLine
 10
236.999975
 20
49.2
 30
0.0
 11
236.999975
 21
49.8
 31
0.0
  0
LINE
  5
A5
330
1E
100
AcDbEntity
  8
0
100
AcDbLine
 10
236.999975
 20
49.2
 30
0.0
 11
236.999975
 21
49.0
 31
0.0
  0
LINE
  5
A6
330
1E
100
AcDbEntity
  8
0
100
AcDbLine
 10
230.999975
 20
49.0
 30
0.0
 11
236.999975
 21
49.0
 31
0.0
  0
LINE
  5
A7
330
1E
100
AcDbEntity
  8
0
100
AcDbLine
 10
229.999975
 20
50.2
 30
0.0
 11
229.999975
 21
50.7
 31
0.0
  0
LINE
  5
A8
330
1E
100
AcDbEntity
  8
0
100
AcDbLine
 10
229.999975
 20
50.2
 30
0.0
 11
229.999975
 21
50.0
 31
0.0
  0
LINE
  5
A9
330
1E
100
AcDbEntity
  8
0
100
AcDbLine
 10
230.299975
 20
49.5
 30
0.0
 11
230.299975
 21
49.29999999999999
 31
0.0
  0
LINE
  5
AA
330
1E
100
AcDbEntity
  8
0
100
AcDbLine
 10
230.299975
 20
49.5
 30
0.0
 11
230.299975
 21
50.1
 31
0.0
  0
LINE
  5
AB
330
1E
100
AcDbEntity
  8
0
100
AcDbLine
 10
230.299975
 20
50.1
 30
0.0
 11
230.299975
 21
49.5
 31
0.0
  0
LINE
  5
AC
330
1E
100
AcDbEntity
  8
0
100
AcDbLine
 10
230.299975
 20
50.1
 30
0.0
 11
230.299975
 21
51.0
 31
0.0
  0
LINE
  5
AD
330
1E
100
AcDbEntity
  8
0
100
AcDbLine
 10
236.999975
 20
49.8
 30
0.0
 11
236.999975
 21
50.8
 31
0.0
  0
LINE
  5
AE
330
1E
100
AcDbEntity
  8
0
100
AcDbLine
 10
236.999975
 20
49.8
 30
0.0
 11
236.999975
 21
49.2
 31
0.0
  0
LINE
  5
AF
330
1E
100
AcDbEntity
  8
0
100
AcDbLine
 10
229.999975
 20
50.0
 30
0.0
 11
230.299975
 21
49.29999999999999
 31
0.0
  0
LINE
  5
B0
330
1E
100
AcDbEntity
  8
0
100
AcDbLine
 10
229.999975
 20
50.0
 30
0.0
 11
229.999975
 21
50.2
 31
0.0
  0
LINE
  5
B1
330
1E
100
AcDbEntity
  8
0
100
AcDbLine
 10
230.299975
 20
49.29999999999999
 30
0.0
 11
230.299975
 21
49.5
 31
0.0
  0
LINE
  5
B2
330
1E
100
AcDbEntity
  8
0
100
AcDbLine
 10
236.999975
 20
49.0
 30
0.0
 11
236.999975
 21
49.2
 31
0.0
  0
LINE
  5
B3
330
1E
100
AcDbEntity
  8
0
100
AcDbLine
 10
229.999975
 20
52.5
 30
0.0
 11
229.999975
 21
50.7
 31
0.0
  0
LINE
  5
B4
330
1E
100
AcDbEntity
  8
0
100
AcDbLine
 10
229.999975
 20
52.5
 30
0.0
 11
229.999975
 21
53.7
 31
0.0
  0
LINE
  5
B5
330
1E
100
AcDbEntity
  8
0
100
AcDbLine
 10
229.999975
 20
50.7
 30
0.0
 11
229.999975
 21
50.2
 31
0.0
  0
LINE
  5
B6
330
1E
100
AcDbEntity
  8
0
100
AcDbLine
 10
229.999975
 20
50.7
 30
0.0
 11
229.999975
 21
52.5
 31
0.0
  0
LINE
  5
B7
330
1E
100
AcDbEntity
  8
0
100
AcDbLine
 10
229.999975
 20
53.7
 30
0.0
 11
229.999975
 21
52.5
 31
0.0
  0
LINE
  5
B8
330
1E
100
AcDbEntity
  8
0
100
AcDbLine
 10
229.999975
 20
53.7
 30
0.0
 11
229.999975
 21
55.0
 31
0.0
  0
LINE
  5
B9
330
1E
100
AcDbEntity
  8
0
100
AcDbLine
 10
229.999975
 20
55.0
 30
0.0
 11
229.999975
 21
53.7
 31
0.0
  0
LINE
  5
BA
330
1E
100
AcDbEntity
  8
0
100
AcDbLine
 10
229.999975
 20
55.0
 30
0.0
 11
229.999975
 21
56.0
 31
0.0
  0
LINE
  5
BB
330
1E
100
AcDbEntity
  8
0
100
AcDbLine
 10
229.999975
 20
55.0
 30
0.0
 11
229.999975
 21
66.0
 31
0.0
  0
LINE
  5
BC
330
1E
100
AcDbEntity
  8
0
100
AcDbLine
 10
229.999975
 20
57.4
 30
0.0
 11
229.999975
 21
60.0
 31
0.0
  0
LINE
  5
BD
330
1E
100
AcDbEntity
  8
0
100
AcDbLine
 10
229.999975
 20
57.4
 30
0.0
 11
229.999975
 21
56.4
 31
0.0
  0
LINE
  5
BE
330
1E
100
AcDbEntity
  8
0
100
AcDbLine
 10
229.999975
 20
56.4
 30
0.0
 11
229.999975
 21
57.4
 31
0.0
  0
LINE
  5
BF
330
1E
100
AcDbEntity
  8
0
100
AcDbLine
 10
230.299975
 20
51.0
 30
0.0
 11
230.299975
 21
52.2
 31
0.0
  0
LINE
  5
C0
330
1E
100
AcDbEntity
  8
0
100
AcDbLine
 10
230.299975
 20
51.0
 30
0.0
 11
230.299975
 21
50.1
 31
0.0
  0
LINE
  5
C1
330
1E
100
AcDbEntity
  8
0
100
AcDbLine
 10
230.299975
 20
52.2
 30
0.0
 11
230.299975
 21
51.0
 31
0.0
  0
LINE
  5
C2
330
1E
100
AcDbEntity
  8
0
100
AcDbLine
 10
230.299975
 20
52.2
 30
0.0
 11
230.299975
 21
53.5
 31
0.0
  0
LINE
  5
C3
330
1E
100
AcDbEntity
  8
0
100
AcDbLine
 10
230.299975
 20
53.5
 30
0.0
 11
230.299975
 21
55.0
 31
0.0
  0
LINE
  5
C4
330
1E
100
AcDbEntity
  8
0
100
AcDbLine
 10
230.299975
 20
53.5
 30
0.0
 11
230.299975
 21
52.2
 31
0.0
  0
LINE
  5
C5
330
1E
100
AcDbEntity
  8
0
100
AcDbLine
 10
236.999975
 20
55.0
 30
0.0
 11
236.999975
 21
83.0
 31
0.0
  0
LINE
  5
C6
330
1E
100
AcDbEntity
  8
0
100
AcDbLine
 10
236.999975
 20
55.0
 30
0.0
 11
236.999975
 21
53.5
 31
0.0
  0
LINE
  5
C7
330
1E
100
AcDbEntity
  8
0
100
AcDbLine
 10
236.999975
 20
53.5
 30
0.0
 11
236.999975
 21
55.0
 31
0.0
  0
LINE
  5
C8
330
1E
100
AcDbEntity
  8
0
100
AcDbLine
 10
236.999975
 20
53.5
 30
0.0
 11
236.999975
 21
52.0
 31
0.0
  0
LINE
  5
C9
330
1E
100
AcDbEntity
  8
0
100
AcDbLine
 10
236.999975
 20
52.0
 30
0.0
 11
236.999975
 21
53.5
 31
0.0
  0
LINE
  5
CA
330
1E
100
AcDbEntity
  8
0
100
AcDbLine
 10
236.999975
 20
52.0
 30
0.0
 11
236.999975
 21
50.8
 31
0.0
  0
LINE
  5
CB
330
1E
100
AcDbEntity
  8
0
100
AcDbLine
 10
236.999975
 20
50.8
 30
0.0
 11
236.999975
 21
52.0
 31
0.0
  0
LINE
  5
CC
330
1E
100
AcDbEntity
  8
0
100
AcDbLine
 10
236.999975
 20
50.8
 30
0.0
 11
236.999975
 21
49.8
 31
0.0
  0
LINE
  5
CD
330
1E
100
AcDbEntity
  8
0
100
AcDbLine
 10
230.299975
 20
55.0
 30
0.0
 11
230.299975
 21
83.0
 31
0.0
  0
LINE
  5
CE
330
1E
100
AcDbEntity
  8
0
100
AcDbLine
 10
230.299975
 20
55.0
 30
0.0
 11
230.299975
 21
53.5
 31
0.0
  0
LINE
  5
CF
330
1E
100
AcDbEntity
  8
0
100
AcDbLine
 10
229.999975
 20
56.0
 30
0.0
 11
229.999975
 21
55.0
 31
0.0
  0
LINE
  5
D0
330
1E
100
AcDbEntity
  8
0
100
AcDbLine
 10
229.999975
 20
58.7
 30
0.0
 11
229.999975
 21
63.2
 31
0.0
  0
LINE
  5
D1
330
1E
100
AcDbEntity
  8
0
100
AcDbLine
 10
229.999975
 20
60.0
 30
0.0
 11
229.999975
 21
57.4
 31
0.0
  0
LINE
  5
D2
330
1E
100
AcDbEntity
  8
0
100
AcDbLine
 10
229.999975
 20
60.0
 30
0.0
 11
229.999975
 21
64.2
 31
0.0
  0
LINE
  5
D3
330
1E
100
AcDbEntity
  8
0
100
AcDbLine
 10
229.999975
 20
63.2
 30
0.0
 11
229.999975
 21
66.0
 31
0.0
  0
LINE
  5
D4
330
1E
100
AcDbEntity
  8
0
100
AcDbLine
 10
229.999975
 20
63.2
 30
0.0
 11
229.999975
 21
58.7
 31
0.0
  0
LINE
  5
D5
330
1E
100
AcDbEntity
  8
0
100
AcDbLine
 10
229.999975
 20
63.2
 30
0.0
 11
229.999975
 21
69.1
 31
0.0
  0
LINE
  5
D6
330
1E
100
AcDbEntity
  8
0
100
AcDbLine
 10
229.999975
 20
65.5
 30
0.0
 11
229.999975
 21
66.0922
 31
0.0
  0
LINE
  5
D7
330
1E
100
AcDbEntity
  8
0
100
AcDbLine
 10
229.999975
 20
65.5
 30
0.0
 11
229.999975
 21
66.0
 31
0.0
  0
LINE
  5
D8
330
1E
100
AcDbEntity
  8
0
100
AcDbLine
 10
229.999975
 20
64.2
 30
0.0
 11
229.999975
 21
66.0
 31
0.0
  0
LINE
  5
D9
330
1E
100
AcDbEntity
  8
0
100
AcDbLine
 10
229.999975
 20
64.2
 30
0.0
 11
229.999975
 21
60.0
 31
0.0
  0
LINE
  5
DA
330
1E
100
AcDbEntity
  8
0
100
AcDbLine
 10
204.154975
 20
95.05349999999999
 30
0.0
 11
205.0379749999998
 21
91.40089999999998
 31
0.0
  0
LINE
  5
DB
330
1E
100
AcDbEntity
  8
0
100
AcDbLine
 10
203.524975
 20
97.7236
 30
0.0
 11
204.154975
 21
95.05349999999999
 31
0.0
  0
LINE
  5
DC
330
1E
100
AcDbEntity
  8
0
100
AcDbLine
 10
203.360530076031
 20
98.41231003145001
 30
0.0
 11
204.1999749999999
 21
98.6667
 31
0.0
  0
LINE
  5
DD
330
1E
100
AcDbEntity
  8
0
100
AcDbLine
 10
229.999975
 20
66.0
 30
0.0
 11
229.999975
 21
64.2
 31
0.0
  0
LINE
  5
DE
330
1E
100
AcDbEntity
  8
0
100
AcDbLine
 10
229.999975
 20
66.0
 30
0.0
 11
229.999975
 21
65.5
 31
0.0
  0
LINE
  5
DF
330
1E
100
AcDbEntity
  8
0
100
AcDbLine
 10
229.999975
 20
66.0
 30
0.0
 11
229.999975
 21
63.2
 31
0.0
  0
LINE
  5
E0
330
1E
100
AcDbEntity
  8
0
100
AcDbLine
 10
229.999975
 20
66.0
 30
0.0
 11
229.999975
 21
55.0
 31
0.0
  0
LINE
  5
E1
330
1E
100
AcDbEntity
  8
0
100
AcDbLine
 10
211.226975
 20
66.84999999999999
 30
0.0
 11
211.226975
 21
68.5
 31
0.0
  0
LINE
  5
E2
330
1E
100
AcDbEntity
  8
0
100
AcDbLine
 10
211.226975
 20
66.84999999999999
 30
0.0
 11
211.226975
 21
66.25
 31
0.0
  0
LINE
  5
E3
330
1E
100
AcDbEntity
  8
0
100
AcDbLine
 10
210.999975
 20
66.75
 30
0.0
 11
211.226975
 21
66.25
 31
0.0
  0
LINE
  5
E4
330
1E
100
AcDbEntity
  8
0
100
AcDbLine
 10
210.999975
 20
66.75
 30
0.0
 11
210.999975
 21
67.34999999999999
 31
0.0
  0
LINE
  5
E5
330
1E
100
AcDbEntity
  8
0
100
AcDbLine
 10
229.999975
 20
66.0922
 30
0.0
 11
229.999975
 21
67.8105
 31
0.0
  0
LINE
  5
E6
330
1E
100
AcDbEntity
  8
0
100
AcDbLine
 10
229.999975
 20
66.0922
 30
0.0
 11
229.999975
 21
65.5
 31
0.0
  0
LINE
  5
E7
330
1E
100
AcDbEntity
  8
0
100
AcDbLine
 10
211.226975
 20
66.25
 30
0.0
 11
211.6819749999999
 21
66.0
 31
0.0
  0
LINE
  5
E8
330
1E
100
AcDbEntity
  8
0
100
AcDbLine
 10
211.226975
 20
66.25
 30
0.0
 11
211.226975
 21
66.84999999999999
 31
0.0
  0
LINE
  5
E9
330
1E
100
AcDbEntity
  8
0
100
AcDbLine
 10
211.6819749999999
 20
66.0
 30
0.0
 11
229.999975
 21
66.0
 31
0.0
  0
LINE
  5
EA
330
1E
100
AcDbEntity
  8
0
100
AcDbLine
 10
206.999975
 20
66.6476
 30
0.0
 11
206.999975
 21
66.0
 31
0.0
  0
LINE
  5
EB
330
1E
100
AcDbEntity
  8
0
100
AcDbLine
 10
206.999975
 20
83.0
 30
0.0
 11
206.999975
 21
78.62860000000002
 31
0.0
  0
LINE
  5
EC
330
1E
100
AcDbEntity
  8
0
100
AcDbLine
 10
206.999975
 20
78.62860000000002
 30
0.0
 11
206.999975
 21
74.581
 31
0.0
  0
LINE
  5
ED
330
1E
100
AcDbEntity
  8
0
100
AcDbLine
 10
206.999975
 20
74.581
 30
0.0
 11
206.999975
 21
71.0191
 31
0.0
  0
LINE
  5
EE
330
1E
100
AcDbEntity
  8
0
100
AcDbLine
 10
206.999975
 20
71.0191
 30
0.0
 11
206.999975
 21
68.2667
 31
0.0
  0
LINE
  5
EF
330
1E
100
AcDbEntity
  8
0
100
AcDbLine
 10
210.999975
 20
68.95
 30
0.0
 11
210.999975
 21
67.34999999999999
 31
0.0
  0
LINE
  5
F0
330
1E
100
AcDbEntity
  8
0
100
AcDbLine
 10
210.999975
 20
67.34999999999999
 30
0.0
 11
210.999975
 21
68.95
 31
0.0
  0
LINE
  5
F1
330
1E
100
AcDbEntity
  8
0
100
AcDbLine
 10
210.999975
 20
67.34999999999999
 30
0.0
 11
210.999975
 21
66.75
 31
0.0
  0
LINE
  5
F2
330
1E
100
AcDbEntity
  8
0
100
AcDbLine
 10
210.999975
 20
71.5
 30
0.0
 11
210.999975
 21
74.90000000000001
 31
0.0
  0
LINE
  5
F3
330
1E
100
AcDbEntity
  8
0
100
AcDbLine
 10
210.999975
 20
74.90000000000001
 30
0.0
 11
210.999975
 21
78.79999999999999
 31
0.0
  0
LINE
  5
F4
330
1E
100
AcDbEntity
  8
0
100
AcDbLine
 10
210.999975
 20
74.90000000000001
 30
0.0
 11
210.999975
 21
71.5
 31
0.0
  0
LINE
  5
F5
330
1E
100
AcDbEntity
  8
0
100
AcDbLine
 10
210.999975
 20
71.73329999999999
 30
0.0
 11
210.999975
 21
69.13330000000001
 31
0.0
  0
LINE
  5
F6
330
1E
100
AcDbEntity
  8
0
100
AcDbLine
 10
210.999975
 20
69.13330000000001
 30
0.0
 11
210.999975
 21
67.59999999999999
 31
0.0
  0
LINE
  5
F7
330
1E
100
AcDbEntity
  8
0
100
AcDbLine
 10
210.999975
 20
67.59999999999999
 30
0.0
 11
210.999975
 21
67.0
 31
0.0
  0
LINE
  5
F8
330
1E
100
AcDbEntity
  8
0
100
AcDbLine
 10
210.999975
 20
78.79999999999999
 30
0.0
 11
210.999975
 21
74.90000000000001
 31
0.0
  0
LINE
  5
F9
330
1E
100
AcDbEntity
  8
0
100
AcDbLine
 10
210.999975
 20
75.06669999999998
 30
0.0
 11
210.999975
 21
71.73329999999999
 31
0.0
  0
LINE
  5
FA
330
1E
100
AcDbEntity
  8
0
100
AcDbLine
 10
229.999975
 20
67.8105
 30
0.0
 11
229.999975
 21
70.59999999999998
 31
0.0
  0
LINE
  5
FB
330
1E
100
AcDbEntity
  8
0
100
AcDbLine
 10
229.999975
 20
67.8105
 30
0.0
 11
229.999975
 21
66.0922
 31
0.0
  0
LINE
  5
FC
330
1E
100
AcDbEntity
  8
0
100
AcDbLine
 10
211.226975
 20
74.65
 30
0.0
 11
211.226975
 21
78.7
 31
0.0
  0
LINE
  5
FD
330
1E
100
AcDbEntity
  8
0
100
AcDbLine
 10
211.226975
 20
74.65
 30
0.0
 11
211.226975
 21
71.15000000000001
 31
0.0
  0
LINE
  5
FE
330
1E
100
AcDbEntity
  8
0
100
AcDbLine
 10
211.226975
 20
83.0
 30
0.0
 11
211.226975
 21
78.7
 31
0.0
  0
LINE
  5
FF
330
1E
100
AcDbEntity
  8
0
100
AcDbLine
 10
211.226975
 20
83.0
 30
0.0
 11
211.226975
 21
87.3
 31
0.0
  0
LINE
  5
100
330
1E
100
AcDbEntity
  8
0
100
AcDbLine
 10
211.226975
 20
78.7
 30
0.0
 11
211.226975
 21
83.0
 31
0.0
  0
LINE
  5
101
330
1E
100
AcDbEntity
  8
0
100
AcDbLine
 10
211.226975
 20
78.7
 30
0.0
 11
211.226975
 21
74.65
 31
0.0
  0
LINE
  5
102
330
1E
100
AcDbEntity
  8
0
100
AcDbLine
 10
229.999975
 20
74.2312
 30
0.0
 11
229.999975
 21
78.4824
 31
0.0
  0
LINE
  5
103
330
1E
100
AcDbEntity
  8
0
100
AcDbLine
 10
229.999975
 20
74.2312
 30
0.0
 11
229.999975
 21
70.59999999999998
 31
0.0
  0
LINE
  5
104
330
1E
100
AcDbEntity
  8
0
100
AcDbLine
 10
229.999975
 20
78.4824
 30
0.0
 11
229.999975
 21
83.0
 31
0.0
  0
LINE
  5
105
330
1E
100
AcDbEntity
  8
0
100
AcDbLine
 10
229.999975
 20
78.4824
 30
0.0
 11
229.999975
 21
74.2312
 31
0.0
  0
LINE
  5
106
330
1E
100
AcDbEntity
  8
0
100
AcDbLine
 10
229.999975
 20
69.1
 30
0.0
 11
229.999975
 21
63.2
 31
0.0
  0
LINE
  5
107
330
1E
100
AcDbEntity
  8
0
100
AcDbLine
 10
236.999975
 20
83.0
 30
0.0
 11
236.999975
 21
55.0
 31
0.0
  0
LINE
  5
108
330
1E
100
AcDbEntity
  8
0
100
AcDbLine
 10
236.999975
 20
83.0
 30
0.0
 11
236.999975
 21
111.0
 31
0.0
  0
LINE
  5
109
330
1E
100
AcDbEntity
  8
0
100
AcDbLine
 10
230.299975
 20
83.0
 30
0.0
 11
230.299975
 21
55.0
 31
0.0
  0
LINE
  5
10A
330
1E
100
AcDbEntity
  8
0
100
AcDbLine
 10
230.299975
 20
83.0
 30
0.0
 11
230.299975
 21
111.0
 31
0.0
  0
LINE
  5
10B
330
1E
100
AcDbEntity
  8
0
100
AcDbLine
 10
229.999975
 20
70.59999999999998
 30
0.0
 11
229.999975
 21
67.8105
 31
0.0
  0
LINE
  5
10C
330
1E
100
AcDbEntity
  8
0
100
AcDbLine
 10
229.999975
 20
70.59999999999998
 30
0.0
 11
229.999975
 21
74.2312
 31
0.0
  0
LINE
  5
10D
330
1E
100
AcDbEntity
  8
0
100
AcDbLine
 10
229.999975
 20
83.0
 30
0.0
 11
229.999975
 21
87.5176
 31
0.0
  0
LINE
  5
10E
330
1E
100
AcDbEntity
  8
0
100
AcDbLine
 10
229.999975
 20
83.0
 30
0.0
 11
229.999975
 21
78.4824
 31
0.0
  0
LINE
  5
10F
330
1E
100
AcDbEntity
  8
0
100
AcDbLine
 10
211.226975
 20
71.15000000000001
 30
0.0
 11
211.226975
 21
68.5
 31
0.0
  0
LINE
  5
110
330
1E
100
AcDbEntity
  8
0
100
AcDbLine
 10
211.226975
 20
71.15000000000001
 30
0.0
 11
211.226975
 21
74.65
 31
0.0
  0
LINE
  5
111
330
1E
100
AcDbEntity
  8
0
100
AcDbLine
 10
211.226975
 20
68.5
 30
0.0
 11
211.226975
 21
71.15000000000001
 31
0.0
  0
LINE
  5
112
330
1E
100
AcDbEntity
  8
0
100
AcDbLine
 10
211.226975
 20
68.5
 30
0.0
 11
211.226975
 21
66.84999999999999
 31
0.0
  0
LINE
  5
113
330
1E
100
AcDbEntity
  8
0
100
AcDbLine
 10
210.999975
 20
78.8666
 30
0.0
 11
210.999975
 21
75.06669999999998
 31
0.0
  0
LINE
  5
114
330
1E
100
AcDbEntity
  8
0
100
AcDbLine
 10
210.999975
 20
87.2
 30
0.0
 11
210.999975
 21
83.0
 31
0.0
  0
LINE
  5
115
330
1E
100
AcDbEntity
  8
0
100
AcDbLine
 10
211.226975
 20
87.3
 30
0.0
 11
211.226975
 21
91.34999999999999
 31
0.0
  0
LINE
  5
116
330
1E
100
AcDbEntity
  8
0
100
AcDbLine
 10
211.226975
 20
87.3
 30
0.0
 11
211.226975
 21
83.0
 31
0.0
  0
LINE
  5
117
330
1E
100
AcDbEntity
  8
0
100
AcDbLine
 10
210.999975
 20
87.1334
 30
0.0
 11
210.999975
 21
83.0
 31
0.0
  0
LINE
  5
118
330
1E
100
AcDbEntity
  8
0
100
AcDbLine
 10
210.999975
 20
83.0
 30
0.0
 11
210.999975
 21
78.8666
 31
0.0
  0
LINE
  5
119
330
1E
100
AcDbEntity
  8
0
100
AcDbLine
 10
210.999975
 20
83.0
 30
0.0
 11
210.999975
 21
87.2
 31
0.0
  0
LINE
  5
11A
330
1E
100
AcDbEntity
  8
0
100
AcDbLine
 10
206.999975
 20
68.2667
 30
0.0
 11
206.999975
 21
66.6476
 31
0.0
  0
LINE
  5
11B
330
1E
100
AcDbEntity
  8
0
100
AcDbLine
 10
210.999975
 20
96.86669999999999
 30
0.0
 11
210.999975
 21
94.26669999999999
 31
0.0
  0
LINE
  5
11C
330
1E
100
AcDbEntity
  8
0
100
AcDbLine
 10
210.999975
 20
98.40000000000001
 30
0.0
 11
210.999975
 21
96.86669999999999
 31
0.0
  0
LINE
  5
11D
330
1E
100
AcDbEntity
  8
0
100
AcDbLine
 10
210.999975
 20
99.0
 30
0.0
 11
210.999975
 21
98.40000000000001
 31
0.0
  0
LINE
  5
11E
330
1E
100
AcDbEntity
  8
0
100
AcDbLine
 10
210.999975
 20
99.0
 30
0.0
 11
210.999975
 21
99.25
 31
0.0
  0
LINE
  5
11F
330
1E
100
AcDbEntity
  8
0
100
AcDbLine
 10
210.999975
 20
94.26669999999999
 30
0.0
 11
210.999975
 21
90.93329999999999
 31
0.0
  0
LINE
  5
120
330
1E
100
AcDbEntity
  8
0
100
AcDbLine
 10
211.226975
 20
91.34999999999999
 30
0.0
 11
211.226975
 21
94.84999999999999
 31
0.0
  0
LINE
  5
121
330
1E
100
AcDbEntity
  8
0
100
AcDbLine
 10
211.226975
 20
91.34999999999999
 30
0.0
 11
211.226975
 21
87.3
 31
0.0
  0
LINE
  5
122
330
1E
100
AcDbEntity
  8
0
100
AcDbLine
 10
229.999975
 20
91.7688
 30
0.0
 11
229.999975
 21
95.4
 31
0.0
  0
LINE
  5
123
330
1E
100
AcDbEntity
  8
0
100
AcDbLine
 10
229.999975
 20
91.7688
 30
0.0
 11
229.999975
 21
87.5176
 31
0.0
  0
LINE
  5
124
330
1E
100
AcDbEntity
  8
0
100
AcDbLine
 10
229.999975
 20
87.5176
 30
0.0
 11
229.999975
 21
91.7688
 31
0.0
  0
LINE
  5
125
330
1E
100
AcDbEntity
  8
0
100
AcDbLine
 10
229.999975
 20
87.5176
 30
0.0
 11
229.999975
 21
83.0
 31
0.0
  0
LINE
  5
126
330
1E
100
AcDbEntity
  8
0
100
AcDbLine
 10
229.999975
 20
96.90000000000001
 30
0.0
 11
229.999975
 21
102.8
 31
0.0
  0
LINE
  5
127
330
1E
100
AcDbEntity
  8
0
100
AcDbLine
 10
229.999975
 20
96.2
 30
0.0
 11
229.999975
 21
101.8
 31
0.0
  0
LINE
  5
128
330
1E
100
AcDbEntity
  8
0
100
AcDbLine
 10
229.999975
 20
95.4
 30
0.0
 11
229.999975
 21
98.1895
 31
0.0
  0
LINE
  5
129
330
1E
100
AcDbEntity
  8
0
100
AcDbLine
 10
229.999975
 20
95.4
 30
0.0
 11
229.999975
 21
91.7688
 31
0.0
  0
LINE
  5
12A
330
1E
100
AcDbEntity
  8
0
100
AcDbLine
 10
211.226975
 20
94.84999999999999
 30
0.0
 11
211.226975
 21
97.5
 31
0.0
  0
LINE
  5
12B
330
1E
100
AcDbEntity
  8
0
100
AcDbLine
 10
211.226975
 20
94.84999999999999
 30
0.0
 11
211.226975
 21
91.34999999999999
 31
0.0
  0
LINE
  5
12C
330
1E
100
AcDbEntity
  8
0
100
AcDbLine
 10
229.999975
 20
98.1895
 30
0.0
 11
229.999975
 21
99.9078
 31
0.0
  0
LINE
  5
12D
330
1E
100
AcDbEntity
  8
0
100
AcDbLine
 10
229.999975
 20
98.1895
 30
0.0
 11
229.999975
 21
95.4
 31
0.0
  0
LINE
  5
12E
330
1E
100
AcDbEntity
  8
0
100
AcDbLine
 10
211.226975
 20
97.5
 30
0.0
 11
211.226975
 21
99.15
 31
0.0
  0
LINE
  5
12F
330
1E
100
AcDbEntity
  8
0
100
AcDbLine
 10
211.226975
 20
97.5
 30
0.0
 11
211.226975
 21
94.84999999999999
 31
0.0
  0
LINE
  5
130
330
1E
100
AcDbEntity
  8
0
100
AcDbLine
 10
210.999975
 20
90.93329999999999
 30
0.0
 11
210.999975
 21
87.1334
 31
0.0
  0
LINE
  5
131
330
1E
100
AcDbEntity
  8
0
100
AcDbLine
 10
205.944975
 20
87.3956
 30
0.0
 11
206.999975
 21
83.0
 31
0.0
  0
LINE
  5
132
330
1E
100
AcDbEntity
  8
0
100
AcDbLine
 10
205.0379749999998
 20
91.40089999999998
 30
0.0
 11
205.944975
 21
87.3956
 31
0.0
  0
LINE
  5
133
330
1E
100
AcDbEntity
  8
0
100
AcDbLine
 10
206.999975
 20
67.0
 30
0.0
 11
210.999975
 21
67.0
 31
0.0
  0
LINE
  5
134
330
1E
100
AcDbEntity
  8
0
100
AcDbLine
 10
204.1999749999999
 20
98.6667
 30
0.0
 11
206.999975
 21
99.0
 31
0.0
  0
LINE
  5
135
330
1E
100
AcDbEntity
  8
0
100
AcDbLine
 10
210.999975
 20
99.25
 30
0.0
 11
211.226975
 21
99.75000000000001
 31
0.0
  0
LINE
  5
136
330
1E
100
AcDbEntity
  8
0
100
AcDbLine
 10
210.999975
 20
99.25
 30
0.0
 11
210.999975
 21
99.0
 31
0.0
  0
LINE
  5
137
330
1E
100
AcDbEntity
  8
0
100
AcDbLine
 10
211.226975
 20
99.15
 30
0.0
 11
211.226975
 21
99.75000000000001
 31
0.0
  0
LINE
  5
138
330
1E
100
AcDbEntity
  8
0
100
AcDbLine
 10
211.226975
 20
99.15
 30
0.0
 11
211.226975
 21
97.5
 31
0.0
  0
LINE
  5
139
330
1E
100
AcDbEntity
  8
0
100
AcDbLine
 10
211.226975
 20
99.75000000000001
 30
0.0
 11
211.6819749999999
 21
100.0
 31
0.0
  0
LINE
  5
13A
330
1E
100
AcDbEntity
  8
0
100
AcDbLine
 10
211.226975
 20
99.75000000000001
 30
0.0
 11
211.226975
 21
99.15
 31
0.0
  0
LINE
  5
13B
330
1E
100
AcDbEntity
  8
0
100
AcDbLine
 10
229.999975
 20
99.9078
 30
0.0
 11
229.999975
 21
100.5
 31
0.0
  0
LINE
  5
13C
330
1E
100
AcDbEntity
  8
0
100
AcDbLine
 10
229.999975
 20
99.9078
 30
0.0
 11
229.999975
 21
98.1895
 31
0.0
  0
LINE
  5
13D
330
1E
100
AcDbEntity
  8
0
100
AcDbLine
 10
211.6819749999999
 20
100.0
 30
0.0
 11
229.999975
 21
100.0
 31
0.0
  0
LINE
  5
13E
330
1E
100
AcDbEntity
  8
0
100
AcDbLine
 10
203.1219749999999
 20
99.4114
 30
0.0
 11
203.524975
 21
97.7236
 31
0.0
  0
LINE
  5
13F
330
1E
100
AcDbEntity
  8
0
100
AcDbLine
 10
202.9999749999999
 20
100.0
 30
0.0
 11
203.1219749999999
 21
99.4114
 31
0.0
  0
LINE
  5
140
330
1E
100
AcDbEntity
  8
0
100
AcDbLine
 10
206.999975
 20
99.0
 30
0.0
 11
210.999975
 21
99.0
 31
0.0
  0
LINE
  5
141
330
1E
100
AcDbEntity
  8
0
100
AcDbLine
 10
192.946975
 20
66.0
 30
0.0
 11
206.999975
 21
66.0
 31
0.0
  0
LINE
  5
142
330
1E
100
AcDbEntity
  8
0
100
AcDbLine
 10
191.6839749999999
 20
65.83809999999999
 30
0.0
 11
192.946975
 21
66.0
 31
0.0
  0
LINE
  5
143
330
1E
100
AcDbEntity
  8
0
100
AcDbLine
 10
189.2839749999999
 20
65.1905
 30
0.0
 11
191.6839749999999
 21
65.83809999999999
 31
0.0
  0
LINE
  5
144
330
1E
100
AcDbEntity
  8
0
100
AcDbLine
 10
186.7579749999999
 20
63.8952
 30
0.0
 11
189.2839749999999
 21
65.1905
 31
0.0
  0
LINE
  5
145
330
1E
100
AcDbEntity
  8
0
100
AcDbLine
 10
184.1049749999999
 20
61.4667
 30
0.0
 11
186.7579749999999
 21
63.8952
 31
0.0
  0
LINE
  5
146
330
1E
100
AcDbEntity
  8
0
100
AcDbLine
 10
181.957975
 20
58.0667
 30
0.0
 11
184.1049749999999
 21
61.4667
 31
0.0
  0
LINE
  5
147
330
1E
100
AcDbEntity
  8
0
100
AcDbLine
 10
180.8209749999999
 20
54.181
 30
0.0
 11
181.957975
 21
58.0667
 31
0.0
  0
LINE
  5
148
330
1E
100
AcDbEntity
  8
0
100
AcDbLine
 10
180.3159749999999
 20
50.2952
 30
0.0
 11
180.8209749999999
 21
54.181
 31
0.0
  0
LINE
  5
149
330
1E
100
AcDbEntity
  8
0
100
AcDbLine
 10
180.256975
 20
49.0
 30
0.0
 11
180.3159749999999
 21
50.2952
 31
0.0
  0
LINE
  5
14A
330
1E
100
AcDbEntity
  8
0
100
AcDbLine
 10
178.171975
 20
13.36359999999999
 30
0.0
 11
180.256975
 21
49.0
 31
0.0
  0
LINE
  5
14B
330
1E
100
AcDbEntity
  8
0
100
AcDbLine
 10
178.0009749999999
 20
9.97188
 30
0.0
 11
178.171975
 21
13.36359999999999
 31
0.0
  0
LINE
  5
14C
330
1E
100
AcDbEntity
  8
0
100
AcDbLine
 10
177.8139749999999
 20
6.77376
 30
0.0
 11
178.0009749999999
 21
9.97188
 31
0.0
  0
LINE
  5
14D
330
1E
100
AcDbEntity
  8
0
100
AcDbLine
 10
177.602975
 20
3.81818
 30
0.0
 11
177.8139749999999
 21
6.77376
 31
0.0
  0
LINE
  5
14E
330
1E
100
AcDbEntity
  8
0
100
AcDbLine
 10
177.0339749999997
 20
0.3818180000000011
 30
0.0
 11
177.602975
 21
3.81818
 31
0.0
  0
LINE
  5
14F
330
1E
100
AcDbEntity
  8
0
100
AcDbLine
 10
176.6919749999999
 20
0.0000000000000012
 30
0.0
 11
177.0339749999997
 21
0.381818000000001
 31
0.0
  0
LINE
  5
150
330
1E
100
AcDbEntity
  8
0
100
AcDbLine
 10
229.999975
 20
102.8
 30
0.0
 11
229.999975
 21
96.90000000000001
 31
0.0
  0
LINE
  5
151
330
1E
100
AcDbEntity
  8
0
100
AcDbLine
 10
229.999975
 20
102.8
 30
0.0
 11
229.999975
 21
107.2999999999999
 31
0.0
  0
LINE
  5
152
330
1E
100
AcDbEntity
  8
0
100
AcDbLine
 10
229.999975
 20
102.8
 30
0.0
 11
229.999975
 21
100.0
 31
0.0
  0
LINE
  5
153
330
1E
100
AcDbEntity
  8
0
100
AcDbLine
 10
229.999975
 20
106.0
 30
0.0
 11
229.999975
 21
101.8
 31
0.0
  0
LINE
  5
154
330
1E
100
AcDbEntity
  8
0
100
AcDbLine
 10
229.999975
 20
106.0
 30
0.0
 11
229.999975
 21
108.6
 31
0.0
  0
LINE
  5
155
330
1E
100
AcDbEntity
  8
0
100
AcDbLine
 10
229.999975
 20
107.2999999999999
 30
0.0
 11
229.999975
 21
102.8
 31
0.0
  0
LINE
  5
156
330
1E
100
AcDbEntity
  8
0
100
AcDbLine
 10
229.999975
 20
108.6
 30
0.0
 11
229.999975
 21
109.5999999999999
 31
0.0
  0
LINE
  5
157
330
1E
100
AcDbEntity
  8
0
100
AcDbLine
 10
229.999975
 20
108.6
 30
0.0
 11
229.999975
 21
106.0
 31
0.0
  0
LINE
  5
158
330
1E
100
AcDbEntity
  8
0
100
AcDbLine
 10
229.999975
 20
100.5
 30
0.0
 11
229.999975
 21
100.0
 31
0.0
  0
LINE
  5
159
330
1E
100
AcDbEntity
  8
0
100
AcDbLine
 10
229.999975
 20
100.5
 30
0.0
 11
229.999975
 21
99.9078
 31
0.0
  0
LINE
  5
15A
330
1E
100
AcDbEntity
  8
0
100
AcDbLine
 10
229.999975
 20
111.0
 30
0.0
 11
229.999975
 21
112.2999999999999
 31
0.0
  0
LINE
  5
15B
330
1E
100
AcDbEntity
  8
0
100
AcDbLine
 10
229.999975
 20
111.0
 30
0.0
 11
229.999975
 21
100.0
 31
0.0
  0
LINE
  5
15C
330
1E
100
AcDbEntity
  8
0
100
AcDbLine
 10
229.999975
 20
114.5
 30
0.0
 11
229.999975
 21
115.3
 31
0.0
  0
LINE
  5
15D
330
1E
100
AcDbEntity
  8
0
100
AcDbLine
 10
229.999975
 20
115.3
 30
0.0
 11
229.999975
 21
115.7999999999999
 31
0.0
  0
LINE
  5
15E
330
1E
100
AcDbEntity
  8
0
100
AcDbLine
 10
229.999975
 20
115.3
 30
0.0
 11
229.999975
 21
114.5
 31
0.0
  0
LINE
  5
15F
330
1E
100
AcDbEntity
  8
0
100
AcDbLine
 10
229.999975
 20
116.0
 30
0.0
 11
229.999975
 21
115.7999999999999
 31
0.0
  0
LINE
  5
160
330
1E
100
AcDbEntity
  8
0
100
AcDbLine
 10
229.999975
 20
115.7999999999999
 30
0.0
 11
229.999975
 21
115.3
 31
0.0
  0
LINE
  5
161
330
1E
100
AcDbEntity
  8
0
100
AcDbLine
 10
229.999975
 20
115.7999999999999
 30
0.0
 11
229.999975
 21
116.0
 31
0.0
  0
LINE
  5
162
330
1E
100
AcDbEntity
  8
0
100
AcDbLine
 10
229.999975
 20
114.5
 30
0.0
 11
229.999975
 21
112.2999999999999
 31
0.0
  0
LINE
  5
163
330
1E
100
AcDbEntity
  8
0
100
AcDbLine
 10
229.999975
 20
112.2999999999999
 30
0.0
 11
229.999975
 21
111.0
 31
0.0
  0
LINE
  5
164
330
1E
100
AcDbEntity
  8
0
100
AcDbLine
 10
229.999975
 20
112.2999999999999
 30
0.0
 11
229.999975
 21
114.5
 31
0.0
  0
LINE
  5
165
330
1E
100
AcDbEntity
  8
0
100
AcDbLine
 10
229.999975
 20
109.5999999999999
 30
0.0
 11
229.999975
 21
108.6
 31
0.0
  0
LINE
  5
166
330
1E
100
AcDbEntity
  8
0
100
AcDbLine
 10
230.299975
 20
113.7999999999999
 30
0.0
 11
230.299975
 21
115.0
 31
0.0
  0
LINE
  5
167
330
1E
100
AcDbEntity
  8
0
100
AcDbLine
 10
230.299975
 20
113.7999999999999
 30
0.0
 11
230.299975
 21
112.5
 31
0.0
  0
LINE
  5
168
330
1E
100
AcDbEntity
  8
0
100
AcDbLine
 10
230.299975
 20
115.0
 30
0.0
 11
230.299975
 21
113.7999999999999
 31
0.0
  0
LINE
  5
169
330
1E
100
AcDbEntity
  8
0
100
AcDbLine
 10
230.299975
 20
115.0
 30
0.0
 11
230.299975
 21
115.9
 31
0.0
  0
LINE
  5
16A
330
1E
100
AcDbEntity
  8
0
100
AcDbLine
 10
230.299975
 20
112.5
 30
0.0
 11
230.299975
 21
111.0
 31
0.0
  0
LINE
  5
16B
330
1E
100
AcDbEntity
  8
0
100
AcDbLine
 10
230.299975
 20
112.5
 30
0.0
 11
230.299975
 21
113.7999999999999
 31
0.0
  0
LINE
  5
16C
330
1E
100
AcDbEntity
  8
0
100
AcDbLine
 10
230.299975
 20
115.9
 30
0.0
 11
230.299975
 21
116.5
 31
0.0
  0
LINE
  5
16D
330
1E
100
AcDbEntity
  8
0
100
AcDbLine
 10
230.299975
 20
115.9
 30
0.0
 11
230.299975
 21
115.0
 31
0.0
  0
LINE
  5
16E
330
1E
100
AcDbEntity
  8
0
100
AcDbLine
 10
230.299975
 20
116.5
 30
0.0
 11
230.299975
 21
116.7
 31
0.0
  0
LINE
  5
16F
330
1E
100
AcDbEntity
  8
0
100
AcDbLine
 10
230.299975
 20
116.5
 30
0.0
 11
230.299975
 21
115.9
 31
0.0
  0
LINE
  5
170
330
1E
100
AcDbEntity
  8
0
100
AcDbLine
 10
230.299975
 20
111.0
 30
0.0
 11
230.299975
 21
83.0
 31
0.0
  0
LINE
  5
171
330
1E
100
AcDbEntity
  8
0
100
AcDbLine
 10
230.299975
 20
111.0
 30
0.0
 11
230.299975
 21
112.5
 31
0.0
  0
LINE
  5
172
330
1E
100
AcDbEntity
  8
0
100
AcDbLine
 10
236.999975
 20
117.0
 30
0.0
 11
236.999975
 21
116.7999999999999
 31
0.0
  0
LINE
  5
173
330
1E
100
AcDbEntity
  8
0
100
AcDbLine
 10
236.999975
 20
116.7999999999999
 30
0.0
 11
236.999975
 21
117.0
 31
0.0
  0
LINE
  5
174
330
1E
100
AcDbEntity
  8
0
100
AcDbLine
 10
236.999975
 20
116.7999999999999
 30
0.0
 11
236.999975
 21
116.2
 31
0.0
  0
LINE
  5
175
330
1E
100
AcDbEntity
  8
0
100
AcDbLine
 10
236.999975
 20
116.2
 30
0.0
 11
236.999975
 21
116.7999999999999
 31
0.0
  0
LINE
  5
176
330
1E
100
AcDbEntity
  8
0
100
AcDbLine
 10
236.999975
 20
116.2
 30
0.0
 11
236.999975
 21
115.2
 31
0.0
  0
LINE
  5
177
330
1E
100
AcDbEntity
  8
0
100
AcDbLine
 10
236.999975
 20
115.2
 30
0.0
 11
236.999975
 21
116.2
 31
0.0
  0
LINE
  5
178
330
1E
100
AcDbEntity
  8
0
100
AcDbLine
 10
236.999975
 20
115.2
 30
0.0
 11
236.999975
 21
114.0
 31
0.0
  0
LINE
  5
179
330
1E
100
AcDbEntity
  8
0
100
AcDbLine
 10
236.999975
 20
114.0
 30
0.0
 11
236.999975
 21
115.2
 31
0.0
  0
LINE
  5
17A
330
1E
100
AcDbEntity
  8
0
100
AcDbLine
 10
236.999975
 20
114.0
 30
0.0
 11
236.999975
 21
112.5
 31
0.0
  0
LINE
  5
17B
330
1E
100
AcDbEntity
  8
0
100
AcDbLine
 10
236.999975
 20
112.5
 30
0.0
 11
236.999975
 21
114.0
 31
0.0
  0
LINE
  5
17C
330
1E
100
AcDbEntity
  8
0
100
AcDbLine
 10
236.999975
 20
112.5
 30
0.0
 11
236.999975
 21
111.0
 31
0.0
  0
LINE
  5
17D
330
1E
100
AcDbEntity
  8
0
100
AcDbLine
 10
236.999975
 20
111.0
 30
0.0
 11
236.999975
 21
112.5
 31
0.0
  0
LINE
  5
17E
330
1E
100
AcDbEntity
  8
0
100
AcDbLine
 10
236.999975
 20
111.0
 30
0.0
 11
236.999975
 21
83.0
 31
0.0
  0
LINE
  5
17F
330
1E
100
AcDbEntity
  8
0
100
AcDbLine
 10
230.299975
 20
116.7
 30
0.0
 11
230.299975
 21
116.5
 31
0.0
  0
LINE
  5
180
330
1E
100
AcDbEntity
  8
0
100
AcDbLine
 10
230.299975
 20
116.7
 30
0.0
 11
230.999975
 21
117.0
 31
0.0
  0
LINE
  5
181
330
1E
100
AcDbEntity
  8
0
100
AcDbLine
 10
229.999975
 20
101.8
 30
0.0
 11
229.999975
 21
100.0
 31
0.0
  0
LINE
  5
182
330
1E
100
AcDbEntity
  8
0
100
AcDbLine
 10
229.999975
 20
101.8
 30
0.0
 11
229.999975
 21
106.0
 31
0.0
  0
LINE
  5
183
330
1E
100
AcDbEntity
  8
0
100
AcDbLine
 10
229.999975
 20
101.8
 30
0.0
 11
229.999975
 21
96.2
 31
0.0
  0
LINE
  5
184
330
1E
100
AcDbEntity
  8
0
100
AcDbLine
 10
229.999975
 20
100.0
 30
0.0
 11
229.999975
 21
102.8
 31
0.0
  0
LINE
  5
185
330
1E
100
AcDbEntity
  8
0
100
AcDbLine
 10
229.999975
 20
100.0
 30
0.0
 11
229.999975
 21
101.8
 31
0.0
  0
LINE
  5
186
330
1E
100
AcDbEntity
  8
0
100
AcDbLine
 10
229.999975
 20
100.0
 30
0.0
 11
229.999975
 21
100.5
 31
0.0
  0
LINE
  5
187
330
1E
100
AcDbEntity
  8
0
100
AcDbLine
 10
229.999975
 20
100.0
 30
0.0
 11
229.999975
 21
111.0
 31
0.0
  0
LINE
  5
188
330
1E
100
AcDbEntity
  8
0
100
AcDbLine
 10
54.499975
 20
93.49999999999999
 30
0.0
 11
173.999975
 21
93.49999999999999
 31
0.0
  0
LINE
  5
18D
330
1E
100
AcDbEntity
  8
0
100
AcDbLine
 10
236.999975
 20
117.0
 30
0.0
 11
230.999975
 21
117.0
 31
0.0
  0
LINE
  5
18E
330
1E
100
AcDbEntity
  8
0
100
AcDbLine
 10
230.299975
 20
116.7
 30
0.0
 11
229.999975
 21
116.0
 31
0.0
  0
LINE
  5
18F
330
1E
100
AcDbEntity
  8
0
100
AcDbLine
 10
230.999975
 20
49.0
 30
0.0
 11
230.299975
 21
49.29999999999999
 31
0.0
  0
ENDSEC
  0
SECTION
  2
OBJECTS
  0
DICTIONARY
  5
C
330
0
100
AcDbDictionary
  3
ACAD_GROUP
350
D
  3
ACAD_LAYOUT
350
19
  3
ACAD_MLINESTYLE
350
16
  3
ACAD_PLOTSETTINGS
350
18
  3
ACAD_PLOTSTYLENAME
350
E
  3
ACDBHEADERROUNDTRIPXREC
350
19E
  3
ACDBVARIABLEDICTIONARY
350
190
  0
DICTIONARY
  5
1C0
330
1E
100
AcDbDictionary
280
     1
  3
ACAD_LAYOUTSELFREF
360
1C1
  0
DICTIONARY
  5
1BE
330
1A
100
AcDbDictionary
280
     1
  3
ACAD_LAYOUTSELFREF
360
1BF
  0
DICTIONARY
  5
D
102
{ACAD_REACTORS
330
C
102
}
330
C
100
AcDbDictionary
  0
DICTIONARY
  5
19
102
{ACAD_REACTORS
330
C
102
}
330
C
100
AcDbDictionary
  0
DICTIONARY
  5
16
102
{ACAD_REACTORS
330
C
102
}
330
C
100
AcDbDictionary
  3
STANDARD
350
17
  0
DICTIONARY
  5
18
102
{ACAD_REACTORS
330
C
102
}
330
C
100
AcDbDictionary
  0
ACDBDICTIONARYWDFLT
  5
E
102
{ACAD_REACTORS
330
C
102
}
330
C
100
AcDbDictionary
281
     1
  3
Normal
350
F
100
AcDbDictionaryWithDefault
340
F
  0
DICTIONARY
  5
19E
102
{ACAD_REACTORS
330
C
102
}
330
C
100
AcDbDictionary
  3
CEPSNTYPE
350
1A8
  3
FINGERPRINTGUID
350
1A9
  3
HYPERLINKBASE
350
1A1
  3
INSUNITS
350
1A7
  3
LAYOUTDICT
350
1A3
  3
LWETCUNION
350
1A6
  3
PLOTSETDICT
350
1A4
  3
PLOTSTYLNAMDICT
350
1A5
  3
PSVPSCALE
350
1AB
  3
PUCSBASE
350
1AE
  3
PUCSORGBACK
350
1B4
  3
PUCSORGBOTTOM
350
1B0
  3
PUCSORGFRONT
350
1B3
  3
PUCSORGLEFT
350
1B1
  3
PUCSORGRIGHT
350
1B2
  3
PUCSORGTOP
350
1AF
  3
PUCSORTHOREF
350
1AC
  3
PUCSORTHOVIEW
350
1AD
  3
STYLESHEET
350
1A2
  3
TSTACKALIGN
350
19F
  3
TSTACKSIZE
350
1A0
  3
UCSBASE
350
1B7
  3
UCSORGBACK
350
1BD
  3
UCSORGBOTTOM
350
1B9
  3
UCSORGFRONT
350
1BC
  3
UCSORGLEFT
350
1BA
  3
UCSORGRIGHT
350
1BB
  3
UCSORGTOP
350
1B8
  3
UCSORTHOREF
350
1B5
  3
UCSORTHOVIEW
350
1B6
  3
VERSIONGUID
350
1AA
  0
DICTIONARY
  5
190
102
{ACAD_REACTORS
330
C
102
}
330
C
100
AcDbDictionary
  3
DIMASSOC
350
191
  0
XRECORD
  5
1C1
102
{ACAD_REACTORS
330
1C0
102
}
330
1C0
100
AcDbXrecord
340
1E
  0
XRECORD
  5
1BF
102
{ACAD_REACTORS
330
1BE
102
}
330
1BE
100
AcDbXrecord
340
1A
  0
MLINESTYLE
  5
17
102
{ACAD_REACTORS
330
16
102
}
330
16
100
AcDbMlineStyle
  2
STANDARD
 70
     0
  3

 62
   256
 51
90.0
 52
90.0
 71
     2
 49
0.5
 62
   256
  6
BYLAYER
 49
-0.5
 62
   256
  6
BYLAYER
  0
ACDBPLACEHOLDER
  5
F
102
{ACAD_REACTORS
330
E
102
}
330
E
100
AcDbPlaceHolder
280
     0
  0
XRECORD
  5
1A8
102
{ACAD_REACTORS
330
19E
102
}
330
19E
100
AcDbXrecord
 90
        0
  0
XRECORD
  5
1A9
102
{ACAD_REACTORS
330
19E
102
}
330
19E
100
AcDbXrecord
  1
{1559EAD9-212A-4004-A40B-CF31540B1874}
  0
XRECORD
  5
1A1
102
{ACAD_REACTORS
330
19E
102
}
330
19E
100
AcDbXrecord
  1

  0
XRECORD
  5
1A7
102
{ACAD_REACTORS
330
19E
102
}
330
19E
100
AcDbXrecord
 90
        0
  0
XRECORD
  5
1A3
102
{ACAD_REACTORS
330
19E
102
}
330
19E
100
AcDbXrecord
340
19
  0
XRECORD
  5
1A6
102
{ACAD_REACTORS
330
19E
102
}
330
19E
100
AcDbXrecord
 90
    10781
  0
XRECORD
  5
1A4
102
{ACAD_REACTORS
330
19E
102
}
330
19E
100
AcDbXrecord
340
18
  0
XRECORD
  5
1A5
102
{ACAD_REACTORS
330
19E
102
}
330
19E
100
AcDbXrecord
340
E
  0
XRECORD
  5
1AB
102
{ACAD_REACTORS
330
19E
102
}
330
19E
100
AcDbXrecord
 40
0.0
  0
XRECORD
  5
1AE
102
{ACAD_REACTORS
330
19E
102
}
330
19E
100
AcDbXrecord
340
0
  0
XRECORD
  5
1B4
102
{ACAD_REACTORS
330
19E
102
}
330
19E
100
AcDbXrecord
 10
0.0
 20
0.0
 30
0.0
  0
XRECORD
  5
1B0
102
{ACAD_REACTORS
330
19E
102
}
330
19E
100
AcDbXrecord
 10
0.0
 20
0.0
 30
0.0
  0
XRECORD
  5
1B3
102
{ACAD_REACTORS
330
19E
102
}
330
19E
100
AcDbXrecord
 10
0.0
 20
0.0
 30
0.0
  0
XRECORD
  5
1B1
102
{ACAD_REACTORS
330
19E
102
}
330
19E
100
AcDbXrecord
 10
0.0
 20
0.0
 30
0.0
  0
XRECORD
  5
1B2
102
{ACAD_REACTORS
330
19E
102
}
330
19E
100
AcDbXrecord
 10
0.0
 20
0.0
 30
0.0
  0
XRECORD
  5
1AF
102
{ACAD_REACTORS
330
19E
102
}
330
19E
100
AcDbXrecord
 10
0.0
 20
0.0
 30
0.0
  0
XRECORD
  5
1AC
102
{ACAD_REACTORS
330
19E
102
}
330
19E
100
AcDbXrecord
340
0
  0
XRECORD
  5
1AD
102
{ACAD_REACTORS
330
19E
102
}
330
19E
100
AcDbXrecord
 70
     0
  0
XRECORD
  5
1A2
102
{ACAD_REACTORS
330
19E
102
}
330
19E
100
AcDbXrecord
  1

  0
XRECORD
  5
19F
102
{ACAD_REACTORS
330
19E
102
}
330
19E
100
AcDbXrecord
 90
        1
  0
XRECORD
  5
1A0
102
{ACAD_REACTORS
330
19E
102
}
330
19E
100
AcDbXrecord
 90
       70
  0
XRECORD
  5
1B7
102
{ACAD_REACTORS
330
19E
102
}
330
19E
100
AcDbXrecord
340
0
  0
XRECORD
  5
1BD
102
{ACAD_REACTORS
330
19E
102
}
330
19E
100
AcDbXrecord
 10
0.0
 20
0.0
 30
0.0
  0
XRECORD
  5
1B9
102
{ACAD_REACTORS
330
19E
102
}
330
19E
100
AcDbXrecord
 10
0.0
 20
0.0
 30
0.0
  0
XRECORD
  5
1BC
102
{ACAD_REACTORS
330
19E
102
}
330
19E
100
AcDbXrecord
 10
0.0
 20
0.0
 30
0.0
  0
XRECORD
  5
1BA
102
{ACAD_REACTORS
330
19E
102
}
330
19E
100
AcDbXrecord
 10
0.0
 20
0.0
 30
0.0
  0
XRECORD
  5
1BB
102
{ACAD_REACTORS
330
19E
102
}
330
19E
100
AcDbXrecord
 10
0.0
 20
0.0
 30
0.0
  0
XRECORD
  5
1B8
102
{ACAD_REACTORS
330
19E
102
}
330
19E
100
AcDbXrecord
 10
0.0
 20
0.0
 30
0.0
  0
XRECORD
  5
1B5
102
{ACAD_REACTORS
330
19E
102
}
330
19E
100
AcDbXrecord
340
0
  0
XRECORD
  5
1B6
102
{ACAD_REACTORS
330
19E
102
}
330
19E
100
AcDbXrecord
 70
     1
  0
XRECORD
  5
1AA
102
{ACAD_REACTORS
330
19E
102
}
330
19E
100
AcDbXrecord
  1
{CD5AA97F-FA82-40C9-971C-7421BDF53C2A}
  0
DICTIONARYVAR
  5
191
102
{ACAD_REACTORS
330
190
102
}
330
190
100
DictionaryVariables
280
     0
  1
1
  0
ENDSEC
  0
EOF
