  0
SECTION
  2
HEADER
  9
$ACADVER
  1
AC1014
  9
$ACADMAINTVER
 70
     9
  9
$DWGCODEPAGE
  3
ANSI_1252
  9
$INSBASE
 10
0.0
 20
0.0
 30
0.0
  9
$EXTMIN
 10
0.0000250000000065
 20
-0.0000000000000697
 30
0.0
  9
$EXTMAX
 10
308.9999749999999
 20
117.0
 30
0.0
  9
$LIMMIN
 10
0.0
 20
0.0
  9
$LIMMAX
 10
12.0
 20
9.0
  9
$ORTHOMODE
 70
     0
  9
$REGENMODE
 70
     1
  9
$FILLMODE
 70
     1
  9
$QTEXTMODE
 70
     0
  9
$MIRRTEXT
 70
     1
  9
$DRAGMODE
 70
     2
  9
$LTSCALE
 40
1.0
  9
$OSMODE
 70
    37
  9
$ATTMODE
 70
     1
  9
$TEXTSIZE
 40
0.2
  9
$TRACEWID
 40
0.05
  9
$TEXTSTYLE
  7
STANDARD
  9
$CLAYER
  8
0
  9
$CELTYPE
  6
CONTINUOUS
  9
$CECOLOR
 62
   256
  9
$CELTSCALE
 40
1.0
  9
$DELOBJ
 70
     1
  9
$DISPSILH
 70
     0
  9
$DIMSCALE
 40
1.0
  9
$DIMASZ
 40
0.18
  9
$DIMEXO
 40
0.0625
  9
$DIMDLI
 40
0.38
  9
$DIMRND
 40
0.0
  9
$DIMDLE
 40
0.0
  9
$DIMEXE
 40
0.18
  9
$DIMTP
 40
0.0
  9
$DIMTM
 40
0.0
  9
$DIMTXT
 40
0.18
  9
$DIMCEN
 40
0.09
  9
$DIMTSZ
 40
0.0
  9
$DIMTOL
 70
     0
  9
$DIMLIM
 70
     0
  9
$DIMTIH
 70
     1
  9
$DIMTOH
 70
     1
  9
$DIMSE1
 70
     0
  9
$DIMSE2
 70
     0
  9
$DIMTAD
 70
     0
  9
$DIMZIN
 70
     0
  9
$DIMBLK
  1

  9
$DIMASO
 70
     1
  9
$DIMSHO
 70
     1
  9
$DIMPOST
  1

  9
$DIMAPOST
  1

  9
$DIMALT
 70
     0
  9
$DIMALTD
 70
     2
  9
$DIMALTF
 40
25.4
  9
$DIMLFAC
 40
1.0
  9
$DIMTOFL
 70
     0
  9
$DIMTVP
 40
0.0
  9
$DIMTIX
 70
     0
  9
$DIMSOXD
 70
     0
  9
$DIMSAH
 70
     0
  9
$DIMBLK1
  1

  9
$DIMBLK2
  1

  9
$DIMSTYLE
  2
STANDARD
  9
$DIMCLRD
 70
     0
  9
$DIMCLRE
 70
     0
  9
$DIMCLRT
 70
     0
  9
$DIMTFAC
 40
1.0
  9
$DIMGAP
 40
0.09
  9
$DIMJUST
 70
     0
  9
$DIMSD1
 70
     0
  9
$DIMSD2
 70
     0
  9
$DIMTOLJ
 70
     1
  9
$DIMTZIN
 70
     0
  9
$DIMALTZ
 70
     0
  9
$DIMALTTZ
 70
     0
  9
$DIMFIT
 70
     3
  9
$DIMUPT
 70
     0
  9
$DIMUNIT
 70
     2
  9
$DIMDEC
 70
     4
  9
$DIMTDEC
 70
     4
  9
$DIMALTU
 70
     2
  9
$DIMALTTD
 70
     2
  9
$DIMTXSTY
  7
STANDARD
  9
$DIMAUNIT
 70
     0
  9
$LUNITS
 70
     2
  9
$LUPREC
 70
     4
  9
$SKETCHINC
 40
0.1
  9
$FILLETRAD
 40
0.0
  9
$AUNITS
 70
     0
  9
$AUPREC
 70
     0
  9
$MENU
  1
.
  9
$ELEVATION
 40
0.0
  9
$PELEVATION
 40
0.0
  9
$THICKNESS
 40
0.0
  9
$LIMCHECK
 70
     0
  9
$BLIPMODE
 70
     0
  9
$CHAMFERA
 40
0.0
  9
$CHAMFERB
 40
0.0
  9
$CHAMFERC
 40
0.0
  9
$CHAMFERD
 40
0.0
  9
$SKPOLY
 70
     0
  9
$TDCREATE
 40
2454637.675271782
  9
$TDUPDATE
 40
2454687.532203414
  9
$TDINDWG
 40
0.0701047106
  9
$TDUSRTIMER
 40
0.0701047106
  9
$USRTIMER
 70
     1
  9
$ANGBASE
 50
0.0
  9
$ANGDIR
 70
     0
  9
$PDMODE
 70
     0
  9
$PDSIZE
 40
0.0
  9
$PLINEWID
 40
0.0
  9
$COORDS
 70
     1
  9
$SPLFRAME
 70
     0
  9
$SPLINETYPE
 70
     6
  9
$SPLINESEGS
 70
     8
  9
$ATTDIA
 70
     0
  9
$ATTREQ
 70
     1
  9
$HANDLING
 70
 22529
  9
$HANDSEED
  5
2C8
  9
$SURFTAB1
 70
     6
  9
$SURFTAB2
 70
     6
  9
$SURFTYPE
 70
     6
  9
$SURFU
 70
     6
  9
$SURFV
 70
     6
  9
$UCSNAME
  2

  9
$UCSORG
 10
0.0
 20
0.0
 30
0.0
  9
$UCSXDIR
 10
1.0
 20
0.0
 30
0.0
  9
$UCSYDIR
 10
0.0
 20
1.0
 30
0.0
  9
$PUCSNAME
  2

  9
$PUCSORG
 10
0.0
 20
0.0
 30
0.0
  9
$PUCSXDIR
 10
1.0
 20
0.0
 30
0.0
  9
$PUCSYDIR
 10
0.0
 20
1.0
 30
0.0
  9
$USERI1
 70
     0
  9
$USERI2
 70
     0
  9
$USERI3
 70
     0
  9
$USERI4
 70
     0
  9
$USERI5
 70
     0
  9
$USERR1
 40
0.0
  9
$USERR2
 40
0.0
  9
$USERR3
 40
0.0
  9
$USERR4
 40
0.0
  9
$USERR5
 40
0.0
  9
$WORLDVIEW
 70
     1
  9
$SHADEDGE
 70
     3
  9
$SHADEDIF
 70
    70
  9
$TILEMODE
 70
     1
  9
$MAXACTVP
 70
    64
  9
$PINSBASE
 10
0.0
 20
0.0
 30
0.0
  9
$PLIMCHECK
 70
     0
  9
$PEXTMIN
 10
1.000000000000000E+20
 20
1.000000000000000E+20
 30
1.000000000000000E+20
  9
$PEXTMAX
 10
-1.000000000000000E+20
 20
-1.000000000000000E+20
 30
-1.000000000000000E+20
  9
$PLIMMIN
 10
0.0
 20
0.0
  9
$PLIMMAX
 10
12.0
 20
9.0
  9
$UNITMODE
 70
     0
  9
$VISRETAIN
 70
     1
  9
$PLINEGEN
 70
     0
  9
$PSLTSCALE
 70
     1
  9
$TREEDEPTH
 70
  3020
  9
$PICKSTYLE
 70
     1
  9
$CMLSTYLE
  2
STANDARD
  9
$CMLJUST
 70
     0
  9
$CMLSCALE
 40
1.0
  9
$PROXYGRAPHICS
 70
     1
  9
$MEASUREMENT
 70
     0
  0
ENDSEC
  0
SECTION
  2
CLASSES
  0
CLASS
  1
ACDBDICTIONARYWDFLT
  2
AcDbDictionaryWithDefault
  3
AutoCAD 2000
 90
        0
280
     0
281
     0
  0
CLASS
  1
ACDBPLACEHOLDER
  2
AcDbPlaceHolder
  3
AutoCAD 2000
 90
        0
280
     0
281
     0
  0
CLASS
  1
LAYOUT
  2
AcDbLayout
  3
AutoCAD 2000
 90
        0
280
     0
281
     0
  0
CLASS
  1
DICTIONARYVAR
  2
AcDbDictionaryVar
  3
AutoCAD 2000
 90
        0
280
     0
281
     0
  0
CLASS
  1
LONG_TRANSACTION
  2
AcDbLongTransaction
  3
AutoCAD 2000
 90
        0
280
     0
281
     0
  0
CLASS
  1
LWPOLYLINE
  2
AcDbPolyline
  3
AutoCAD 2000
 90
        0
280
     0
281
     1
  0
CLASS
  1
HATCH
  2
AcDbHatch
  3
AutoCAD 2000
 90
        0
280
     0
281
     1
  0
CLASS
  1
XRECORD
  2
AcDbXrecord
  3
AutoCAD 2000
 90
        0
280
     0
281
     0
  0
ENDSEC
  0
SECTION
  2
TABLES
  0
TABLE
  2
VPORT
  5
8
330
0
100
AcDbSymbolTable
 70
     2
  0
VPORT
  5
2A3
330
8
100
AcDbSymbolTableRecord
100
AcDbViewportTableRecord
  2
*ACTIVE
 70
     0
 10
0.0
 20
0.0
 11
1.0
 21
1.0
 12
154.4999999999999
 22
58.49999999999996
 13
0.0
 23
0.0
 14
1.0
 24
1.0
 15
0.0
 25
0.0
 16
0.0
 26
0.0
 36
1.0
 17
0.0
 27
0.0
 37
0.0
 40
151.7767196650242
 41
2.043533930857874
 42
50.0
 43
0.0
 44
0.0
 50
0.0
 51
0.0
 71
     0
 72
   100
 73
     1
 74
     3
 75
     0
 76
     0
 77
     0
 78
     0
  0
ENDTAB
  0
TABLE
  2
LTYPE
  5
5
330
0
100
AcDbSymbolTable
 70
     1
  0
LTYPE
  5
13
330
5
100
AcDbSymbolTableRecord
100
AcDbLinetypeTableRecord
  2
BYBLOCK
 70
     0
  3

 72
    65
 73
     0
 40
0.0
  0
LTYPE
  5
14
330
5
100
AcDbSymbolTableRecord
100
AcDbLinetypeTableRecord
  2
BYLAYER
 70
     0
  3

 72
    65
 73
     0
 40
0.0
  0
LTYPE
  5
15
330
5
100
AcDbSymbolTableRecord
100
AcDbLinetypeTableRecord
  2
CONTINUOUS
 70
     0
  3
Solid line
 72
    65
 73
     0
 40
0.0
  0
ENDTAB
  0
TABLE
  2
LAYER
  5
2
330
0
100
AcDbSymbolTable
 70
     1
  0
LAYER
  5
10
330
2
100
AcDbSymbolTableRecord
100
AcDbLayerTableRecord
  2
0
 70
     0
 62
     7
  6
CONTINUOUS
  0
ENDTAB
  0
TABLE
  2
STYLE
  5
3
330
0
100
AcDbSymbolTable
 70
     1
  0
STYLE
  5
11
330
3
100
AcDbSymbolTableRecord
100
AcDbTextStyleTableRecord
  2
STANDARD
 70
     0
 40
0.0
 41
1.0
 50
0.0
 71
     0
 42
0.2
  3
txt
  4

  0
ENDTAB
  0
TABLE
  2
VIEW
  5
6
330
0
100
AcDbSymbolTable
 70
     0
  0
ENDTAB
  0
TABLE
  2
UCS
  5
7
330
0
100
AcDbSymbolTable
 70
     0
  0
ENDTAB
  0
TABLE
  2
APPID
  5
9
330
0
100
AcDbSymbolTable
 70
     1
  0
APPID
  5
12
330
9
100
AcDbSymbolTableRecord
100
AcDbRegAppTableRecord
  2
ACAD
 70
     0
  0
ENDTAB
  0
TABLE
  2
DIMSTYLE
  5
A
330
0
100
AcDbSymbolTable
 70
     1
  0
DIMSTYLE
105
291
330
A
100
AcDbSymbolTableRecord
100
AcDbDimStyleTableRecord
  2
STANDARD
 70
     0
  3

  4

  5

  6

  7

 40
1.0
 41
0.18
 42
0.0625
 43
0.38
 44
0.18
 45
0.0
 46
0.0
 47
0.0
 48
0.0
140
0.18
141
0.09
142
0.0
143
25.4
144
1.0
145
0.0
146
1.0
147
0.09
 71
     0
 72
     0
 73
     1
 74
     1
 75
     0
 76
     0
 77
     0
 78
     0
170
     0
171
     2
172
     0
173
     0
174
     0
175
     0
176
     0
177
     0
178
     0
270
     2
271
     4
272
     4
273
     2
274
     2
340
11
275
     0
280
     0
281
     0
282
     0
283
     1
284
     0
285
     0
286
     0
287
     3
288
     0
  0
ENDTAB
  0
TABLE
  2
BLOCK_RECORD
  5
1
330
0
100
AcDbSymbolTable
 70
     0
  0
BLOCK_RECORD
  5
1E
102
{ACAD_XDICTIONARY
360
2C6
102
}
330
1
100
AcDbSymbolTableRecord
100
AcDbBlockTableRecord
  2
*MODEL_SPACE
  0
BLOCK_RECORD
  5
1A
102
{ACAD_XDICTIONARY
360
2C4
102
}
330
1
100
AcDbSymbolTableRecord
100
AcDbBlockTableRecord
  2
*PAPER_SPACE
  0
ENDTAB
  0
ENDSEC
  0
SECTION
  2
BLOCKS
  0
BLOCK
  5
1F
330
1E
100
AcDbEntity
  8
0
100
AcDbBlockBegin
  2
*MODEL_SPACE
 70
     0
 10
0.0
 20
0.0
 30
0.0
  3
*MODEL_SPACE
  1

  0
ENDBLK
  5
20
330
1E
100
AcDbEntity
  8
0
100
AcDbBlockEnd
  0
BLOCK
  5
1B
330
1A
100
AcDbEntity
 67
     1
  8
0
100
AcDbBlockBegin
  2
*PAPER_SPACE
 70
     0
 10
0.0
 20
0.0
 30
0.0
  3
*PAPER_SPACE
  1

  0
ENDBLK
  5
1C
330
1A
100
AcDbEntity
 67
     1
  8
0
100
AcDbBlockEnd
  0
ENDSEC
  0
SECTION
  2
ENTITIES
  0
LINE
  5
22
330
1E
100
AcDbEntity
  8
0
100
AcDbLine
 10
19.092675
 20
19.57979999999987
 30
0.0
 11
19.73357499999998
 21
19.8786999999999
 31
0.0
  0
LINE
  5
23
330
1E
100
AcDbEntity
  8
0
100
AcDbLine
 10
0.0000250000000066
 20
27.0610999999999
 30
0.0
 11
14.311175
 21
66.6467
 31
0.0
  0
LINE
  5
24
330
1E
100
AcDbEntity
  8
0
100
AcDbLine
 10
0.0000250000000065
 20
27.0610999999999
 30
0.0
 11
0.298861000000007
 21
26.42019999999989
 31
0.0
  0
LINE
  5
25
330
1E
100
AcDbEntity
  8
0
100
AcDbLine
 10
0.0000250000000065
 20
27.0610999999999
 30
0.0
 11
0.375902000000007
 21
26.9242999999999
 31
0.0
  0
LINE
  5
26
330
1E
100
AcDbEntity
  8
0
100
AcDbLine
 10
3.023965000000008
 20
25.4283999999999
 30
0.0
 11
4.997325000000008
 21
24.7100999999999
 31
0.0
  0
LINE
  5
27
330
1E
100
AcDbEntity
  8
0
100
AcDbLine
 10
1.52046500000001
 20
25.9755999999999
 30
0.0
 11
3.023965000000008
 21
25.4283999999999
 31
0.0
  0
LINE
  5
28
330
1E
100
AcDbEntity
  8
0
100
AcDbLine
 10
11.9037853828943
 20
22.1963973573608
 30
0.0
 11
13.92437499999999
 21
21.46089999999988
 31
0.0
  0
LINE
  5
29
330
1E
100
AcDbEntity
  8
0
100
AcDbLine
 10
11.9037853828943
 20
22.1963973573608
 30
0.0
 11
13.92437499999999
 21
21.46089999999988
 31
0.0
  0
LINE
  5
2A
330
1E
100
AcDbEntity
  8
0
100
AcDbLine
 10
12.138975
 20
22.11079999999989
 30
0.0
 11
14.394275
 21
21.28989999999987
 31
0.0
  0
LINE
  5
2B
330
1E
100
AcDbEntity
  8
0
100
AcDbLine
 10
9.695785000000007
 20
22.9999999999999
 30
0.0
 11
12.138975
 21
22.11079999999989
 31
0.0
  0
LINE
  5
2C
330
1E
100
AcDbEntity
  8
0
100
AcDbLine
 10
9.86679500000001
 20
23.4698999999999
 30
0.0
 11
12.403975
 21
22.54639999999989
 31
0.0
  0
LINE
  5
2D
330
1E
100
AcDbEntity
  8
0
100
AcDbLine
 10
12.403975
 20
22.54639999999989
 30
0.0
 11
14.753175
 21
21.69139999999989
 31
0.0
  0
LINE
  5
2E
330
1E
100
AcDbEntity
  8
0
100
AcDbLine
 10
7.252585000000008
 20
23.8892999999999
 30
0.0
 11
9.695785000000007
 21
22.9999999999999
 31
0.0
  0
LINE
  5
2F
330
1E
100
AcDbEntity
  8
0
100
AcDbLine
 10
4.997325000000008
 20
24.7100999999999
 30
0.0
 11
7.252585000000008
 21
23.8892999999999
 31
0.0
  0
LINE
  5
30
330
1E
100
AcDbEntity
  8
0
100
AcDbLine
 10
7.329625000000008
 20
24.3932999999999
 30
0.0
 11
9.86679500000001
 21
23.4698999999999
 31
0.0
  0
LINE
  5
31
330
1E
100
AcDbEntity
  8
0
100
AcDbLine
 10
4.980395000000007
 20
25.2483999999999
 30
0.0
 11
7.329625000000008
 21
24.3932999999999
 31
0.0
  0
LINE
  5
32
330
1E
100
AcDbEntity
  8
0
100
AcDbLine
 10
2.913075000000008
 20
26.00079999999989
 30
0.0
 11
4.980395000000007
 21
25.2483999999999
 31
0.0
  0
LINE
  5
33
330
1E
100
AcDbEntity
  8
0
100
AcDbLine
 10
1.23855500000001
 20
26.0781999999999
 30
0.0
 11
1.52046500000001
 21
25.9755999999999
 31
0.0
  0
LINE
  5
34
330
1E
100
AcDbEntity
  8
0
100
AcDbLine
 10
0.375902000000007
 20
26.9242999999999
 30
0.0
 11
1.31559500000001
 21
26.5822999999999
 31
0.0
  0
LINE
  5
35
330
1E
100
AcDbEntity
  8
0
100
AcDbLine
 10
1.31559500000001
 20
26.5822999999999
 30
0.0
 11
2.913075000000008
 21
26.00079999999989
 31
0.0
  0
LINE
  5
36
330
1E
100
AcDbEntity
  8
0
100
AcDbLine
 10
0.375902000000007
 20
26.9242999999999
 30
0.0
 11
1.31559500000001
 21
26.5822999999999
 31
0.0
  0
LINE
  5
37
330
1E
100
AcDbEntity
  8
0
100
AcDbLine
 10
0.6747380000000072
 20
26.2833999999999
 30
0.0
 11
1.2385552776571
 21
26.0782002628946
 31
0.0
  0
LINE
  5
38
330
1E
100
AcDbEntity
  8
0
100
AcDbLine
 10
0.6747380000000072
 20
26.2833999999999
 30
0.0
 11
1.52046500000001
 21
25.9755999999999
 31
0.0
  0
LINE
  5
39
330
1E
100
AcDbEntity
  8
0
100
AcDbLine
 10
0.298861000000007
 20
26.42019999999989
 30
0.0
 11
0.6747380000000072
 21
26.2833999999999
 31
0.0
  0
LINE
  5
3A
330
1E
100
AcDbEntity
  8
0
100
AcDbLine
 10
0.0000250000000065
 20
27.0610999999999
 30
0.0
 11
14.311175
 21
66.6467
 31
0.0
  0
LINE
  5
3B
330
1E
100
AcDbEntity
  8
0
100
AcDbLine
 10
0.0000250000000065
 20
27.0610999999999
 30
0.0
 11
0.375902000000007
 21
26.9242999999999
 31
0.0
  0
LINE
  5
3C
330
1E
100
AcDbEntity
  8
0
100
AcDbLine
 10
0.0000250000000065
 20
27.0610999999999
 30
0.0
 11
0.298861000000007
 21
26.42019999999989
 31
0.0
  0
LINE
  5
3D
330
1E
100
AcDbEntity
  8
0
100
AcDbLine
 10
14.394275
 20
21.28989999999987
 30
0.0
 11
16.36757499999999
 21
20.57169999999989
 31
0.0
  0
LINE
  5
3E
330
1E
100
AcDbEntity
  8
0
100
AcDbLine
 10
14.753175
 20
21.69139999999989
 30
0.0
 11
16.82047499999999
 21
20.93889999999988
 31
0.0
  0
LINE
  5
3F
330
1E
100
AcDbEntity
  8
0
100
AcDbLine
 10
14.311175
 20
66.6467
 30
0.0
 11
16.82787499999999
 21
71.75
 31
0.0
  0
LINE
  5
40
330
1E
100
AcDbEntity
  8
0
100
AcDbLine
 10
13.92437499999999
 20
21.46089999999988
 30
0.0
 11
15.709775
 21
20.81109999999989
 31
0.0
  0
LINE
  5
41
330
1E
100
AcDbEntity
  8
0
100
AcDbLine
 10
15.709775
 20
20.81109999999989
 30
0.0
 11
16.36757499982389
 21
20.571700000064
 31
0.0
  0
LINE
  5
42
330
1E
100
AcDbEntity
  8
0
100
AcDbLine
 10
15.709775
 20
20.81109999999989
 30
0.0
 11
16.36757499982389
 21
20.571700000064
 31
0.0
  0
LINE
  5
43
330
1E
100
AcDbEntity
  8
0
100
AcDbLine
 10
16.82047499999999
 20
20.93889999999988
 30
0.0
 11
18.417975
 21
20.35749999999989
 31
0.0
  0
LINE
  5
44
330
1E
100
AcDbEntity
  8
0
100
AcDbLine
 10
16.82787499999999
 20
71.75
 30
0.0
 11
19.98907499999998
 21
76.48109999999999
 31
0.0
  0
LINE
  5
45
330
1E
100
AcDbEntity
  8
0
100
AcDbLine
 10
16.36757499999999
 20
20.57169999999989
 30
0.0
 11
17.871075
 21
20.02449999999988
 31
0.0
  0
LINE
  5
46
330
1E
100
AcDbEntity
  8
0
100
AcDbLine
 10
18.417975
 20
20.35749999999989
 30
0.0
 11
19.357675
 21
20.01549999999987
 31
0.0
  0
LINE
  5
47
330
1E
100
AcDbEntity
  8
0
100
AcDbLine
 10
19.357675
 20
20.01549999999987
 30
0.0
 11
19.73357499999998
 21
19.8786999999999
 31
0.0
  0
LINE
  5
48
330
1E
100
AcDbEntity
  8
0
100
AcDbLine
 10
17.871075
 20
20.02449999999988
 30
0.0
 11
18.716875
 21
19.71659999999989
 31
0.0
  0
LINE
  5
49
330
1E
100
AcDbEntity
  8
0
100
AcDbLine
 10
18.716875
 20
19.71659999999989
 30
0.0
 11
19.092675
 21
19.57979999999987
 31
0.0
  0
LINE
  5
4A
330
1E
100
AcDbEntity
  8
0
100
AcDbLine
 10
33.712675
 20
58.61039999999989
 30
0.0
 11
35.014375
 21
61.25
 31
0.0
  0
LINE
  5
4B
330
1E
100
AcDbEntity
  8
0
100
AcDbLine
 10
36.64957499999999
 20
63.6971
 30
0.0
 11
38.590075
 21
65.90989999999999
 31
0.0
  0
LINE
  5
4C
330
1E
100
AcDbEntity
  8
0
100
AcDbLine
 10
35.014375
 20
61.25
 30
0.0
 11
36.64957499999999
 21
63.6971
 31
0.0
  0
LINE
  5
4D
330
1E
100
AcDbEntity
  8
0
100
AcDbLine
 10
43.249975
 20
69.4856
 30
0.0
 11
45.889575
 21
70.7873
 31
0.0
  0
LINE
  5
4E
330
1E
100
AcDbEntity
  8
0
100
AcDbLine
 10
45.889575
 20
70.7873
 30
0.0
 11
48.67657499999999
 21
71.73329999999999
 31
0.0
  0
LINE
  5
4F
330
1E
100
AcDbEntity
  8
0
100
AcDbLine
 10
51.563175
 20
72.3075
 30
0.0
 11
54.499975
 21
72.4999999999999
 31
0.0
  0
LINE
  5
50
330
1E
100
AcDbEntity
  8
0
100
AcDbLine
 10
48.67657499999999
 20
71.73329999999999
 30
0.0
 11
51.563175
 21
72.3075
 31
0.0
  0
LINE
  5
51
330
1E
100
AcDbEntity
  8
0
100
AcDbLine
 10
40.80287499999999
 20
67.85039999999999
 30
0.0
 11
43.249975
 21
69.4856
 31
0.0
  0
LINE
  5
52
330
1E
100
AcDbEntity
  8
0
100
AcDbLine
 10
38.590075
 20
65.90989999999999
 30
0.0
 11
40.80287499999999
 21
67.85039999999999
 31
0.0
  0
LINE
  5
53
330
1E
100
AcDbEntity
  8
0
100
AcDbLine
 10
19.73357499999998
 20
19.8786999999999
 30
0.0
 11
33.712675
 21
58.61039999999989
 31
0.0
  0
LINE
  5
54
330
1E
100
AcDbEntity
  8
0
100
AcDbLine
 10
19.98907499999998
 20
76.48109999999999
 30
0.0
 11
23.74087499999999
 21
80.7591
 31
0.0
  0
LINE
  5
55
330
1E
100
AcDbEntity
  8
0
100
AcDbLine
 10
32.749975
 20
87.67209999999989
 30
0.0
 11
37.85327499999999
 21
90.1887999999999
 31
0.0
  0
LINE
  5
56
330
1E
100
AcDbEntity
  8
0
100
AcDbLine
 10
37.85327499999999
 20
90.1887999999999
 30
0.0
 11
43.24137499999999
 21
92.01779999999999
 31
0.0
  0
LINE
  5
57
330
1E
100
AcDbEntity
  8
0
100
AcDbLine
 10
48.82207499999999
 20
93.12789999999999
 30
0.0
 11
54.499975
 21
93.49999999999999
 31
0.0
  0
LINE
  5
58
330
1E
100
AcDbEntity
  8
0
100
AcDbLine
 10
43.24137499999999
 20
92.01779999999999
 30
0.0
 11
48.82207499999999
 21
93.12789999999999
 31
0.0
  0
LINE
  5
59
330
1E
100
AcDbEntity
  8
0
100
AcDbLine
 10
28.018875
 20
84.5109
 30
0.0
 11
32.749975
 21
87.67209999999989
 31
0.0
  0
LINE
  5
5A
330
1E
100
AcDbEntity
  8
0
100
AcDbLine
 10
23.74087499999999
 20
80.7591
 30
0.0
 11
28.018875
 21
84.5109
 31
0.0
  0
LINE
  5
5B
330
1E
100
AcDbEntity
  8
0
100
AcDbLine
 10
54.499975
 20
72.4999999999999
 30
0.0
 11
174.0627008158089
 21
72.4999999999999
 31
0.0
  0
LINE
  5
5C
330
1E
100
AcDbEntity
  8
0
100
AcDbLine
 10
54.499975
 20
72.4999999999999
 30
0.0
 11
174.0627008158089
 21
72.4999999999999
 31
0.0
  0
LINE
  5
5D
330
1E
100
AcDbEntity
  8
0
100
AcDbLine
 10
174.415975
 20
6.999999999999927
 30
0.0
 11
174.415975
 21
10.05449999999989
 31
0.0
  0
LINE
  5
5E
330
1E
100
AcDbEntity
  8
0
100
AcDbLine
 10
174.415975
 20
6.999999999999927
 30
0.0
 11
174.415975
 21
4.32726999999993
 31
0.0
  0
LINE
  5
5F
330
1E
100
AcDbEntity
  8
0
100
AcDbLine
 10
173.999975
 20
87.2095
 30
0.0
 11
173.999975
 21
91.09520000000001
 31
0.0
  0
LINE
  5
60
330
1E
100
AcDbEntity
  8
0
100
AcDbLine
 10
173.999975
 20
87.2095
 30
0.0
 11
173.999975
 21
83.0
 31
0.0
  0
LINE
  5
61
330
1E
100
AcDbEntity
  8
0
100
AcDbLine
 10
173.999975
 20
94.49519999999999
 30
0.0
 11
173.999975
 21
97.08569999999992
 31
0.0
  0
LINE
  5
62
330
1E
100
AcDbEntity
  8
0
100
AcDbLine
 10
173.999975
 20
94.49519999999999
 30
0.0
 11
173.999975
 21
91.09520000000001
 31
0.0
  0
LINE
  5
63
330
1E
100
AcDbEntity
  8
0
100
AcDbLine
 10
173.999975
 20
98.5429
 30
0.0
 11
173.999975
 21
99.1905
 31
0.0
  0
LINE
  5
64
330
1E
100
AcDbEntity
  8
0
100
AcDbLine
 10
173.999975
 20
98.5429
 30
0.0
 11
173.999975
 21
97.08569999999992
 31
0.0
  0
LINE
  5
65
330
1E
100
AcDbEntity
  8
0
100
AcDbLine
 10
173.999975
 20
91.09520000000001
 30
0.0
 11
173.999975
 21
87.2095
 31
0.0
  0
LINE
  5
66
330
1E
100
AcDbEntity
  8
0
100
AcDbLine
 10
173.999975
 20
91.09520000000001
 30
0.0
 11
173.999975
 21
94.49519999999999
 31
0.0
  0
LINE
  5
67
330
1E
100
AcDbEntity
  8
0
100
AcDbLine
 10
173.999975
 20
97.08569999999992
 30
0.0
 11
173.999975
 21
94.49519999999999
 31
0.0
  0
LINE
  5
68
330
1E
100
AcDbEntity
  8
0
100
AcDbLine
 10
173.999975
 20
97.08569999999992
 30
0.0
 11
173.999975
 21
98.5429
 31
0.0
  0
LINE
  5
69
330
1E
100
AcDbEntity
  8
0
100
AcDbLine
 10
173.999975
 20
99.1905
 30
0.0
 11
173.999975
 21
98.5429
 31
0.0
  0
LINE
  5
6A
330
1E
100
AcDbEntity
  8
0
100
AcDbLine
 10
173.999975
 20
99.1905
 30
0.0
 11
174.2529749999999
 21
99.6762
 31
0.0
  0
LINE
  5
6B
330
1E
100
AcDbEntity
  8
0
100
AcDbLine
 10
174.2529749999999
 20
99.6762
 30
0.0
 11
174.6319749999998
 21
100.0
 31
0.0
  0
LINE
  5
6C
330
1E
100
AcDbEntity
  8
0
100
AcDbLine
 10
173.999975
 20
83.0
 30
0.0
 11
174.415975
 21
13.3635999999999
 31
0.0
  0
LINE
  5
6D
330
1E
100
AcDbEntity
  8
0
100
AcDbLine
 10
173.999975
 20
83.0
 30
0.0
 11
174.415975
 21
13.3635999999999
 31
0.0
  0
LINE
  5
6E
330
1E
100
AcDbEntity
  8
0
100
AcDbLine
 10
173.999975
 20
83.0
 30
0.0
 11
173.999975
 21
87.2095
 31
0.0
  0
LINE
  5
6F
330
1E
100
AcDbEntity
  8
0
100
AcDbLine
 10
174.415975
 20
10.05449999999989
 30
0.0
 11
174.415975
 21
13.3635999999999
 31
0.0
  0
LINE
  5
70
330
1E
100
AcDbEntity
  8
0
100
AcDbLine
 10
174.415975
 20
10.05449999999989
 30
0.0
 11
174.415975
 21
6.999999999999927
 31
0.0
  0
LINE
  5
71
330
1E
100
AcDbEntity
  8
0
100
AcDbLine
 10
174.415975
 20
13.3635999999999
 30
0.0
 11
174.415975
 21
10.05449999999989
 31
0.0
  0
LINE
  5
72
330
1E
100
AcDbEntity
  8
0
100
AcDbLine
 10
174.415975
 20
4.32726999999993
 30
0.0
 11
174.415975
 21
2.29090999999993
 31
0.0
  0
LINE
  5
73
330
1E
100
AcDbEntity
  8
0
100
AcDbLine
 10
174.415975
 20
4.32726999999993
 30
0.0
 11
174.415975
 21
6.999999999999927
 31
0.0
  0
LINE
  5
74
330
1E
100
AcDbEntity
  8
0
100
AcDbLine
 10
174.415975
 20
2.29090999999993
 30
0.0
 11
174.415975
 21
1.145459999999927
 31
0.0
  0
LINE
  5
75
330
1E
100
AcDbEntity
  8
0
100
AcDbLine
 10
174.415975
 20
2.29090999999993
 30
0.0
 11
174.415975
 21
4.32726999999993
 31
0.0
  0
LINE
  5
76
330
1E
100
AcDbEntity
  8
0
100
AcDbLine
 10
174.415975
 20
1.145459999999927
 30
0.0
 11
174.415975
 21
0.636363999999931
 31
0.0
  0
LINE
  5
77
330
1E
100
AcDbEntity
  8
0
100
AcDbLine
 10
174.415975
 20
1.145459999999927
 30
0.0
 11
174.415975
 21
2.29090999999993
 31
0.0
  0
LINE
  5
89
330
1E
100
AcDbEntity
  8
0
100
AcDbLine
 10
174.6319749999998
 20
100.0
 30
0.0
 11
176.525975
 21
100.0
 31
0.0
  0
LINE
  5
8B
330
1E
100
AcDbEntity
  8
0
100
AcDbLine
 10
174.415975
 20
0.636363999999931
 30
0.0
 11
174.642975
 21
0.254544999999931
 31
0.0
  0
LINE
  5
8C
330
1E
100
AcDbEntity
  8
0
100
AcDbLine
 10
174.415975
 20
0.636363999999931
 30
0.0
 11
174.415975
 21
1.145459999999927
 31
0.0
  0
LINE
  5
8D
330
1E
100
AcDbEntity
  8
0
100
AcDbLine
 10
174.642975
 20
0.254544999999931
 30
0.0
 11
174.9849749999999
 21
-0.0000000000000696
 31
0.0
  0
LINE
  5
8E
330
1E
100
AcDbEntity
  8
0
100
AcDbLine
 10
174.642975
 20
0.254544999999931
 30
0.0
 11
174.9849749999999
 21
-0.0000000000000696
 31
0.0
  0
LINE
  5
9C
330
1E
100
AcDbEntity
  8
0
100
AcDbLine
 10
176.525975
 20
100.0
 30
0.0
 11
202.9999749999999
 21
100.0
 31
0.0
  0
LINE
  5
9D
330
1E
100
AcDbEntity
  8
0
100
AcDbLine
 10
174.9849749999999
 20
-0.0000000000000696
 30
0.0
 11
176.6919749999999
 21
-0.0000000000000697
 31
0.0
  0
LINE
  5
9F
330
1E
100
AcDbEntity
  8
0
100
AcDbLine
 10
176.6919749999999
 20
-0.0000000000000697
 30
0.0
 11
177.0339749999997
 21
0.38181799999993
 31
0.0
  0
LINE
  5
A2
330
1E
100
AcDbEntity
  8
0
100
AcDbLine
 10
178.171975
 20
13.3635999999999
 30
0.0
 11
180.256975
 21
48.99999999999989
 31
0.0
  0
LINE
  5
A3
330
1E
100
AcDbEntity
  8
0
100
AcDbLine
 10
236.999975
 20
49.1999999999999
 30
0.0
 11
236.999975
 21
49.79999999999989
 31
0.0
  0
LINE
  5
A4
330
1E
100
AcDbEntity
  8
0
100
AcDbLine
 10
236.999975
 20
49.1999999999999
 30
0.0
 11
236.999975
 21
48.99999999999989
 31
0.0
  0
LINE
  5
A5
330
1E
100
AcDbEntity
  8
0
100
AcDbLine
 10
230.999975
 20
48.99999999999989
 30
0.0
 11
236.999975
 21
48.99999999999989
 31
0.0
  0
LINE
  5
A6
330
1E
100
AcDbEntity
  8
0
100
AcDbLine
 10
229.999975
 20
50.19999999999989
 30
0.0
 11
229.999975
 21
50.69999999999989
 31
0.0
  0
LINE
  5
A7
330
1E
100
AcDbEntity
  8
0
100
AcDbLine
 10
229.999975
 20
50.19999999999989
 30
0.0
 11
229.999975
 21
49.99999999999989
 31
0.0
  0
LINE
  5
A8
330
1E
100
AcDbEntity
  8
0
100
AcDbLine
 10
230.299975
 20
49.49999999999989
 30
0.0
 11
230.299975
 21
49.29999999999989
 31
0.0
  0
LINE
  5
A9
330
1E
100
AcDbEntity
  8
0
100
AcDbLine
 10
230.299975
 20
49.49999999999989
 30
0.0
 11
230.299975
 21
50.0999999999999
 31
0.0
  0
LINE
  5
AA
330
1E
100
AcDbEntity
  8
0
100
AcDbLine
 10
230.299975
 20
50.0999999999999
 30
0.0
 11
230.299975
 21
49.49999999999989
 31
0.0
  0
LINE
  5
AB
330
1E
100
AcDbEntity
  8
0
100
AcDbLine
 10
230.299975
 20
50.0999999999999
 30
0.0
 11
230.299975
 21
50.99999999999989
 31
0.0
  0
LINE
  5
AC
330
1E
100
AcDbEntity
  8
0
100
AcDbLine
 10
236.999975
 20
49.79999999999989
 30
0.0
 11
236.999975
 21
50.7999999999999
 31
0.0
  0
LINE
  5
AD
330
1E
100
AcDbEntity
  8
0
100
AcDbLine
 10
236.999975
 20
49.79999999999989
 30
0.0
 11
236.999975
 21
49.1999999999999
 31
0.0
  0
LINE
  5
AE
330
1E
100
AcDbEntity
  8
0
100
AcDbLine
 10
229.999975
 20
49.99999999999989
 30
0.0
 11
229.999975
 21
50.19999999999989
 31
0.0
  0
LINE
  5
AF
330
1E
100
AcDbEntity
  8
0
100
AcDbLine
 10
229.999975
 20
49.99999999999989
 30
0.0
 11
230.299975
 21
49.29999999999989
 31
0.0
  0
LINE
  5
B0
330
1E
100
AcDbEntity
  8
0
100
AcDbLine
 10
230.299975
 20
49.29999999999989
 30
0.0
 11
230.999975
 21
48.99999999999989
 31
0.0
  0
LINE
  5
B1
330
1E
100
AcDbEntity
  8
0
100
AcDbLine
 10
230.299975
 20
49.29999999999989
 30
0.0
 11
230.299975
 21
49.49999999999989
 31
0.0
  0
LINE
  5
B2
330
1E
100
AcDbEntity
  8
0
100
AcDbLine
 10
236.999975
 20
48.99999999999989
 30
0.0
 11
236.999975
 21
49.1999999999999
 31
0.0
  0
LINE
  5
B3
330
1E
100
AcDbEntity
  8
0
100
AcDbLine
 10
229.999975
 20
52.49999999999989
 30
0.0
 11
229.999975
 21
50.69999999999989
 31
0.0
  0
LINE
  5
B4
330
1E
100
AcDbEntity
  8
0
100
AcDbLine
 10
229.999975
 20
52.49999999999989
 30
0.0
 11
229.999975
 21
53.6999999999999
 31
0.0
  0
LINE
  5
B5
330
1E
100
AcDbEntity
  8
0
100
AcDbLine
 10
229.999975
 20
50.69999999999989
 30
0.0
 11
229.999975
 21
50.19999999999989
 31
0.0
  0
LINE
  5
B6
330
1E
100
AcDbEntity
  8
0
100
AcDbLine
 10
229.999975
 20
50.69999999999989
 30
0.0
 11
229.999975
 21
52.49999999999989
 31
0.0
  0
LINE
  5
B7
330
1E
100
AcDbEntity
  8
0
100
AcDbLine
 10
229.999975
 20
53.6999999999999
 30
0.0
 11
229.999975
 21
52.49999999999989
 31
0.0
  0
LINE
  5
B8
330
1E
100
AcDbEntity
  8
0
100
AcDbLine
 10
229.999975
 20
53.6999999999999
 30
0.0
 11
229.999975
 21
54.99999999999989
 31
0.0
  0
LINE
  5
B9
330
1E
100
AcDbEntity
  8
0
100
AcDbLine
 10
229.999975
 20
54.99999999999989
 30
0.0
 11
229.999975
 21
53.6999999999999
 31
0.0
  0
LINE
  5
BA
330
1E
100
AcDbEntity
  8
0
100
AcDbLine
 10
229.999975
 20
54.99999999999989
 30
0.0
 11
229.999975
 21
55.99999999999989
 31
0.0
  0
LINE
  5
BB
330
1E
100
AcDbEntity
  8
0
100
AcDbLine
 10
229.999975
 20
54.99999999999989
 30
0.0
 11
229.999975
 21
65.9999999999999
 31
0.0
  0
LINE
  5
BC
330
1E
100
AcDbEntity
  8
0
100
AcDbLine
 10
229.999975
 20
57.39999999999989
 30
0.0
 11
229.999975
 21
59.99999999999989
 31
0.0
  0
LINE
  5
BD
330
1E
100
AcDbEntity
  8
0
100
AcDbLine
 10
229.999975
 20
57.39999999999989
 30
0.0
 11
229.999975
 21
56.39999999999989
 31
0.0
  0
LINE
  5
BE
330
1E
100
AcDbEntity
  8
0
100
AcDbLine
 10
229.999975
 20
56.39999999999989
 30
0.0
 11
229.999975
 21
57.39999999999989
 31
0.0
  0
LINE
  5
BF
330
1E
100
AcDbEntity
  8
0
100
AcDbLine
 10
230.299975
 20
50.99999999999989
 30
0.0
 11
230.299975
 21
52.19999999999989
 31
0.0
  0
LINE
  5
C0
330
1E
100
AcDbEntity
  8
0
100
AcDbLine
 10
230.299975
 20
50.99999999999989
 30
0.0
 11
230.299975
 21
50.0999999999999
 31
0.0
  0
LINE
  5
C1
330
1E
100
AcDbEntity
  8
0
100
AcDbLine
 10
230.299975
 20
52.19999999999989
 30
0.0
 11
230.299975
 21
50.99999999999989
 31
0.0
  0
LINE
  5
C2
330
1E
100
AcDbEntity
  8
0
100
AcDbLine
 10
230.299975
 20
52.19999999999989
 30
0.0
 11
230.299975
 21
53.49999999999989
 31
0.0
  0
LINE
  5
C3
330
1E
100
AcDbEntity
  8
0
100
AcDbLine
 10
230.299975
 20
53.49999999999989
 30
0.0
 11
230.299975
 21
54.99999999999989
 31
0.0
  0
LINE
  5
C4
330
1E
100
AcDbEntity
  8
0
100
AcDbLine
 10
230.299975
 20
53.49999999999989
 30
0.0
 11
230.299975
 21
52.19999999999989
 31
0.0
  0
LINE
  5
C5
330
1E
100
AcDbEntity
  8
0
100
AcDbLine
 10
236.999975
 20
54.99999999999989
 30
0.0
 11
236.999975
 21
83.0
 31
0.0
  0
LINE
  5
C6
330
1E
100
AcDbEntity
  8
0
100
AcDbLine
 10
236.999975
 20
54.99999999999989
 30
0.0
 11
236.999975
 21
53.49999999999989
 31
0.0
  0
LINE
  5
C7
330
1E
100
AcDbEntity
  8
0
100
AcDbLine
 10
236.999975
 20
53.49999999999989
 30
0.0
 11
236.999975
 21
54.99999999999989
 31
0.0
  0
LINE
  5
C8
330
1E
100
AcDbEntity
  8
0
100
AcDbLine
 10
236.999975
 20
53.49999999999989
 30
0.0
 11
236.999975
 21
51.99999999999989
 31
0.0
  0
LINE
  5
C9
330
1E
100
AcDbEntity
  8
0
100
AcDbLine
 10
236.999975
 20
51.99999999999989
 30
0.0
 11
236.999975
 21
53.49999999999989
 31
0.0
  0
LINE
  5
CA
330
1E
100
AcDbEntity
  8
0
100
AcDbLine
 10
236.999975
 20
51.99999999999989
 30
0.0
 11
236.999975
 21
50.7999999999999
 31
0.0
  0
LINE
  5
CB
330
1E
100
AcDbEntity
  8
0
100
AcDbLine
 10
303.999975
 20
51.25199999999979
 30
0.0
 11
303.999975
 21
50.9999999999998
 31
0.0
  0
LINE
  5
CC
330
1E
100
AcDbEntity
  8
0
100
AcDbLine
 10
303.999975
 20
51.25199999999979
 30
0.0
 11
303.999975
 21
51.9239999999998
 31
0.0
  0
LINE
  5
CD
330
1E
100
AcDbEntity
  8
0
100
AcDbLine
 10
303.999975
 20
50.9999999999998
 30
0.0
 11
308.9999749999999
 21
50.9999999999998
 31
0.0
  0
LINE
  5
CE
330
1E
100
AcDbEntity
  8
0
100
AcDbLine
 10
303.999975
 20
50.9999999999998
 30
0.0
 11
303.999975
 21
51.25199999999979
 31
0.0
  0
LINE
  5
CF
330
1E
100
AcDbEntity
  8
0
100
AcDbLine
 10
303.999975
 20
51.9239999999998
 30
0.0
 11
303.999975
 21
51.25199999999979
 31
0.0
  0
LINE
  5
D0
330
1E
100
AcDbEntity
  8
0
100
AcDbLine
 10
303.999975
 20
51.9239999999998
 30
0.0
 11
303.999975
 21
53.04399999999979
 31
0.0
  0
LINE
  5
D1
330
1E
100
AcDbEntity
  8
0
100
AcDbLine
 10
303.999975
 20
53.04399999999979
 30
0.0
 11
303.999975
 21
51.9239999999998
 31
0.0
  0
LINE
  5
D2
330
1E
100
AcDbEntity
  8
0
100
AcDbLine
 10
303.999975
 20
53.04399999999979
 30
0.0
 11
303.999975
 21
54.5279999999998
 31
0.0
  0
LINE
  5
D3
330
1E
100
AcDbEntity
  8
0
100
AcDbLine
 10
303.999975
 20
52.9999999999998
 30
0.0
 11
303.999975
 21
53.1799999999998
 31
0.0
  0
LINE
  5
D4
330
1E
100
AcDbEntity
  8
0
100
AcDbLine
 10
303.999975
 20
53.1799999999998
 30
0.0
 11
303.999975
 21
53.6599999999998
 31
0.0
  0
LINE
  5
D5
330
1E
100
AcDbEntity
  8
0
100
AcDbLine
 10
303.999975
 20
53.1799999999998
 30
0.0
 11
303.999975
 21
52.9999999999998
 31
0.0
  0
LINE
  5
D6
330
1E
100
AcDbEntity
  8
0
100
AcDbLine
 10
308.9999749999999
 20
50.9999999999998
 30
0.0
 11
308.9999749999999
 21
51.25199999999979
 31
0.0
  0
LINE
  5
D7
330
1E
100
AcDbEntity
  8
0
100
AcDbLine
 10
308.9999749999999
 20
51.25199999999979
 30
0.0
 11
308.9999749999999
 21
51.9239999999998
 31
0.0
  0
LINE
  5
D8
330
1E
100
AcDbEntity
  8
0
100
AcDbLine
 10
308.9999749999999
 20
51.25199999999979
 30
0.0
 11
308.9999749999999
 21
50.9999999999998
 31
0.0
  0
LINE
  5
D9
330
1E
100
AcDbEntity
  8
0
100
AcDbLine
 10
308.9999749999999
 20
51.9239999999998
 30
0.0
 11
308.9999749999999
 21
53.04399999999979
 31
0.0
  0
LINE
  5
DA
330
1E
100
AcDbEntity
  8
0
100
AcDbLine
 10
308.9999749999999
 20
51.9239999999998
 30
0.0
 11
308.9999749999999
 21
51.25199999999979
 31
0.0
  0
LINE
  5
DB
330
1E
100
AcDbEntity
  8
0
100
AcDbLine
 10
308.9999749999999
 20
53.04399999999979
 30
0.0
 11
308.9999749999999
 21
54.5279999999998
 31
0.0
  0
LINE
  5
DC
330
1E
100
AcDbEntity
  8
0
100
AcDbLine
 10
308.9999749999999
 20
53.04399999999979
 30
0.0
 11
308.9999749999999
 21
51.9239999999998
 31
0.0
  0
LINE
  5
DD
330
1E
100
AcDbEntity
  8
0
100
AcDbLine
 10
303.999975
 20
53.6599999999998
 30
0.0
 11
303.999975
 21
54.4599999999998
 31
0.0
  0
LINE
  5
DE
330
1E
100
AcDbEntity
  8
0
100
AcDbLine
 10
303.999975
 20
53.6599999999998
 30
0.0
 11
303.999975
 21
53.1799999999998
 31
0.0
  0
LINE
  5
DF
330
1E
100
AcDbEntity
  8
0
100
AcDbLine
 10
308.9999749999999
 20
54.5279999999998
 30
0.0
 11
308.9999749999999
 21
56.2079999999998
 31
0.0
  0
LINE
  5
E0
330
1E
100
AcDbEntity
  8
0
100
AcDbLine
 10
308.9999749999999
 20
54.5279999999998
 30
0.0
 11
308.9999749999999
 21
53.04399999999979
 31
0.0
  0
LINE
  5
E1
330
1E
100
AcDbEntity
  8
0
100
AcDbLine
 10
303.999975
 20
54.5279999999998
 30
0.0
 11
303.999975
 21
53.04399999999979
 31
0.0
  0
LINE
  5
E2
330
1E
100
AcDbEntity
  8
0
100
AcDbLine
 10
303.999975
 20
54.5279999999998
 30
0.0
 11
303.999975
 21
56.2079999999998
 31
0.0
  0
LINE
  5
E3
330
1E
100
AcDbEntity
  8
0
100
AcDbLine
 10
303.999975
 20
54.5279999999998
 30
0.0
 11
303.999975
 21
63.9999999999998
 31
0.0
  0
LINE
  5
E4
330
1E
100
AcDbEntity
  8
0
100
AcDbLine
 10
303.999975
 20
54.4599999999998
 30
0.0
 11
303.999975
 21
55.5199999999998
 31
0.0
  0
LINE
  5
E5
330
1E
100
AcDbEntity
  8
0
100
AcDbLine
 10
303.999975
 20
54.4599999999998
 30
0.0
 11
303.999975
 21
53.6599999999998
 31
0.0
  0
LINE
  5
E6
330
1E
100
AcDbEntity
  8
0
100
AcDbLine
 10
236.999975
 20
50.7999999999999
 30
0.0
 11
236.999975
 21
51.99999999999989
 31
0.0
  0
LINE
  5
E7
330
1E
100
AcDbEntity
  8
0
100
AcDbLine
 10
236.999975
 20
50.7999999999999
 30
0.0
 11
236.999975
 21
49.79999999999989
 31
0.0
  0
LINE
  5
E8
330
1E
100
AcDbEntity
  8
0
100
AcDbLine
 10
303.999975
 20
56.2079999999998
 30
0.0
 11
303.999975
 21
54.5279999999998
 31
0.0
  0
LINE
  5
E9
330
1E
100
AcDbEntity
  8
0
100
AcDbLine
 10
303.999975
 20
56.2079999999998
 30
0.0
 11
303.999975
 21
57.9999999999998
 31
0.0
  0
LINE
  5
EA
330
1E
100
AcDbEntity
  8
0
100
AcDbLine
 10
303.999975
 20
57.9999999999998
 30
0.0
 11
303.999975
 21
56.2079999999998
 31
0.0
  0
LINE
  5
EB
330
1E
100
AcDbEntity
  8
0
100
AcDbLine
 10
303.999975
 20
57.9999999999998
 30
0.0
 11
303.999975
 21
56.7199999999998
 31
0.0
  0
LINE
  5
EC
330
1E
100
AcDbEntity
  8
0
100
AcDbLine
 10
303.999975
 20
57.9999999999998
 30
0.0
 11
303.999975
 21
63.9999999999998
 31
0.0
  0
LINE
  5
ED
330
1E
100
AcDbEntity
  8
0
100
AcDbLine
 10
303.999975
 20
57.9999999999998
 30
0.0
 11
303.999975
 21
59.2799999999998
 31
0.0
  0
LINE
  5
EE
330
1E
100
AcDbEntity
  8
0
100
AcDbLine
 10
303.999975
 20
57.9999999999998
 30
0.0
 11
303.999975
 21
81.17569999999979
 31
0.0
  0
LINE
  5
EF
330
1E
100
AcDbEntity
  8
0
100
AcDbLine
 10
303.999975
 20
55.5199999999998
 30
0.0
 11
303.999975
 21
56.7199999999998
 31
0.0
  0
LINE
  5
F0
330
1E
100
AcDbEntity
  8
0
100
AcDbLine
 10
303.999975
 20
55.5199999999998
 30
0.0
 11
303.999975
 21
54.4599999999998
 31
0.0
  0
LINE
  5
F1
330
1E
100
AcDbEntity
  8
0
100
AcDbLine
 10
308.9999749999999
 20
56.2079999999998
 30
0.0
 11
308.9999749999999
 21
57.9999999999998
 31
0.0
  0
LINE
  5
F2
330
1E
100
AcDbEntity
  8
0
100
AcDbLine
 10
308.9999749999999
 20
56.2079999999998
 30
0.0
 11
308.9999749999999
 21
54.5279999999998
 31
0.0
  0
LINE
  5
F3
330
1E
100
AcDbEntity
  8
0
100
AcDbLine
 10
308.9999749999999
 20
57.9999999999998
 30
0.0
 11
308.9999749999999
 21
82.99999999999981
 31
0.0
  0
LINE
  5
F4
330
1E
100
AcDbEntity
  8
0
100
AcDbLine
 10
308.9999749999999
 20
57.9999999999998
 30
0.0
 11
308.9999749999999
 21
56.2079999999998
 31
0.0
  0
LINE
  5
F5
330
1E
100
AcDbEntity
  8
0
100
AcDbLine
 10
303.999975
 20
56.7199999999998
 30
0.0
 11
303.999975
 21
57.9999999999998
 31
0.0
  0
LINE
  5
F6
330
1E
100
AcDbEntity
  8
0
100
AcDbLine
 10
303.999975
 20
56.7199999999998
 30
0.0
 11
303.999975
 21
55.5199999999998
 31
0.0
  0
LINE
  5
F7
330
1E
100
AcDbEntity
  8
0
100
AcDbLine
 10
230.299975
 20
54.99999999999989
 30
0.0
 11
230.299975
 21
83.0
 31
0.0
  0
LINE
  5
F8
330
1E
100
AcDbEntity
  8
0
100
AcDbLine
 10
230.299975
 20
54.99999999999989
 30
0.0
 11
230.299975
 21
53.49999999999989
 31
0.0
  0
LINE
  5
F9
330
1E
100
AcDbEntity
  8
0
100
AcDbLine
 10
229.999975
 20
55.99999999999989
 30
0.0
 11
229.999975
 21
54.99999999999989
 31
0.0
  0
LINE
  5
FA
330
1E
100
AcDbEntity
  8
0
100
AcDbLine
 10
229.999975
 20
58.6999999999999
 30
0.0
 11
229.999975
 21
63.19999999999989
 31
0.0
  0
LINE
  5
FB
330
1E
100
AcDbEntity
  8
0
100
AcDbLine
 10
229.999975
 20
59.99999999999989
 30
0.0
 11
229.999975
 21
57.39999999999989
 31
0.0
  0
LINE
  5
FC
330
1E
100
AcDbEntity
  8
0
100
AcDbLine
 10
229.999975
 20
59.99999999999989
 30
0.0
 11
229.999975
 21
64.2
 31
0.0
  0
LINE
  5
FD
330
1E
100
AcDbEntity
  8
0
100
AcDbLine
 10
303.999975
 20
60.4799999999998
 30
0.0
 11
303.999975
 21
59.2799999999998
 31
0.0
  0
LINE
  5
FE
330
1E
100
AcDbEntity
  8
0
100
AcDbLine
 10
303.999975
 20
60.4799999999998
 30
0.0
 11
303.999975
 21
61.5399999999998
 31
0.0
  0
LINE
  5
FF
330
1E
100
AcDbEntity
  8
0
100
AcDbLine
 10
303.999975
 20
59.2799999999998
 30
0.0
 11
303.999975
 21
57.9999999999998
 31
0.0
  0
LINE
  5
100
330
1E
100
AcDbEntity
  8
0
100
AcDbLine
 10
303.999975
 20
59.2799999999998
 30
0.0
 11
303.999975
 21
60.4799999999998
 31
0.0
  0
LINE
  5
101
330
1E
100
AcDbEntity
  8
0
100
AcDbLine
 10
279.9999749999999
 20
59.9999999999998
 30
0.0
 11
279.9999749999999
 21
60.8279999999998
 31
0.0
  0
LINE
  5
102
330
1E
100
AcDbEntity
  8
0
100
AcDbLine
 10
279.9999749999999
 20
59.9999999999998
 30
0.0
 11
283.0587985294119
 21
63.9999999999998
 31
0.0
  0
LINE
  5
103
330
1E
100
AcDbEntity
  8
0
100
AcDbLine
 10
279.9999749999999
 20
60.8279999999998
 30
0.0
 11
279.9999749999999
 21
63.0359999999998
 31
0.0
  0
LINE
  5
104
330
1E
100
AcDbEntity
  8
0
100
AcDbLine
 10
279.9999749999999
 20
60.8279999999998
 30
0.0
 11
279.9999749999999
 21
59.9999999999998
 31
0.0
  0
LINE
  5
105
330
1E
100
AcDbEntity
  8
0
100
AcDbLine
 10
271.9999749999999
 20
59.9999999999998
 30
0.0
 11
271.9999749999999
 21
60.8279999999998
 31
0.0
  0
LINE
  5
106
330
1E
100
AcDbEntity
  8
0
100
AcDbLine
 10
271.9999749999999
 20
59.9999999999998
 30
0.0
 11
279.9999749999999
 21
59.9999999999998
 31
0.0
  0
LINE
  5
107
330
1E
100
AcDbEntity
  8
0
100
AcDbLine
 10
271.9999749999999
 20
63.0359999999998
 30
0.0
 11
271.9999749999999
 21
66.7159999999998
 31
0.0
  0
LINE
  5
108
330
1E
100
AcDbEntity
  8
0
100
AcDbLine
 10
271.9999749999999
 20
63.0359999999998
 30
0.0
 11
271.9999749999999
 21
60.8279999999998
 31
0.0
  0
LINE
  5
109
330
1E
100
AcDbEntity
  8
0
100
AcDbLine
 10
271.9999749999999
 20
62.7559999999998
 30
0.0
 11
271.9999749999999
 21
61.9999999999998
 31
0.0
  0
LINE
  5
10A
330
1E
100
AcDbEntity
  8
0
100
AcDbLine
 10
236.999975
 20
61.9999999999998
 30
0.0
 11
271.9999749999999
 21
61.9999999999998
 31
0.0
  0
LINE
  5
10B
330
1E
100
AcDbEntity
  8
0
100
AcDbLine
 10
303.999975
 20
62.9999999999998
 30
0.0
 11
303.999975
 21
62.8199999999998
 31
0.0
  0
LINE
  5
10C
330
1E
100
AcDbEntity
  8
0
100
AcDbLine
 10
303.999975
 20
62.8199999999998
 30
0.0
 11
303.999975
 21
62.3399999999998
 31
0.0
  0
LINE
  5
10D
330
1E
100
AcDbEntity
  8
0
100
AcDbLine
 10
303.999975
 20
62.8199999999998
 30
0.0
 11
303.999975
 21
62.9999999999998
 31
0.0
  0
LINE
  5
10E
330
1E
100
AcDbEntity
  8
0
100
AcDbLine
 10
303.999975
 20
62.3399999999998
 30
0.0
 11
303.999975
 21
61.5399999999998
 31
0.0
  0
LINE
  5
10F
330
1E
100
AcDbEntity
  8
0
100
AcDbLine
 10
303.999975
 20
62.3399999999998
 30
0.0
 11
303.999975
 21
62.8199999999998
 31
0.0
  0
LINE
  5
110
330
1E
100
AcDbEntity
  8
0
100
AcDbLine
 10
303.999975
 20
61.5399999999998
 30
0.0
 11
303.999975
 21
60.4799999999998
 31
0.0
  0
LINE
  5
111
330
1E
100
AcDbEntity
  8
0
100
AcDbLine
 10
303.999975
 20
61.5399999999998
 30
0.0
 11
303.999975
 21
62.3399999999998
 31
0.0
  0
LINE
  5
112
330
1E
100
AcDbEntity
  8
0
100
AcDbLine
 10
279.9999749999999
 20
63.0359999999998
 30
0.0
 11
279.9999749999999
 21
66.7159999999998
 31
0.0
  0
LINE
  5
113
330
1E
100
AcDbEntity
  8
0
100
AcDbLine
 10
279.9999749999999
 20
63.0359999999998
 30
0.0
 11
279.9999749999999
 21
60.8279999999998
 31
0.0
  0
LINE
  5
114
330
1E
100
AcDbEntity
  8
0
100
AcDbLine
 10
271.9999749999999
 20
61.9999999999998
 30
0.0
 11
271.9999749999999
 21
60.8279999999998
 31
0.0
  0
LINE
  5
115
330
1E
100
AcDbEntity
  8
0
100
AcDbLine
 10
271.9999749999999
 20
60.8279999999998
 30
0.0
 11
271.9999749999999
 21
61.9999999999998
 31
0.0
  0
LINE
  5
116
330
1E
100
AcDbEntity
  8
0
100
AcDbLine
 10
271.9999749999999
 20
60.8279999999998
 30
0.0
 11
271.9999749999999
 21
59.9999999999998
 31
0.0
  0
LINE
  5
117
330
1E
100
AcDbEntity
  8
0
100
AcDbLine
 10
271.9999749999999
 20
60.8279999999998
 30
0.0
 11
271.9999749999999
 21
63.0359999999998
 31
0.0
  0
LINE
  5
118
330
1E
100
AcDbEntity
  8
0
100
AcDbLine
 10
229.999975
 20
63.19999999999989
 30
0.0
 11
229.999975
 21
65.9999999999999
 31
0.0
  0
LINE
  5
119
330
1E
100
AcDbEntity
  8
0
100
AcDbLine
 10
229.999975
 20
63.19999999999989
 30
0.0
 11
229.999975
 21
58.6999999999999
 31
0.0
  0
LINE
  5
11A
330
1E
100
AcDbEntity
  8
0
100
AcDbLine
 10
229.999975
 20
63.19999999999989
 30
0.0
 11
229.999975
 21
69.09999999999989
 31
0.0
  0
LINE
  5
11B
330
1E
100
AcDbEntity
  8
0
100
AcDbLine
 10
229.999975
 20
65.4999999999999
 30
0.0
 11
229.999975
 21
66.09219999999989
 31
0.0
  0
LINE
  5
11C
330
1E
100
AcDbEntity
  8
0
100
AcDbLine
 10
229.999975
 20
65.4999999999999
 30
0.0
 11
229.999975
 21
65.9999999999999
 31
0.0
  0
LINE
  5
11D
330
1E
100
AcDbEntity
  8
0
100
AcDbLine
 10
283.0587985294119
 20
63.9999999999998
 30
0.0
 11
283.3279749999999
 21
63.9999999999998
 31
0.0
  0
LINE
  5
11E
330
1E
100
AcDbEntity
  8
0
100
AcDbLine
 10
283.0587985294119
 20
63.9999999999998
 30
0.0
 11
283.7959749999999
 21
63.9999999999998
 31
0.0
  0
LINE
  5
11F
330
1E
100
AcDbEntity
  8
0
100
AcDbLine
 10
283.3279749999999
 20
63.9999999999998
 30
0.0
 11
285.1108749999998
 21
63.9999999999998
 31
0.0
  0
LINE
  5
120
330
1E
100
AcDbEntity
  8
0
100
AcDbLine
 10
285.1108749999998
 20
63.9999999999998
 30
0.0
 11
287.4730749999999
 21
63.9999999999998
 31
0.0
  0
LINE
  5
121
330
1E
100
AcDbEntity
  8
0
100
AcDbLine
 10
283.0587985294119
 20
63.9999999999998
 30
0.0
 11
283.7959749999999
 21
63.9999999999998
 31
0.0
  0
LINE
  5
122
330
1E
100
AcDbEntity
  8
0
100
AcDbLine
 10
283.0587985294119
 20
63.9999999999998
 30
0.0
 11
283.3279749999999
 21
63.9999999999998
 31
0.0
  0
LINE
  5
123
330
1E
100
AcDbEntity
  8
0
100
AcDbLine
 10
283.7959749999999
 20
63.9999999999998
 30
0.0
 11
286.5519749999999
 21
63.9999999999998
 31
0.0
  0
LINE
  5
124
330
1E
100
AcDbEntity
  8
0
100
AcDbLine
 10
295.852575
 20
63.9999999999998
 30
0.0
 11
298.5268749999999
 21
63.9999999999998
 31
0.0
  0
LINE
  5
125
330
1E
100
AcDbEntity
  8
0
100
AcDbLine
 10
300.8890749999999
 20
63.9999999999998
 30
0.0
 11
302.6719749999998
 21
63.9999999999998
 31
0.0
  0
LINE
  5
126
330
1E
100
AcDbEntity
  8
0
100
AcDbLine
 10
298.5268749999999
 20
63.9999999999998
 30
0.0
 11
300.8890749999999
 21
63.9999999999998
 31
0.0
  0
LINE
  5
127
330
1E
100
AcDbEntity
  8
0
100
AcDbLine
 10
303.999975
 20
63.9999999999998
 30
0.0
 11
303.999975
 21
54.5279999999998
 31
0.0
  0
LINE
  5
128
330
1E
100
AcDbEntity
  8
0
100
AcDbLine
 10
303.999975
 20
63.9999999999998
 30
0.0
 11
303.999975
 21
57.9999999999998
 31
0.0
  0
LINE
  5
129
330
1E
100
AcDbEntity
  8
0
100
AcDbLine
 10
303.7416749999998
 20
63.9999999999998
 30
0.0
 11
303.999975
 21
63.9999999999998
 31
0.0
  0
LINE
  5
12A
330
1E
100
AcDbEntity
  8
0
100
AcDbLine
 10
302.6719749999998
 20
63.9999999999998
 30
0.0
 11
303.7416749999998
 21
63.9999999999998
 31
0.0
  0
LINE
  5
12B
330
1E
100
AcDbEntity
  8
0
100
AcDbLine
 10
302.203975
 20
63.9999999999998
 30
0.0
 11
303.999975
 21
63.9999999999998
 31
0.0
  0
LINE
  5
12C
330
1E
100
AcDbEntity
  8
0
100
AcDbLine
 10
299.4479749999999
 20
63.9999999999998
 30
0.0
 11
302.203975
 21
63.9999999999998
 31
0.0
  0
LINE
  5
12D
330
1E
100
AcDbEntity
  8
0
100
AcDbLine
 10
296.3279749999999
 20
63.9999999999998
 30
0.0
 11
299.4479749999999
 21
63.9999999999998
 31
0.0
  0
LINE
  5
12E
330
1E
100
AcDbEntity
  8
0
100
AcDbLine
 10
292.9999749999998
 20
63.9999999999998
 30
0.0
 11
296.3279749999999
 21
63.9999999999998
 31
0.0
  0
LINE
  5
12F
330
1E
100
AcDbEntity
  8
0
100
AcDbLine
 10
292.9999749999998
 20
63.9999999999998
 30
0.0
 11
295.852575
 21
63.9999999999998
 31
0.0
  0
LINE
  5
130
330
1E
100
AcDbEntity
  8
0
100
AcDbLine
 10
287.4730749999999
 20
63.9999999999998
 30
0.0
 11
289.6719749999998
 21
63.9999999999998
 31
0.0
  0
LINE
  5
131
330
1E
100
AcDbEntity
  8
0
100
AcDbLine
 10
290.1473749999999
 20
63.9999999999998
 30
0.0
 11
292.9999749999998
 21
63.9999999999998
 31
0.0
  0
LINE
  5
132
330
1E
100
AcDbEntity
  8
0
100
AcDbLine
 10
286.5519749999999
 20
63.9999999999998
 30
0.0
 11
289.6719749999998
 21
63.9999999999998
 31
0.0
  0
LINE
  5
133
330
1E
100
AcDbEntity
  8
0
100
AcDbLine
 10
271.9999749999999
 20
64.77199999999981
 30
0.0
 11
271.9999749999999
 21
62.7559999999998
 31
0.0
  0
LINE
  5
134
330
1E
100
AcDbEntity
  8
0
100
AcDbLine
 10
289.6719749999998
 20
63.9999999999998
 30
0.0
 11
292.9999749999998
 21
63.9999999999998
 31
0.0
  0
LINE
  5
135
330
1E
100
AcDbEntity
  8
0
100
AcDbLine
 10
229.999975
 20
64.2
 30
0.0
 11
229.999975
 21
65.9999999999999
 31
0.0
  0
LINE
  5
136
330
1E
100
AcDbEntity
  8
0
100
AcDbLine
 10
229.999975
 20
64.2
 30
0.0
 11
229.999975
 21
59.99999999999989
 31
0.0
  0
LINE
  5
137
330
1E
100
AcDbEntity
  8
0
100
AcDbLine
 10
192.946975
 20
65.9999999999999
 30
0.0
 11
206.999975
 21
65.9999999999999
 31
0.0
  0
LINE
  5
138
330
1E
100
AcDbEntity
  8
0
100
AcDbLine
 10
204.154975
 20
95.05349999999999
 30
0.0
 11
205.0379749999998
 21
91.40089999999998
 31
0.0
  0
LINE
  5
139
330
1E
100
AcDbEntity
  8
0
100
AcDbLine
 10
203.524975
 20
97.7236
 30
0.0
 11
204.154975
 21
95.05349999999999
 31
0.0
  0
LINE
  5
13A
330
1E
100
AcDbEntity
  8
0
100
AcDbLine
 10
203.360530076031
 20
98.41231003145001
 30
0.0
 11
204.1999749999999
 21
98.66669999999992
 31
0.0
  0
LINE
  5
13B
330
1E
100
AcDbEntity
  8
0
100
AcDbLine
 10
229.999975
 20
65.9999999999999
 30
0.0
 11
229.999975
 21
64.2
 31
0.0
  0
LINE
  5
13C
330
1E
100
AcDbEntity
  8
0
100
AcDbLine
 10
229.999975
 20
65.9999999999999
 30
0.0
 11
229.999975
 21
65.4999999999999
 31
0.0
  0
LINE
  5
13D
330
1E
100
AcDbEntity
  8
0
100
AcDbLine
 10
229.999975
 20
65.9999999999999
 30
0.0
 11
229.999975
 21
63.19999999999989
 31
0.0
  0
LINE
  5
13E
330
1E
100
AcDbEntity
  8
0
100
AcDbLine
 10
229.999975
 20
65.9999999999999
 30
0.0
 11
229.999975
 21
54.99999999999989
 31
0.0
  0
LINE
  5
13F
330
1E
100
AcDbEntity
  8
0
100
AcDbLine
 10
211.226975
 20
66.84999999999989
 30
0.0
 11
211.226975
 21
68.5
 31
0.0
  0
LINE
  5
140
330
1E
100
AcDbEntity
  8
0
100
AcDbLine
 10
211.226975
 20
66.84999999999989
 30
0.0
 11
211.226975
 21
66.2499999999999
 31
0.0
  0
LINE
  5
141
330
1E
100
AcDbEntity
  8
0
100
AcDbLine
 10
210.999975
 20
66.7499999999999
 30
0.0
 11
211.226975
 21
66.2499999999999
 31
0.0
  0
LINE
  5
142
330
1E
100
AcDbEntity
  8
0
100
AcDbLine
 10
210.999975
 20
66.7499999999999
 30
0.0
 11
210.999975
 21
67.34999999999989
 31
0.0
  0
LINE
  5
143
330
1E
100
AcDbEntity
  8
0
100
AcDbLine
 10
271.9999749999999
 20
66.7159999999998
 30
0.0
 11
271.9999749999999
 21
71.5919999999998
 31
0.0
  0
LINE
  5
144
330
1E
100
AcDbEntity
  8
0
100
AcDbLine
 10
271.9999749999999
 20
66.7159999999998
 30
0.0
 11
271.9999749999999
 21
63.0359999999998
 31
0.0
  0
LINE
  5
145
330
1E
100
AcDbEntity
  8
0
100
AcDbLine
 10
279.9999749999999
 20
66.7159999999998
 30
0.0
 11
279.9999749999999
 21
71.5919999999998
 31
0.0
  0
LINE
  5
146
330
1E
100
AcDbEntity
  8
0
100
AcDbLine
 10
279.9999749999999
 20
66.7159999999998
 30
0.0
 11
279.9999749999999
 21
63.0359999999998
 31
0.0
  0
LINE
  5
147
330
1E
100
AcDbEntity
  8
0
100
AcDbLine
 10
229.999975
 20
66.09219999999989
 30
0.0
 11
229.999975
 21
67.81049999999989
 31
0.0
  0
LINE
  5
148
330
1E
100
AcDbEntity
  8
0
100
AcDbLine
 10
229.999975
 20
66.09219999999989
 30
0.0
 11
229.999975
 21
65.4999999999999
 31
0.0
  0
LINE
  5
149
330
1E
100
AcDbEntity
  8
0
100
AcDbLine
 10
211.226975
 20
66.2499999999999
 30
0.0
 11
211.6819749999999
 21
65.9999999999999
 31
0.0
  0
LINE
  5
14A
330
1E
100
AcDbEntity
  8
0
100
AcDbLine
 10
211.226975
 20
66.2499999999999
 30
0.0
 11
211.226975
 21
66.84999999999989
 31
0.0
  0
LINE
  5
14B
330
1E
100
AcDbEntity
  8
0
100
AcDbLine
 10
211.6819749999999
 20
65.9999999999999
 30
0.0
 11
229.999975
 21
65.9999999999999
 31
0.0
  0
LINE
  5
14C
330
1E
100
AcDbEntity
  8
0
100
AcDbLine
 10
206.999975
 20
66.6476
 30
0.0
 11
206.999975
 21
65.9999999999999
 31
0.0
  0
LINE
  5
14D
330
1E
100
AcDbEntity
  8
0
100
AcDbLine
 10
206.999975
 20
83.0
 30
0.0
 11
206.999975
 21
78.6285999999999
 31
0.0
  0
LINE
  5
14E
330
1E
100
AcDbEntity
  8
0
100
AcDbLine
 10
206.999975
 20
78.6285999999999
 30
0.0
 11
206.999975
 21
74.58099999999991
 31
0.0
  0
LINE
  5
14F
330
1E
100
AcDbEntity
  8
0
100
AcDbLine
 10
206.999975
 20
74.58099999999991
 30
0.0
 11
206.999975
 21
71.0191
 31
0.0
  0
LINE
  5
150
330
1E
100
AcDbEntity
  8
0
100
AcDbLine
 10
206.999975
 20
71.0191
 30
0.0
 11
206.999975
 21
68.2666999999999
 31
0.0
  0
LINE
  5
151
330
1E
100
AcDbEntity
  8
0
100
AcDbLine
 10
210.999975
 20
68.94999999999988
 30
0.0
 11
210.999975
 21
67.34999999999989
 31
0.0
  0
LINE
  5
152
330
1E
100
AcDbEntity
  8
0
100
AcDbLine
 10
210.999975
 20
67.34999999999989
 30
0.0
 11
210.999975
 21
68.94999999999988
 31
0.0
  0
LINE
  5
153
330
1E
100
AcDbEntity
  8
0
100
AcDbLine
 10
210.999975
 20
67.34999999999989
 30
0.0
 11
210.999975
 21
66.7499999999999
 31
0.0
  0
LINE
  5
154
330
1E
100
AcDbEntity
  8
0
100
AcDbLine
 10
210.999975
 20
71.5
 30
0.0
 11
210.999975
 21
74.89999999999991
 31
0.0
  0
LINE
  5
155
330
1E
100
AcDbEntity
  8
0
100
AcDbLine
 10
210.999975
 20
74.89999999999991
 30
0.0
 11
210.999975
 21
78.79999999999999
 31
0.0
  0
LINE
  5
156
330
1E
100
AcDbEntity
  8
0
100
AcDbLine
 10
210.999975
 20
74.89999999999991
 30
0.0
 11
210.999975
 21
71.5
 31
0.0
  0
LINE
  5
157
330
1E
100
AcDbEntity
  8
0
100
AcDbLine
 10
210.999975
 20
71.7332999999999
 30
0.0
 11
210.999975
 21
69.13329999999989
 31
0.0
  0
LINE
  5
158
330
1E
100
AcDbEntity
  8
0
100
AcDbLine
 10
210.999975
 20
69.13329999999989
 30
0.0
 11
210.999975
 21
67.5999999999999
 31
0.0
  0
LINE
  5
159
330
1E
100
AcDbEntity
  8
0
100
AcDbLine
 10
210.999975
 20
67.5999999999999
 30
0.0
 11
210.999975
 21
66.9999999999999
 31
0.0
  0
LINE
  5
15A
330
1E
100
AcDbEntity
  8
0
100
AcDbLine
 10
210.999975
 20
78.79999999999999
 30
0.0
 11
210.999975
 21
74.89999999999991
 31
0.0
  0
LINE
  5
15B
330
1E
100
AcDbEntity
  8
0
100
AcDbLine
 10
210.999975
 20
75.06669999999998
 30
0.0
 11
210.999975
 21
71.7332999999999
 31
0.0
  0
LINE
  5
15C
330
1E
100
AcDbEntity
  8
0
100
AcDbLine
 10
271.9999749999999
 20
68.1319999999998
 30
0.0
 11
271.9999749999999
 21
64.77199999999981
 31
0.0
  0
LINE
  5
15D
330
1E
100
AcDbEntity
  8
0
100
AcDbLine
 10
229.999975
 20
67.81049999999989
 30
0.0
 11
229.999975
 21
70.59999999999991
 31
0.0
  0
LINE
  5
15E
330
1E
100
AcDbEntity
  8
0
100
AcDbLine
 10
229.999975
 20
67.81049999999989
 30
0.0
 11
229.999975
 21
66.09219999999989
 31
0.0
  0
LINE
  5
15F
330
1E
100
AcDbEntity
  8
0
100
AcDbLine
 10
211.226975
 20
74.6499999999999
 30
0.0
 11
211.226975
 21
78.7
 31
0.0
  0
LINE
  5
160
330
1E
100
AcDbEntity
  8
0
100
AcDbLine
 10
211.226975
 20
74.6499999999999
 30
0.0
 11
211.226975
 21
71.14999999999991
 31
0.0
  0
LINE
  5
161
330
1E
100
AcDbEntity
  8
0
100
AcDbLine
 10
211.226975
 20
83.0
 30
0.0
 11
211.226975
 21
78.7
 31
0.0
  0
LINE
  5
162
330
1E
100
AcDbEntity
  8
0
100
AcDbLine
 10
211.226975
 20
83.0
 30
0.0
 11
211.226975
 21
87.3
 31
0.0
  0
LINE
  5
163
330
1E
100
AcDbEntity
  8
0
100
AcDbLine
 10
211.226975
 20
78.7
 30
0.0
 11
211.226975
 21
83.0
 31
0.0
  0
LINE
  5
164
330
1E
100
AcDbEntity
  8
0
100
AcDbLine
 10
211.226975
 20
78.7
 30
0.0
 11
211.226975
 21
74.6499999999999
 31
0.0
  0
LINE
  5
165
330
1E
100
AcDbEntity
  8
0
100
AcDbLine
 10
229.999975
 20
74.2312
 30
0.0
 11
229.999975
 21
78.4824
 31
0.0
  0
LINE
  5
166
330
1E
100
AcDbEntity
  8
0
100
AcDbLine
 10
229.999975
 20
74.2312
 30
0.0
 11
229.999975
 21
70.59999999999991
 31
0.0
  0
LINE
  5
167
330
1E
100
AcDbEntity
  8
0
100
AcDbLine
 10
229.999975
 20
78.4824
 30
0.0
 11
229.999975
 21
83.0
 31
0.0
  0
LINE
  5
168
330
1E
100
AcDbEntity
  8
0
100
AcDbLine
 10
229.999975
 20
78.4824
 30
0.0
 11
229.999975
 21
74.2312
 31
0.0
  0
LINE
  5
169
330
1E
100
AcDbEntity
  8
0
100
AcDbLine
 10
229.999975
 20
69.09999999999989
 30
0.0
 11
229.999975
 21
63.19999999999989
 31
0.0
  0
LINE
  5
16A
330
1E
100
AcDbEntity
  8
0
100
AcDbLine
 10
271.9999749999999
 20
71.5919999999998
 30
0.0
 11
271.9999749999999
 21
77.1119999999998
 31
0.0
  0
LINE
  5
16B
330
1E
100
AcDbEntity
  8
0
100
AcDbLine
 10
271.9999749999999
 20
71.5919999999998
 30
0.0
 11
271.9999749999999
 21
66.7159999999998
 31
0.0
  0
LINE
  5
16C
330
1E
100
AcDbEntity
  8
0
100
AcDbLine
 10
271.9999749999999
 20
72.5839999999998
 30
0.0
 11
271.9999749999999
 21
68.1319999999998
 31
0.0
  0
LINE
  5
16D
330
1E
100
AcDbEntity
  8
0
100
AcDbLine
 10
279.9999749999999
 20
71.5919999999998
 30
0.0
 11
279.9999749999999
 21
77.1119999999998
 31
0.0
  0
LINE
  5
16E
330
1E
100
AcDbEntity
  8
0
100
AcDbLine
 10
279.9999749999999
 20
71.5919999999998
 30
0.0
 11
279.9999749999999
 21
66.7159999999998
 31
0.0
  0
LINE
  5
16F
330
1E
100
AcDbEntity
  8
0
100
AcDbLine
 10
296.3279749999999
 20
75.4679999999998
 30
0.0
 11
299.4479749999999
 21
76.7159999999998
 31
0.0
  0
LINE
  5
170
330
1E
100
AcDbEntity
  8
0
100
AcDbLine
 10
292.9999749999998
 20
74.9999999999998
 30
0.0
 11
296.3279749999999
 21
75.4679999999998
 31
0.0
  0
LINE
  5
171
330
1E
100
AcDbEntity
  8
0
100
AcDbLine
 10
271.9999749999999
 20
77.1119999999998
 30
0.0
 11
271.9999749999999
 21
82.99999999999981
 31
0.0
  0
LINE
  5
172
330
1E
100
AcDbEntity
  8
0
100
AcDbLine
 10
271.9999749999999
 20
77.1119999999998
 30
0.0
 11
271.9999749999999
 21
71.5919999999998
 31
0.0
  0
LINE
  5
173
330
1E
100
AcDbEntity
  8
0
100
AcDbLine
 10
271.9999749999999
 20
77.62399999999979
 30
0.0
 11
271.9999749999999
 21
72.5839999999998
 31
0.0
  0
LINE
  5
174
330
1E
100
AcDbEntity
  8
0
100
AcDbLine
 10
279.9999749999999
 20
77.1119999999998
 30
0.0
 11
279.9999749999999
 21
82.99999999999981
 31
0.0
  0
LINE
  5
175
330
1E
100
AcDbEntity
  8
0
100
AcDbLine
 10
279.9999749999999
 20
77.1119999999998
 30
0.0
 11
279.9999749999999
 21
71.5919999999998
 31
0.0
  0
LINE
  5
176
330
1E
100
AcDbEntity
  8
0
100
AcDbLine
 10
271.9999749999999
 20
82.99999999999981
 30
0.0
 11
271.9999749999999
 21
77.62399999999979
 31
0.0
  0
LINE
  5
177
330
1E
100
AcDbEntity
  8
0
100
AcDbLine
 10
271.9999749999999
 20
82.99999999999981
 30
0.0
 11
271.9999749999999
 21
88.8879999999998
 31
0.0
  0
LINE
  5
178
330
1E
100
AcDbEntity
  8
0
100
AcDbLine
 10
271.9999749999999
 20
82.99999999999981
 30
0.0
 11
271.9999749999999
 21
77.1119999999998
 31
0.0
  0
LINE
  5
179
330
1E
100
AcDbEntity
  8
0
100
AcDbLine
 10
279.9999749999999
 20
82.99999999999981
 30
0.0
 11
279.9999749999999
 21
88.8879999999998
 31
0.0
  0
LINE
  5
17A
330
1E
100
AcDbEntity
  8
0
100
AcDbLine
 10
279.9999749999999
 20
82.99999999999981
 30
0.0
 11
279.9999749999999
 21
77.1119999999998
 31
0.0
  0
LINE
  5
17B
330
1E
100
AcDbEntity
  8
0
100
AcDbLine
 10
283.3279749999999
 20
82.47309999999981
 30
0.0
 11
285.1108749999998
 21
80.11089999999979
 31
0.0
  0
LINE
  5
17C
330
1E
100
AcDbEntity
  8
0
100
AcDbLine
 10
285.1108749999998
 20
80.11089999999979
 30
0.0
 11
287.4730749999999
 21
78.32799999999981
 31
0.0
  0
LINE
  5
17D
330
1E
100
AcDbEntity
  8
0
100
AcDbLine
 10
281.7159749999999
 20
81.55199999999979
 30
0.0
 11
283.7959749999999
 21
78.79599999999979
 31
0.0
  0
LINE
  5
17E
330
1E
100
AcDbEntity
  8
0
100
AcDbLine
 10
283.7959749999999
 20
78.79599999999979
 30
0.0
 11
286.5519749999999
 21
76.7159999999998
 31
0.0
  0
LINE
  5
17F
330
1E
100
AcDbEntity
  8
0
100
AcDbLine
 10
292.9999749999998
 20
76.8570999999998
 30
0.0
 11
295.852575
 21
77.2582999999998
 31
0.0
  0
LINE
  5
180
330
1E
100
AcDbEntity
  8
0
100
AcDbLine
 10
295.852575
 20
77.2582999999998
 30
0.0
 11
298.5268749999999
 21
78.32799999999981
 31
0.0
  0
LINE
  5
181
330
1E
100
AcDbEntity
  8
0
100
AcDbLine
 10
299.4479749999999
 20
76.7159999999998
 30
0.0
 11
302.203975
 21
78.79599999999979
 31
0.0
  0
LINE
  5
182
330
1E
100
AcDbEntity
  8
0
100
AcDbLine
 10
298.5268749999999
 20
78.32799999999981
 30
0.0
 11
300.8890749999999
 21
80.11089999999979
 31
0.0
  0
LINE
  5
183
330
1E
100
AcDbEntity
  8
0
100
AcDbLine
 10
303.999975
 20
81.17569999999979
 30
0.0
 11
303.999975
 21
57.9999999999998
 31
0.0
  0
LINE
  5
184
330
1E
100
AcDbEntity
  8
0
100
AcDbLine
 10
303.999975
 20
81.17569999999979
 30
0.0
 11
303.999975
 21
80.9999999999998
 31
0.0
  0
LINE
  5
185
330
1E
100
AcDbEntity
  8
0
100
AcDbLine
 10
302.6719749999998
 20
82.47309999999981
 30
0.0
 11
303.7416749999998
 21
85.1473999999998
 31
0.0
  0
LINE
  5
186
330
1E
100
AcDbEntity
  8
0
100
AcDbLine
 10
300.8890749999999
 20
80.11089999999979
 30
0.0
 11
302.6719749999998
 21
82.47309999999981
 31
0.0
  0
LINE
  5
187
330
1E
100
AcDbEntity
  8
0
100
AcDbLine
 10
308.9999749999999
 20
82.99999999999981
 30
0.0
 11
308.9999749999999
 21
108.0
 31
0.0
  0
LINE
  5
188
330
1E
100
AcDbEntity
  8
0
100
AcDbLine
 10
308.9999749999999
 20
82.99999999999981
 30
0.0
 11
308.9999749999999
 21
57.9999999999998
 31
0.0
  0
LINE
  5
18A
330
1E
100
AcDbEntity
  8
0
100
AcDbLine
 10
304.283975
 20
81.55199999999979
 30
0.0
 11
305.5319749999998
 21
84.6719999999998
 31
0.0
  0
LINE
  5
18B
330
1E
100
AcDbEntity
  8
0
100
AcDbLine
 10
302.203975
 20
78.79599999999979
 30
0.0
 11
304.283975
 21
81.55199999999979
 31
0.0
  0
LINE
  5
18C
330
1E
100
AcDbEntity
  8
0
100
AcDbLine
 10
287.4730749999999
 20
78.32799999999981
 30
0.0
 11
290.1473749999999
 21
77.2582999999998
 31
0.0
  0
LINE
  5
18D
330
1E
100
AcDbEntity
  8
0
100
AcDbLine
 10
290.1473749999999
 20
77.2582999999998
 30
0.0
 11
292.9999749999998
 21
76.8570999999998
 31
0.0
  0
LINE
  5
18E
330
1E
100
AcDbEntity
  8
0
100
AcDbLine
 10
286.5519749999999
 20
76.7159999999998
 30
0.0
 11
289.6719749999998
 21
75.4679999999998
 31
0.0
  0
LINE
  5
18F
330
1E
100
AcDbEntity
  8
0
100
AcDbLine
 10
289.6719749999998
 20
75.4679999999998
 30
0.0
 11
292.9999749999998
 21
74.9999999999998
 31
0.0
  0
LINE
  5
190
330
1E
100
AcDbEntity
  8
0
100
AcDbLine
 10
236.999975
 20
83.0
 30
0.0
 11
236.999975
 21
54.99999999999989
 31
0.0
  0
LINE
  5
191
330
1E
100
AcDbEntity
  8
0
100
AcDbLine
 10
236.999975
 20
83.0
 30
0.0
 11
236.999975
 21
111.0
 31
0.0
  0
LINE
  5
192
330
1E
100
AcDbEntity
  8
0
100
AcDbLine
 10
230.299975
 20
83.0
 30
0.0
 11
230.299975
 21
54.99999999999989
 31
0.0
  0
LINE
  5
193
330
1E
100
AcDbEntity
  8
0
100
AcDbLine
 10
230.299975
 20
83.0
 30
0.0
 11
230.299975
 21
111.0
 31
0.0
  0
LINE
  5
194
330
1E
100
AcDbEntity
  8
0
100
AcDbLine
 10
229.999975
 20
70.59999999999991
 30
0.0
 11
229.999975
 21
67.81049999999989
 31
0.0
  0
LINE
  5
195
330
1E
100
AcDbEntity
  8
0
100
AcDbLine
 10
229.999975
 20
70.59999999999991
 30
0.0
 11
229.999975
 21
74.2312
 31
0.0
  0
LINE
  5
196
330
1E
100
AcDbEntity
  8
0
100
AcDbLine
 10
229.999975
 20
83.0
 30
0.0
 11
229.999975
 21
87.5176
 31
0.0
  0
LINE
  5
197
330
1E
100
AcDbEntity
  8
0
100
AcDbLine
 10
229.999975
 20
83.0
 30
0.0
 11
229.999975
 21
78.4824
 31
0.0
  0
LINE
  5
198
330
1E
100
AcDbEntity
  8
0
100
AcDbLine
 10
211.226975
 20
71.14999999999991
 30
0.0
 11
211.226975
 21
68.5
 31
0.0
  0
LINE
  5
199
330
1E
100
AcDbEntity
  8
0
100
AcDbLine
 10
211.226975
 20
71.14999999999991
 30
0.0
 11
211.226975
 21
74.6499999999999
 31
0.0
  0
LINE
  5
19A
330
1E
100
AcDbEntity
  8
0
100
AcDbLine
 10
211.226975
 20
68.5
 30
0.0
 11
211.226975
 21
71.14999999999991
 31
0.0
  0
LINE
  5
19B
330
1E
100
AcDbEntity
  8
0
100
AcDbLine
 10
211.226975
 20
68.5
 30
0.0
 11
211.226975
 21
66.84999999999989
 31
0.0
  0
LINE
  5
19C
330
1E
100
AcDbEntity
  8
0
100
AcDbLine
 10
210.999975
 20
78.86659999999991
 30
0.0
 11
210.999975
 21
75.06669999999998
 31
0.0
  0
LINE
  5
19D
330
1E
100
AcDbEntity
  8
0
100
AcDbLine
 10
210.999975
 20
87.2
 30
0.0
 11
210.999975
 21
83.0
 31
0.0
  0
LINE
  5
19E
330
1E
100
AcDbEntity
  8
0
100
AcDbLine
 10
303.7416749999998
 20
85.1473999999998
 30
0.0
 11
304.142875
 21
87.99999999999979
 31
0.0
  0
LINE
  5
19F
330
1E
100
AcDbEntity
  8
0
100
AcDbLine
 10
305.5319749999998
 20
84.6719999999998
 30
0.0
 11
305.999975
 21
87.99999999999979
 31
0.0
  0
LINE
  5
1A0
330
1E
100
AcDbEntity
  8
0
100
AcDbLine
 10
303.999975
 20
86.98395677966081
 30
0.0
 11
303.999975
 21
89.0160432203389
 31
0.0
  0
LINE
  5
1A1
330
1E
100
AcDbEntity
  8
0
100
AcDbLine
 10
282.2582749999999
 20
85.1473999999998
 30
0.0
 11
283.3279749999999
 21
82.47309999999981
 31
0.0
  0
LINE
  5
1A2
330
1E
100
AcDbEntity
  8
0
100
AcDbLine
 10
280.4679749999999
 20
84.6719999999998
 30
0.0
 11
281.7159749999999
 21
81.55199999999979
 31
0.0
  0
LINE
  5
1A3
330
1E
100
AcDbEntity
  8
0
100
AcDbLine
 10
211.226975
 20
87.3
 30
0.0
 11
211.226975
 21
91.34999999999999
 31
0.0
  0
LINE
  5
1A4
330
1E
100
AcDbEntity
  8
0
100
AcDbLine
 10
211.226975
 20
87.3
 30
0.0
 11
211.226975
 21
83.0
 31
0.0
  0
LINE
  5
1A5
330
1E
100
AcDbEntity
  8
0
100
AcDbLine
 10
210.999975
 20
87.1334
 30
0.0
 11
210.999975
 21
83.0
 31
0.0
  0
LINE
  5
1A6
330
1E
100
AcDbEntity
  8
0
100
AcDbLine
 10
210.999975
 20
83.0
 30
0.0
 11
210.999975
 21
78.86659999999991
 31
0.0
  0
LINE
  5
1A7
330
1E
100
AcDbEntity
  8
0
100
AcDbLine
 10
210.999975
 20
83.0
 30
0.0
 11
210.999975
 21
87.2
 31
0.0
  0
LINE
  5
1A8
330
1E
100
AcDbEntity
  8
0
100
AcDbLine
 10
206.999975
 20
68.2666999999999
 30
0.0
 11
206.999975
 21
66.6476
 31
0.0
  0
LINE
  5
1A9
330
1E
100
AcDbEntity
  8
0
100
AcDbLine
 10
210.999975
 20
96.86669999999999
 30
0.0
 11
210.999975
 21
94.26669999999999
 31
0.0
  0
LINE
  5
1AA
330
1E
100
AcDbEntity
  8
0
100
AcDbLine
 10
210.999975
 20
98.40000000000001
 30
0.0
 11
210.999975
 21
96.86669999999999
 31
0.0
  0
LINE
  5
1AB
330
1E
100
AcDbEntity
  8
0
100
AcDbLine
 10
210.999975
 20
99.0
 30
0.0
 11
210.999975
 21
98.40000000000001
 31
0.0
  0
LINE
  5
1AC
330
1E
100
AcDbEntity
  8
0
100
AcDbLine
 10
210.999975
 20
99.0
 30
0.0
 11
210.999975
 21
99.25
 31
0.0
  0
LINE
  5
1AD
330
1E
100
AcDbEntity
  8
0
100
AcDbLine
 10
210.999975
 20
94.26669999999999
 30
0.0
 11
210.999975
 21
90.93329999999999
 31
0.0
  0
LINE
  5
1AE
330
1E
100
AcDbEntity
  8
0
100
AcDbLine
 10
211.226975
 20
91.34999999999999
 30
0.0
 11
211.226975
 21
94.84999999999999
 31
0.0
  0
LINE
  5
1AF
330
1E
100
AcDbEntity
  8
0
100
AcDbLine
 10
211.226975
 20
91.34999999999999
 30
0.0
 11
211.226975
 21
87.3
 31
0.0
  0
LINE
  5
1B0
330
1E
100
AcDbEntity
  8
0
100
AcDbLine
 10
229.999975
 20
91.7688
 30
0.0
 11
229.999975
 21
95.4
 31
0.0
  0
LINE
  5
1B1
330
1E
100
AcDbEntity
  8
0
100
AcDbLine
 10
229.999975
 20
91.7688
 30
0.0
 11
229.999975
 21
87.5176
 31
0.0
  0
LINE
  5
1B2
330
1E
100
AcDbEntity
  8
0
100
AcDbLine
 10
271.9999749999999
 20
94.40799999999979
 30
0.0
 11
271.9999749999999
 21
99.28399999999992
 31
0.0
  0
LINE
  5
1B3
330
1E
100
AcDbEntity
  8
0
100
AcDbLine
 10
271.9999749999999
 20
94.40799999999979
 30
0.0
 11
271.9999749999999
 21
88.8879999999998
 31
0.0
  0
LINE
  5
1B4
330
1E
100
AcDbEntity
  8
0
100
AcDbLine
 10
271.9999749999999
 20
88.8879999999998
 30
0.0
 11
271.9999749999999
 21
94.40799999999979
 31
0.0
  0
LINE
  5
1B5
330
1E
100
AcDbEntity
  8
0
100
AcDbLine
 10
271.9999749999999
 20
88.8879999999998
 30
0.0
 11
271.9999749999999
 21
82.99999999999981
 31
0.0
  0
LINE
  5
1B6
330
1E
100
AcDbEntity
  8
0
100
AcDbLine
 10
279.9999749999999
 20
94.40799999999979
 30
0.0
 11
279.9999749999999
 21
88.8879999999998
 31
0.0
  0
LINE
  5
1B7
330
1E
100
AcDbEntity
  8
0
100
AcDbLine
 10
271.9999749999999
 20
93.41599999999978
 30
0.0
 11
271.9999749999999
 21
88.37599999999978
 31
0.0
  0
LINE
  5
1B8
330
1E
100
AcDbEntity
  8
0
100
AcDbLine
 10
271.9999749999999
 20
88.37599999999978
 30
0.0
 11
271.9999749999999
 21
82.99999999999981
 31
0.0
  0
LINE
  5
1B9
330
1E
100
AcDbEntity
  8
0
100
AcDbLine
 10
279.9999749999999
 20
88.8879999999998
 30
0.0
 11
279.9999749999999
 21
106.0
 31
0.0
  0
LINE
  5
1BA
330
1E
100
AcDbEntity
  8
0
100
AcDbLine
 10
279.9999749999999
 20
88.8879999999998
 30
0.0
 11
279.9999749999999
 21
82.99999999999981
 31
0.0
  0
LINE
  5
1BB
330
1E
100
AcDbEntity
  8
0
100
AcDbLine
 10
279.9999749999999
 20
87.99999999999979
 30
0.0
 11
280.4679749999999
 21
91.3279999999998
 31
0.0
  0
LINE
  5
1BC
330
1E
100
AcDbEntity
  8
0
100
AcDbLine
 10
279.9999749999999
 20
87.99999999999979
 30
0.0
 11
280.4679749999999
 21
84.6719999999998
 31
0.0
  0
LINE
  5
1BD
330
1E
100
AcDbEntity
  8
0
100
AcDbLine
 10
281.857075
 20
87.99999999999979
 30
0.0
 11
282.2582749999999
 21
90.8525999999998
 31
0.0
  0
LINE
  5
1BE
330
1E
100
AcDbEntity
  8
0
100
AcDbLine
 10
281.857075
 20
87.99999999999979
 30
0.0
 11
282.2582749999999
 21
85.1473999999998
 31
0.0
  0
LINE
  5
1BF
330
1E
100
AcDbEntity
  8
0
100
AcDbLine
 10
303.999975
 20
88.99999999999979
 30
0.0
 11
303.999975
 21
86.98395677966081
 31
0.0
  0
LINE
  5
1C0
330
1E
100
AcDbEntity
  8
0
100
AcDbLine
 10
303.999975
 20
89.0160432203389
 30
0.0
 11
303.999975
 21
86.98395677966081
 31
0.0
  0
LINE
  5
1C1
330
1E
100
AcDbEntity
  8
0
100
AcDbLine
 10
303.7416749999998
 20
90.8525999999998
 30
0.0
 11
304.142875
 21
87.99999999999979
 31
0.0
  0
LINE
  5
1C2
330
1E
100
AcDbEntity
  8
0
100
AcDbLine
 10
302.6719749999998
 20
93.52689999999979
 30
0.0
 11
303.7416749999998
 21
90.8525999999998
 31
0.0
  0
LINE
  5
1C3
330
1E
100
AcDbEntity
  8
0
100
AcDbLine
 10
305.5319749999998
 20
91.3279999999998
 30
0.0
 11
305.999975
 21
87.99999999999979
 31
0.0
  0
LINE
  5
1C4
330
1E
100
AcDbEntity
  8
0
100
AcDbLine
 10
282.2582749999999
 20
90.8525999999998
 30
0.0
 11
283.3279749999999
 21
93.52689999999979
 31
0.0
  0
LINE
  5
1C5
330
1E
100
AcDbEntity
  8
0
100
AcDbLine
 10
304.283975
 20
94.44799999999979
 30
0.0
 11
305.5319749999998
 21
91.3279999999998
 31
0.0
  0
LINE
  5
1C6
330
1E
100
AcDbEntity
  8
0
100
AcDbLine
 10
283.3279749999999
 20
93.52689999999979
 30
0.0
 11
285.1108749999998
 21
95.88909999999978
 31
0.0
  0
LINE
  5
1C7
330
1E
100
AcDbEntity
  8
0
100
AcDbLine
 10
280.4679749999999
 20
91.3279999999998
 30
0.0
 11
281.7159749999999
 21
94.44799999999979
 31
0.0
  0
LINE
  5
1C8
330
1E
100
AcDbEntity
  8
0
100
AcDbLine
 10
303.999975
 20
94.82429999999991
 30
0.0
 11
303.999975
 21
108.0
 31
0.0
  0
LINE
  5
1C9
330
1E
100
AcDbEntity
  8
0
100
AcDbLine
 10
303.999975
 20
94.82429999999991
 30
0.0
 11
303.999975
 21
106.0
 31
0.0
  0
LINE
  5
1CA
330
1E
100
AcDbEntity
  8
0
100
AcDbLine
 10
281.7159749999999
 20
94.44799999999979
 30
0.0
 11
283.7959749999999
 21
97.2039999999998
 31
0.0
  0
LINE
  5
1CB
330
1E
100
AcDbEntity
  8
0
100
AcDbLine
 10
229.999975
 20
87.5176
 30
0.0
 11
229.999975
 21
91.7688
 31
0.0
  0
LINE
  5
1CC
330
1E
100
AcDbEntity
  8
0
100
AcDbLine
 10
229.999975
 20
87.5176
 30
0.0
 11
229.999975
 21
83.0
 31
0.0
  0
LINE
  5
1CD
330
1E
100
AcDbEntity
  8
0
100
AcDbLine
 10
229.999975
 20
96.90000000000001
 30
0.0
 11
229.999975
 21
102.8
 31
0.0
  0
LINE
  5
1CE
330
1E
100
AcDbEntity
  8
0
100
AcDbLine
 10
300.8890749999999
 20
95.88909999999978
 30
0.0
 11
302.6719749999998
 21
93.52689999999979
 31
0.0
  0
LINE
  5
1CF
330
1E
100
AcDbEntity
  8
0
100
AcDbLine
 10
302.203975
 20
97.2039999999998
 30
0.0
 11
304.283975
 21
94.44799999999979
 31
0.0
  0
LINE
  5
1D0
330
1E
100
AcDbEntity
  8
0
100
AcDbLine
 10
285.1108749999998
 20
95.88909999999978
 30
0.0
 11
287.4730749999999
 21
97.67199999999979
 31
0.0
  0
LINE
  5
1D1
330
1E
100
AcDbEntity
  8
0
100
AcDbLine
 10
283.7959749999999
 20
97.2039999999998
 30
0.0
 11
286.5519749999999
 21
99.28399999999992
 31
0.0
  0
LINE
  5
1D2
330
1E
100
AcDbEntity
  8
0
100
AcDbLine
 10
229.999975
 20
96.2
 30
0.0
 11
229.999975
 21
101.8
 31
0.0
  0
LINE
  5
1D3
330
1E
100
AcDbEntity
  8
0
100
AcDbLine
 10
229.999975
 20
95.4
 30
0.0
 11
229.999975
 21
98.1895
 31
0.0
  0
LINE
  5
1D4
330
1E
100
AcDbEntity
  8
0
100
AcDbLine
 10
229.999975
 20
95.4
 30
0.0
 11
229.999975
 21
91.7688
 31
0.0
  0
LINE
  5
1D5
330
1E
100
AcDbEntity
  8
0
100
AcDbLine
 10
211.226975
 20
94.84999999999999
 30
0.0
 11
211.226975
 21
97.5
 31
0.0
  0
LINE
  5
1D6
330
1E
100
AcDbEntity
  8
0
100
AcDbLine
 10
211.226975
 20
94.84999999999999
 30
0.0
 11
211.226975
 21
91.34999999999999
 31
0.0
  0
LINE
  5
1D7
330
1E
100
AcDbEntity
  8
0
100
AcDbLine
 10
271.9999749999999
 20
97.86799999999992
 30
0.0
 11
271.9999749999999
 21
93.41599999999978
 31
0.0
  0
LINE
  5
1D8
330
1E
100
AcDbEntity
  8
0
100
AcDbLine
 10
298.5268749999999
 20
97.67199999999979
 30
0.0
 11
300.8890749999999
 21
95.88909999999978
 31
0.0
  0
LINE
  5
1D9
330
1E
100
AcDbEntity
  8
0
100
AcDbLine
 10
295.852575
 20
98.74169999999979
 30
0.0
 11
298.5268749999999
 21
97.67199999999979
 31
0.0
  0
LINE
  5
1DA
330
1E
100
AcDbEntity
  8
0
100
AcDbLine
 10
287.4730749999999
 20
97.67199999999979
 30
0.0
 11
290.1473749999999
 21
98.74169999999979
 31
0.0
  0
LINE
  5
1DB
330
1E
100
AcDbEntity
  8
0
100
AcDbLine
 10
290.1473749999999
 20
98.74169999999979
 30
0.0
 11
292.9999749999998
 21
99.1428999999999
 31
0.0
  0
LINE
  5
1DC
330
1E
100
AcDbEntity
  8
0
100
AcDbLine
 10
229.999975
 20
98.1895
 30
0.0
 11
229.999975
 21
99.9078
 31
0.0
  0
LINE
  5
1DD
330
1E
100
AcDbEntity
  8
0
100
AcDbLine
 10
229.999975
 20
98.1895
 30
0.0
 11
229.999975
 21
95.4
 31
0.0
  0
LINE
  5
1DE
330
1E
100
AcDbEntity
  8
0
100
AcDbLine
 10
211.226975
 20
97.5
 30
0.0
 11
211.226975
 21
99.14999999999992
 31
0.0
  0
LINE
  5
1DF
330
1E
100
AcDbEntity
  8
0
100
AcDbLine
 10
211.226975
 20
97.5
 30
0.0
 11
211.226975
 21
94.84999999999999
 31
0.0
  0
LINE
  5
1E0
330
1E
100
AcDbEntity
  8
0
100
AcDbLine
 10
210.999975
 20
90.93329999999999
 30
0.0
 11
210.999975
 21
87.1334
 31
0.0
  0
LINE
  5
1E1
330
1E
100
AcDbEntity
  8
0
100
AcDbLine
 10
205.944975
 20
87.3956
 30
0.0
 11
206.999975
 21
83.0
 31
0.0
  0
LINE
  5
1E2
330
1E
100
AcDbEntity
  8
0
100
AcDbLine
 10
205.0379749999998
 20
91.40089999999998
 30
0.0
 11
205.944975
 21
87.3956
 31
0.0
  0
LINE
  5
1E3
330
1E
100
AcDbEntity
  8
0
100
AcDbLine
 10
206.999975
 20
66.9999999999999
 30
0.0
 11
210.999975
 21
66.9999999999999
 31
0.0
  0
LINE
  5
1E4
330
1E
100
AcDbEntity
  8
0
100
AcDbLine
 10
204.1999749999999
 20
98.66669999999992
 30
0.0
 11
206.999975
 21
99.0
 31
0.0
  0
LINE
  5
1E5
330
1E
100
AcDbEntity
  8
0
100
AcDbLine
 10
210.999975
 20
99.25
 30
0.0
 11
211.226975
 21
99.75000000000001
 31
0.0
  0
LINE
  5
1E6
330
1E
100
AcDbEntity
  8
0
100
AcDbLine
 10
210.999975
 20
99.25
 30
0.0
 11
210.999975
 21
99.0
 31
0.0
  0
LINE
  5
1E7
330
1E
100
AcDbEntity
  8
0
100
AcDbLine
 10
211.226975
 20
99.75000000000001
 30
0.0
 11
211.6819749999999
 21
100.0
 31
0.0
  0
LINE
  5
1E8
330
1E
100
AcDbEntity
  8
0
100
AcDbLine
 10
211.226975
 20
99.75000000000001
 30
0.0
 11
211.226975
 21
99.14999999999992
 31
0.0
  0
LINE
  5
1E9
330
1E
100
AcDbEntity
  8
0
100
AcDbLine
 10
271.9999749999999
 20
99.28399999999992
 30
0.0
 11
271.9999749999999
 21
102.964
 31
0.0
  0
LINE
  5
1EA
330
1E
100
AcDbEntity
  8
0
100
AcDbLine
 10
271.9999749999999
 20
99.28399999999992
 30
0.0
 11
271.9999749999999
 21
94.40799999999979
 31
0.0
  0
LINE
  5
1EB
330
1E
100
AcDbEntity
  8
0
100
AcDbLine
 10
292.9999749999998
 20
99.1428999999999
 30
0.0
 11
295.852575
 21
98.74169999999979
 31
0.0
  0
LINE
  5
1EC
330
1E
100
AcDbEntity
  8
0
100
AcDbLine
 10
299.4479749999999
 20
99.28399999999992
 30
0.0
 11
302.203975
 21
97.2039999999998
 31
0.0
  0
LINE
  5
1ED
330
1E
100
AcDbEntity
  8
0
100
AcDbLine
 10
286.5519749999999
 20
99.28399999999992
 30
0.0
 11
289.6719749999998
 21
100.532
 31
0.0
  0
LINE
  5
1EE
330
1E
100
AcDbEntity
  8
0
100
AcDbLine
 10
229.999975
 20
99.9078
 30
0.0
 11
229.999975
 21
100.5
 31
0.0
  0
LINE
  5
1EF
330
1E
100
AcDbEntity
  8
0
100
AcDbLine
 10
229.999975
 20
99.9078
 30
0.0
 11
229.999975
 21
98.1895
 31
0.0
  0
LINE
  5
1F0
330
1E
100
AcDbEntity
  8
0
100
AcDbLine
 10
211.226975
 20
99.14999999999992
 30
0.0
 11
211.226975
 21
99.75000000000001
 31
0.0
  0
LINE
  5
1F1
330
1E
100
AcDbEntity
  8
0
100
AcDbLine
 10
211.226975
 20
99.14999999999992
 30
0.0
 11
211.226975
 21
97.5
 31
0.0
  0
LINE
  5
1F2
330
1E
100
AcDbEntity
  8
0
100
AcDbLine
 10
211.6819749999999
 20
100.0
 30
0.0
 11
229.999975
 21
100.0
 31
0.0
  0
LINE
  5
1F3
330
1E
100
AcDbEntity
  8
0
100
AcDbLine
 10
203.1219749999999
 20
99.4114
 30
0.0
 11
203.524975
 21
97.7236
 31
0.0
  0
LINE
  5
1F4
330
1E
100
AcDbEntity
  8
0
100
AcDbLine
 10
206.999975
 20
99.0
 30
0.0
 11
210.999975
 21
99.0
 31
0.0
  0
LINE
  5
1F5
330
1E
100
AcDbEntity
  8
0
100
AcDbLine
 10
202.9999749999999
 20
100.0
 30
0.0
 11
203.1219749999999
 21
99.4114
 31
0.0
  0
LINE
  5
1F6
330
1E
100
AcDbEntity
  8
0
100
AcDbLine
 10
191.6839749999999
 20
65.83809999999999
 30
0.0
 11
192.946975
 21
65.9999999999999
 31
0.0
  0
LINE
  5
1F7
330
1E
100
AcDbEntity
  8
0
100
AcDbLine
 10
189.2839749999999
 20
65.1905
 30
0.0
 11
191.6839749999999
 21
65.83809999999999
 31
0.0
  0
LINE
  5
1F8
330
1E
100
AcDbEntity
  8
0
100
AcDbLine
 10
186.7579749999999
 20
63.8951999999999
 30
0.0
 11
189.2839749999999
 21
65.1905
 31
0.0
  0
LINE
  5
1F9
330
1E
100
AcDbEntity
  8
0
100
AcDbLine
 10
184.1049749999999
 20
61.4667
 30
0.0
 11
186.7579749999999
 21
63.8951999999999
 31
0.0
  0
LINE
  5
1FA
330
1E
100
AcDbEntity
  8
0
100
AcDbLine
 10
181.957975
 20
58.06669999999989
 30
0.0
 11
184.1049749999999
 21
61.4667
 31
0.0
  0
LINE
  5
1FB
330
1E
100
AcDbEntity
  8
0
100
AcDbLine
 10
180.8209749999999
 20
54.1809999999999
 30
0.0
 11
181.957975
 21
58.06669999999989
 31
0.0
  0
LINE
  5
1FC
330
1E
100
AcDbEntity
  8
0
100
AcDbLine
 10
180.3159749999999
 20
50.2952
 30
0.0
 11
180.8209749999999
 21
54.1809999999999
 31
0.0
  0
LINE
  5
1FD
330
1E
100
AcDbEntity
  8
0
100
AcDbLine
 10
180.256975
 20
48.99999999999989
 30
0.0
 11
180.3159749999999
 21
50.2952
 31
0.0
  0
LINE
  5
1FE
330
1E
100
AcDbEntity
  8
0
100
AcDbLine
 10
178.171975
 20
13.3635999999999
 30
0.0
 11
180.256975
 21
48.99999999999989
 31
0.0
  0
LINE
  5
1FF
330
1E
100
AcDbEntity
  8
0
100
AcDbLine
 10
178.0009749999999
 20
9.971879999999927
 30
0.0
 11
178.171975
 21
13.3635999999999
 31
0.0
  0
LINE
  5
200
330
1E
100
AcDbEntity
  8
0
100
AcDbLine
 10
177.8139749999999
 20
6.77375999999993
 30
0.0
 11
178.0009749999999
 21
9.971879999999927
 31
0.0
  0
LINE
  5
201
330
1E
100
AcDbEntity
  8
0
100
AcDbLine
 10
177.602975
 20
3.81817999999993
 30
0.0
 11
177.8139749999999
 21
6.77375999999993
 31
0.0
  0
LINE
  5
202
330
1E
100
AcDbEntity
  8
0
100
AcDbLine
 10
177.0339749999997
 20
0.38181799999993
 30
0.0
 11
177.602975
 21
3.81817999999993
 31
0.0
  0
LINE
  5
203
330
1E
100
AcDbEntity
  8
0
100
AcDbLine
 10
176.6919749999999
 20
-0.0000000000000697
 30
0.0
 11
177.0339749999997
 21
0.38181799999993
 31
0.0
  0
LINE
  5
204
330
1E
100
AcDbEntity
  8
0
100
AcDbLine
 10
229.999975
 20
102.8
 30
0.0
 11
229.999975
 21
96.90000000000001
 31
0.0
  0
LINE
  5
205
330
1E
100
AcDbEntity
  8
0
100
AcDbLine
 10
229.999975
 20
102.8
 30
0.0
 11
229.999975
 21
107.2999999999999
 31
0.0
  0
LINE
  5
206
330
1E
100
AcDbEntity
  8
0
100
AcDbLine
 10
229.999975
 20
102.8
 30
0.0
 11
229.999975
 21
100.0
 31
0.0
  0
LINE
  5
207
330
1E
100
AcDbEntity
  8
0
100
AcDbLine
 10
229.999975
 20
106.0
 30
0.0
 11
229.999975
 21
101.8
 31
0.0
  0
LINE
  5
208
330
1E
100
AcDbEntity
  8
0
100
AcDbLine
 10
229.999975
 20
106.0
 30
0.0
 11
229.999975
 21
108.6
 31
0.0
  0
LINE
  5
209
330
1E
100
AcDbEntity
  8
0
100
AcDbLine
 10
229.999975
 20
107.2999999999999
 30
0.0
 11
229.999975
 21
102.8
 31
0.0
  0
LINE
  5
20A
330
1E
100
AcDbEntity
  8
0
100
AcDbLine
 10
229.999975
 20
108.6
 30
0.0
 11
229.999975
 21
109.5999999999999
 31
0.0
  0
LINE
  5
20B
330
1E
100
AcDbEntity
  8
0
100
AcDbLine
 10
229.999975
 20
108.6
 30
0.0
 11
229.999975
 21
106.0
 31
0.0
  0
LINE
  5
20C
330
1E
100
AcDbEntity
  8
0
100
AcDbLine
 10
229.999975
 20
100.5
 30
0.0
 11
229.999975
 21
100.0
 31
0.0
  0
LINE
  5
20D
330
1E
100
AcDbEntity
  8
0
100
AcDbLine
 10
229.999975
 20
100.5
 30
0.0
 11
229.999975
 21
99.9078
 31
0.0
  0
LINE
  5
20E
330
1E
100
AcDbEntity
  8
0
100
AcDbLine
 10
229.999975
 20
111.0
 30
0.0
 11
229.999975
 21
112.2999999999999
 31
0.0
  0
LINE
  5
20F
330
1E
100
AcDbEntity
  8
0
100
AcDbLine
 10
229.999975
 20
111.0
 30
0.0
 11
229.999975
 21
100.0
 31
0.0
  0
LINE
  5
210
330
1E
100
AcDbEntity
  8
0
100
AcDbLine
 10
229.999975
 20
114.5
 30
0.0
 11
229.999975
 21
115.3
 31
0.0
  0
LINE
  5
211
330
1E
100
AcDbEntity
  8
0
100
AcDbLine
 10
229.999975
 20
115.3
 30
0.0
 11
229.999975
 21
115.7999999999999
 31
0.0
  0
LINE
  5
212
330
1E
100
AcDbEntity
  8
0
100
AcDbLine
 10
229.999975
 20
115.3
 30
0.0
 11
229.999975
 21
113.5
 31
0.0
  0
LINE
  5
213
330
1E
100
AcDbEntity
  8
0
100
AcDbLine
 10
229.999975
 20
116.0
 30
0.0
 11
229.999975
 21
115.7999999999999
 31
0.0
  0
LINE
  5
214
330
1E
100
AcDbEntity
  8
0
100
AcDbLine
 10
229.999975
 20
115.7999999999999
 30
0.0
 11
229.999975
 21
115.3
 31
0.0
  0
LINE
  5
215
330
1E
100
AcDbEntity
  8
0
100
AcDbLine
 10
229.999975
 20
115.7999999999999
 30
0.0
 11
229.999975
 21
116.0
 31
0.0
  0
LINE
  5
216
330
1E
100
AcDbEntity
  8
0
100
AcDbLine
 10
229.999975
 20
113.5
 30
0.0
 11
229.999975
 21
112.2999999999999
 31
0.0
  0
LINE
  5
217
330
1E
100
AcDbEntity
  8
0
100
AcDbLine
 10
229.999975
 20
112.2999999999999
 30
0.0
 11
229.999975
 21
111.0
 31
0.0
  0
LINE
  5
218
330
1E
100
AcDbEntity
  8
0
100
AcDbLine
 10
229.999975
 20
112.2999999999999
 30
0.0
 11
229.999975
 21
113.5
 31
0.0
  0
LINE
  5
219
330
1E
100
AcDbEntity
  8
0
100
AcDbLine
 10
229.999975
 20
109.5999999999999
 30
0.0
 11
229.999975
 21
108.6
 31
0.0
  0
LINE
  5
21A
330
1E
100
AcDbEntity
  8
0
100
AcDbLine
 10
230.299975
 20
113.7999999999999
 30
0.0
 11
230.299975
 21
115.0
 31
0.0
  0
LINE
  5
21B
330
1E
100
AcDbEntity
  8
0
100
AcDbLine
 10
230.299975
 20
113.7999999999999
 30
0.0
 11
230.299975
 21
112.5
 31
0.0
  0
LINE
  5
21C
330
1E
100
AcDbEntity
  8
0
100
AcDbLine
 10
230.299975
 20
115.0
 30
0.0
 11
230.299975
 21
113.7999999999999
 31
0.0
  0
LINE
  5
21D
330
1E
100
AcDbEntity
  8
0
100
AcDbLine
 10
230.299975
 20
115.0
 30
0.0
 11
230.299975
 21
115.9
 31
0.0
  0
LINE
  5
21E
330
1E
100
AcDbEntity
  8
0
100
AcDbLine
 10
230.299975
 20
112.5
 30
0.0
 11
230.299975
 21
111.0
 31
0.0
  0
LINE
  5
21F
330
1E
100
AcDbEntity
  8
0
100
AcDbLine
 10
230.299975
 20
112.5
 30
0.0
 11
230.299975
 21
113.7999999999999
 31
0.0
  0
LINE
  5
220
330
1E
100
AcDbEntity
  8
0
100
AcDbLine
 10
230.299975
 20
115.9
 30
0.0
 11
230.299975
 21
116.5
 31
0.0
  0
LINE
  5
221
330
1E
100
AcDbEntity
  8
0
100
AcDbLine
 10
230.299975
 20
115.9
 30
0.0
 11
230.299975
 21
115.0
 31
0.0
  0
LINE
  5
222
330
1E
100
AcDbEntity
  8
0
100
AcDbLine
 10
230.299975
 20
116.5
 30
0.0
 11
230.299975
 21
116.7
 31
0.0
  0
LINE
  5
223
330
1E
100
AcDbEntity
  8
0
100
AcDbLine
 10
230.299975
 20
116.5
 30
0.0
 11
230.299975
 21
115.9
 31
0.0
  0
LINE
  5
224
330
1E
100
AcDbEntity
  8
0
100
AcDbLine
 10
230.299975
 20
111.0
 30
0.0
 11
230.299975
 21
83.0
 31
0.0
  0
LINE
  5
225
330
1E
100
AcDbEntity
  8
0
100
AcDbLine
 10
230.299975
 20
111.0
 30
0.0
 11
230.299975
 21
112.5
 31
0.0
  0
LINE
  5
226
330
1E
100
AcDbEntity
  8
0
100
AcDbLine
 10
271.9999749999999
 20
102.964
 30
0.0
 11
271.9999749999999
 21
105.172
 31
0.0
  0
LINE
  5
227
330
1E
100
AcDbEntity
  8
0
100
AcDbLine
 10
271.9999749999999
 20
102.964
 30
0.0
 11
271.9999749999999
 21
99.28399999999992
 31
0.0
  0
LINE
  5
228
330
1E
100
AcDbEntity
  8
0
100
AcDbLine
 10
271.9999749999999
 20
103.244
 30
0.0
 11
271.9999749999999
 21
101.228
 31
0.0
  0
LINE
  5
229
330
1E
100
AcDbEntity
  8
0
100
AcDbLine
 10
271.9999749999999
 20
101.228
 30
0.0
 11
271.9999749999999
 21
97.86799999999992
 31
0.0
  0
LINE
  5
22A
330
1E
100
AcDbEntity
  8
0
100
AcDbLine
 10
236.999975
 20
104.0
 30
0.0
 11
271.9999749999999
 21
104.0
 31
0.0
  0
LINE
  5
22B
330
1E
100
AcDbEntity
  8
0
100
AcDbLine
 10
271.9999749999999
 20
106.0
 30
0.0
 11
271.9999749999999
 21
105.172
 31
0.0
  0
LINE
  5
22C
330
1E
100
AcDbEntity
  8
0
100
AcDbLine
 10
271.9999749999999
 20
106.0
 30
0.0
 11
279.9999749999999
 21
106.0
 31
0.0
  0
LINE
  5
22D
330
1E
100
AcDbEntity
  8
0
100
AcDbLine
 10
271.9999749999999
 20
105.172
 30
0.0
 11
271.9999749999999
 21
106.0
 31
0.0
  0
LINE
  5
22E
330
1E
100
AcDbEntity
  8
0
100
AcDbLine
 10
271.9999749999999
 20
105.172
 30
0.0
 11
271.9999749999999
 21
104.0
 31
0.0
  0
LINE
  5
22F
330
1E
100
AcDbEntity
  8
0
100
AcDbLine
 10
271.9999749999999
 20
105.172
 30
0.0
 11
271.9999749999999
 21
102.964
 31
0.0
  0
LINE
  5
230
330
1E
100
AcDbEntity
  8
0
100
AcDbLine
 10
271.9999749999999
 20
104.0
 30
0.0
 11
271.9999749999999
 21
105.172
 31
0.0
  0
LINE
  5
231
330
1E
100
AcDbEntity
  8
0
100
AcDbLine
 10
271.9999749999999
 20
104.0
 30
0.0
 11
271.9999749999999
 21
103.244
 31
0.0
  0
LINE
  5
232
330
1E
100
AcDbEntity
  8
0
100
AcDbLine
 10
279.9999749999999
 20
106.0
 30
0.0
 11
280.4679749999999
 21
106.0
 31
0.0
  0
LINE
  5
233
330
1E
100
AcDbEntity
  8
0
100
AcDbLine
 10
280.4679749999999
 20
106.0
 30
0.0
 11
281.7159749999999
 21
106.0
 31
0.0
  0
LINE
  5
234
330
1E
100
AcDbEntity
  8
0
100
AcDbLine
 10
281.7159749999999
 20
106.0
 30
0.0
 11
283.7959749999999
 21
106.0
 31
0.0
  0
LINE
  5
235
330
1E
100
AcDbEntity
  8
0
100
AcDbLine
 10
283.7959749999999
 20
106.0
 30
0.0
 11
286.5519749999999
 21
106.0
 31
0.0
  0
LINE
  5
236
330
1E
100
AcDbEntity
  8
0
100
AcDbLine
 10
292.9999749999998
 20
101.0
 30
0.0
 11
296.3279749999999
 21
100.532
 31
0.0
  0
LINE
  5
237
330
1E
100
AcDbEntity
  8
0
100
AcDbLine
 10
289.6719749999998
 20
100.532
 30
0.0
 11
292.9999749999998
 21
101.0
 31
0.0
  0
LINE
  5
238
330
1E
100
AcDbEntity
  8
0
100
AcDbLine
 10
286.5519749999999
 20
106.0
 30
0.0
 11
289.6719749999998
 21
106.0
 31
0.0
  0
LINE
  5
239
330
1E
100
AcDbEntity
  8
0
100
AcDbLine
 10
289.6719749999998
 20
106.0
 30
0.0
 11
292.9999749999998
 21
106.0
 31
0.0
  0
LINE
  5
23A
330
1E
100
AcDbEntity
  8
0
100
AcDbLine
 10
296.3279749999999
 20
100.532
 30
0.0
 11
299.4479749999999
 21
99.28399999999992
 31
0.0
  0
LINE
  5
23B
330
1E
100
AcDbEntity
  8
0
100
AcDbLine
 10
303.999975
 20
100.265384615384
 30
0.0
 11
303.999975
 21
106.0
 31
0.0
  0
LINE
  5
23C
330
1E
100
AcDbEntity
  8
0
100
AcDbLine
 10
303.999975
 20
103.0
 30
0.0
 11
303.999975
 21
103.18
 31
0.0
  0
LINE
  5
23D
330
1E
100
AcDbEntity
  8
0
100
AcDbLine
 10
303.999975
 20
103.18
 30
0.0
 11
303.999975
 21
103.0
 31
0.0
  0
LINE
  5
23E
330
1E
100
AcDbEntity
  8
0
100
AcDbLine
 10
303.999975
 20
103.18
 30
0.0
 11
303.999975
 21
103.6599999999999
 31
0.0
  0
LINE
  5
23F
330
1E
100
AcDbEntity
  8
0
100
AcDbLine
 10
303.999975
 20
103.6599999999999
 30
0.0
 11
303.999975
 21
103.18
 31
0.0
  0
LINE
  5
240
330
1E
100
AcDbEntity
  8
0
100
AcDbLine
 10
303.999975
 20
103.6599999999999
 30
0.0
 11
303.999975
 21
104.4599999999999
 31
0.0
  0
LINE
  5
241
330
1E
100
AcDbEntity
  8
0
100
AcDbLine
 10
303.999975
 20
104.4599999999999
 30
0.0
 11
303.999975
 21
105.5199999999999
 31
0.0
  0
LINE
  5
242
330
1E
100
AcDbEntity
  8
0
100
AcDbLine
 10
303.999975
 20
104.4599999999999
 30
0.0
 11
303.999975
 21
103.6599999999999
 31
0.0
  0
LINE
  5
243
330
1E
100
AcDbEntity
  8
0
100
AcDbLine
 10
303.999975
 20
105.5199999999999
 30
0.0
 11
303.999975
 21
106.7199999999999
 31
0.0
  0
LINE
  5
244
330
1E
100
AcDbEntity
  8
0
100
AcDbLine
 10
303.999975
 20
105.5199999999999
 30
0.0
 11
303.999975
 21
104.4599999999999
 31
0.0
  0
LINE
  5
245
330
1E
100
AcDbEntity
  8
0
100
AcDbLine
 10
303.999975
 20
106.0
 30
0.0
 11
303.999975
 21
106.7199999999999
 31
0.0
  0
LINE
  5
246
330
1E
100
AcDbEntity
  8
0
100
AcDbLine
 10
303.999975
 20
106.0
 30
0.0
 11
303.999975
 21
111.472
 31
0.0
  0
LINE
  5
247
330
1E
100
AcDbEntity
  8
0
100
AcDbLine
 10
303.999975
 20
106.0
 30
0.0
 11
303.999975
 21
108.0
 31
0.0
  0
LINE
  5
248
330
1E
100
AcDbEntity
  8
0
100
AcDbLine
 10
303.999975
 20
106.0
 30
0.0
 11
303.999975
 21
94.82429999999991
 31
0.0
  0
LINE
  5
249
330
1E
100
AcDbEntity
  8
0
100
AcDbLine
 10
302.203975
 20
106.0
 30
0.0
 11
303.999975
 21
106.0
 31
0.0
  0
LINE
  5
24A
330
1E
100
AcDbEntity
  8
0
100
AcDbLine
 10
299.4479749999999
 20
106.0
 30
0.0
 11
302.203975
 21
106.0
 31
0.0
  0
LINE
  5
24B
330
1E
100
AcDbEntity
  8
0
100
AcDbLine
 10
303.999975
 20
106.7199999999999
 30
0.0
 11
303.999975
 21
108.0
 31
0.0
  0
LINE
  5
24C
330
1E
100
AcDbEntity
  8
0
100
AcDbLine
 10
303.999975
 20
106.7199999999999
 30
0.0
 11
303.999975
 21
106.0
 31
0.0
  0
LINE
  5
24D
330
1E
100
AcDbEntity
  8
0
100
AcDbLine
 10
303.999975
 20
106.7199999999999
 30
0.0
 11
303.999975
 21
105.5199999999999
 31
0.0
  0
LINE
  5
24E
330
1E
100
AcDbEntity
  8
0
100
AcDbLine
 10
303.999975
 20
109.792
 30
0.0
 11
303.999975
 21
111.472
 31
0.0
  0
LINE
  5
24F
330
1E
100
AcDbEntity
  8
0
100
AcDbLine
 10
303.999975
 20
109.792
 30
0.0
 11
303.999975
 21
108.0
 31
0.0
  0
LINE
  5
250
330
1E
100
AcDbEntity
  8
0
100
AcDbLine
 10
303.999975
 20
110.48
 30
0.0
 11
303.999975
 21
111.54
 31
0.0
  0
LINE
  5
251
330
1E
100
AcDbEntity
  8
0
100
AcDbLine
 10
303.999975
 20
110.48
 30
0.0
 11
303.999975
 21
109.2799999999999
 31
0.0
  0
LINE
  5
252
330
1E
100
AcDbEntity
  8
0
100
AcDbLine
 10
303.999975
 20
109.2799999999999
 30
0.0
 11
303.999975
 21
110.48
 31
0.0
  0
LINE
  5
253
330
1E
100
AcDbEntity
  8
0
100
AcDbLine
 10
303.999975
 20
109.2799999999999
 30
0.0
 11
303.999975
 21
108.0
 31
0.0
  0
LINE
  5
254
330
1E
100
AcDbEntity
  8
0
100
AcDbLine
 10
308.9999749999999
 20
109.792
 30
0.0
 11
308.9999749999999
 21
111.472
 31
0.0
  0
LINE
  5
255
330
1E
100
AcDbEntity
  8
0
100
AcDbLine
 10
308.9999749999999
 20
109.792
 30
0.0
 11
308.9999749999999
 21
108.0
 31
0.0
  0
LINE
  5
256
330
1E
100
AcDbEntity
  8
0
100
AcDbLine
 10
308.9999749999999
 20
108.0
 30
0.0
 11
308.9999749999999
 21
82.99999999999981
 31
0.0
  0
LINE
  5
257
330
1E
100
AcDbEntity
  8
0
100
AcDbLine
 10
308.9999749999999
 20
108.0
 30
0.0
 11
308.9999749999999
 21
109.792
 31
0.0
  0
LINE
  5
258
330
1E
100
AcDbEntity
  8
0
100
AcDbLine
 10
303.999975
 20
108.0
 30
0.0
 11
303.999975
 21
109.2799999999999
 31
0.0
  0
LINE
  5
259
330
1E
100
AcDbEntity
  8
0
100
AcDbLine
 10
303.999975
 20
108.0
 30
0.0
 11
303.999975
 21
106.7199999999999
 31
0.0
  0
LINE
  5
25A
330
1E
100
AcDbEntity
  8
0
100
AcDbLine
 10
303.999975
 20
108.0
 30
0.0
 11
303.999975
 21
106.0
 31
0.0
  0
LINE
  5
25B
330
1E
100
AcDbEntity
  8
0
100
AcDbLine
 10
303.999975
 20
108.0
 30
0.0
 11
303.999975
 21
109.792
 31
0.0
  0
LINE
  5
25C
330
1E
100
AcDbEntity
  8
0
100
AcDbLine
 10
303.999975
 20
108.0
 30
0.0
 11
303.999975
 21
94.82429999999991
 31
0.0
  0
LINE
  5
25D
330
1E
100
AcDbEntity
  8
0
100
AcDbLine
 10
296.3279749999999
 20
106.0
 30
0.0
 11
299.4479749999999
 21
106.0
 31
0.0
  0
LINE
  5
25E
330
1E
100
AcDbEntity
  8
0
100
AcDbLine
 10
292.9999749999998
 20
106.0
 30
0.0
 11
296.3279749999999
 21
106.0
 31
0.0
  0
LINE
  5
25F
330
1E
100
AcDbEntity
  8
0
100
AcDbLine
 10
236.999975
 20
117.0
 30
0.0
 11
236.999975
 21
116.7999999999999
 31
0.0
  0
LINE
  5
260
330
1E
100
AcDbEntity
  8
0
100
AcDbLine
 10
236.999975
 20
116.7999999999999
 30
0.0
 11
236.999975
 21
117.0
 31
0.0
  0
LINE
  5
261
330
1E
100
AcDbEntity
  8
0
100
AcDbLine
 10
236.999975
 20
116.7999999999999
 30
0.0
 11
236.999975
 21
116.2
 31
0.0
  0
LINE
  5
262
330
1E
100
AcDbEntity
  8
0
100
AcDbLine
 10
236.999975
 20
116.2
 30
0.0
 11
236.999975
 21
116.7999999999999
 31
0.0
  0
LINE
  5
263
330
1E
100
AcDbEntity
  8
0
100
AcDbLine
 10
236.999975
 20
116.2
 30
0.0
 11
236.999975
 21
115.2
 31
0.0
  0
LINE
  5
264
330
1E
100
AcDbEntity
  8
0
100
AcDbLine
 10
236.999975
 20
115.2
 30
0.0
 11
236.999975
 21
116.2
 31
0.0
  0
LINE
  5
265
330
1E
100
AcDbEntity
  8
0
100
AcDbLine
 10
236.999975
 20
115.2
 30
0.0
 11
236.999975
 21
114.0
 31
0.0
  0
LINE
  5
266
330
1E
100
AcDbEntity
  8
0
100
AcDbLine
 10
236.999975
 20
114.0
 30
0.0
 11
236.999975
 21
115.2
 31
0.0
  0
LINE
  5
267
330
1E
100
AcDbEntity
  8
0
100
AcDbLine
 10
236.999975
 20
114.0
 30
0.0
 11
236.999975
 21
112.5
 31
0.0
  0
LINE
  5
268
330
1E
100
AcDbEntity
  8
0
100
AcDbLine
 10
303.999975
 20
111.54
 30
0.0
 11
303.999975
 21
110.48
 31
0.0
  0
LINE
  5
269
330
1E
100
AcDbEntity
  8
0
100
AcDbLine
 10
303.999975
 20
111.54
 30
0.0
 11
303.999975
 21
112.3399999999999
 31
0.0
  0
LINE
  5
26A
330
1E
100
AcDbEntity
  8
0
100
AcDbLine
 10
308.9999749999999
 20
111.472
 30
0.0
 11
308.9999749999999
 21
112.956
 31
0.0
  0
LINE
  5
26B
330
1E
100
AcDbEntity
  8
0
100
AcDbLine
 10
308.9999749999999
 20
111.472
 30
0.0
 11
308.9999749999999
 21
109.792
 31
0.0
  0
LINE
  5
26C
330
1E
100
AcDbEntity
  8
0
100
AcDbLine
 10
303.999975
 20
111.472
 30
0.0
 11
303.999975
 21
106.0
 31
0.0
  0
LINE
  5
26D
330
1E
100
AcDbEntity
  8
0
100
AcDbLine
 10
303.999975
 20
111.472
 30
0.0
 11
303.999975
 21
112.956
 31
0.0
  0
LINE
  5
26E
330
1E
100
AcDbEntity
  8
0
100
AcDbLine
 10
303.999975
 20
111.472
 30
0.0
 11
303.999975
 21
109.792
 31
0.0
  0
LINE
  5
26F
330
1E
100
AcDbEntity
  8
0
100
AcDbLine
 10
303.999975
 20
112.956
 30
0.0
 11
303.999975
 21
114.0759999999999
 31
0.0
  0
LINE
  5
270
330
1E
100
AcDbEntity
  8
0
100
AcDbLine
 10
303.999975
 20
112.956
 30
0.0
 11
303.999975
 21
111.472
 31
0.0
  0
LINE
  5
271
330
1E
100
AcDbEntity
  8
0
100
AcDbLine
 10
303.999975
 20
115.0
 30
0.0
 11
303.999975
 21
114.7479999999999
 31
0.0
  0
LINE
  5
272
330
1E
100
AcDbEntity
  8
0
100
AcDbLine
 10
303.999975
 20
115.0
 30
0.0
 11
308.9999749999999
 21
115.0
 31
0.0
  0
LINE
  5
273
330
1E
100
AcDbEntity
  8
0
100
AcDbLine
 10
303.999975
 20
114.7479999999999
 30
0.0
 11
303.999975
 21
115.0
 31
0.0
  0
LINE
  5
274
330
1E
100
AcDbEntity
  8
0
100
AcDbLine
 10
303.999975
 20
114.7479999999999
 30
0.0
 11
303.999975
 21
114.0759999999999
 31
0.0
  0
LINE
  5
275
330
1E
100
AcDbEntity
  8
0
100
AcDbLine
 10
303.999975
 20
114.0759999999999
 30
0.0
 11
303.999975
 21
114.7479999999999
 31
0.0
  0
LINE
  5
276
330
1E
100
AcDbEntity
  8
0
100
AcDbLine
 10
303.999975
 20
114.0759999999999
 30
0.0
 11
303.999975
 21
112.956
 31
0.0
  0
LINE
  5
277
330
1E
100
AcDbEntity
  8
0
100
AcDbLine
 10
303.999975
 20
113.0
 30
0.0
 11
303.999975
 21
112.8199999999999
 31
0.0
  0
LINE
  5
278
330
1E
100
AcDbEntity
  8
0
100
AcDbLine
 10
308.9999749999999
 20
115.0
 30
0.0
 11
308.9999749999999
 21
114.7479999999999
 31
0.0
  0
LINE
  5
279
330
1E
100
AcDbEntity
  8
0
100
AcDbLine
 10
308.9999749999999
 20
114.7479999999999
 30
0.0
 11
308.9999749999999
 21
115.0
 31
0.0
  0
LINE
  5
27A
330
1E
100
AcDbEntity
  8
0
100
AcDbLine
 10
308.9999749999999
 20
114.7479999999999
 30
0.0
 11
308.9999749999999
 21
114.0759999999999
 31
0.0
  0
LINE
  5
27B
330
1E
100
AcDbEntity
  8
0
100
AcDbLine
 10
308.9999749999999
 20
114.0759999999999
 30
0.0
 11
308.9999749999999
 21
114.7479999999999
 31
0.0
  0
LINE
  5
27C
330
1E
100
AcDbEntity
  8
0
100
AcDbLine
 10
308.9999749999999
 20
114.0759999999999
 30
0.0
 11
308.9999749999999
 21
112.956
 31
0.0
  0
LINE
  5
27D
330
1E
100
AcDbEntity
  8
0
100
AcDbLine
 10
308.9999749999999
 20
112.956
 30
0.0
 11
308.9999749999999
 21
114.0759999999999
 31
0.0
  0
LINE
  5
27E
330
1E
100
AcDbEntity
  8
0
100
AcDbLine
 10
308.9999749999999
 20
112.956
 30
0.0
 11
308.9999749999999
 21
111.472
 31
0.0
  0
LINE
  5
27F
330
1E
100
AcDbEntity
  8
0
100
AcDbLine
 10
303.999975
 20
112.8199999999999
 30
0.0
 11
303.999975
 21
112.3399999999999
 31
0.0
  0
LINE
  5
280
330
1E
100
AcDbEntity
  8
0
100
AcDbLine
 10
303.999975
 20
112.8199999999999
 30
0.0
 11
303.999975
 21
113.0
 31
0.0
  0
LINE
  5
281
330
1E
100
AcDbEntity
  8
0
100
AcDbLine
 10
303.999975
 20
112.3399999999999
 30
0.0
 11
303.999975
 21
111.54
 31
0.0
  0
LINE
  5
282
330
1E
100
AcDbEntity
  8
0
100
AcDbLine
 10
303.999975
 20
112.3399999999999
 30
0.0
 11
303.999975
 21
112.8199999999999
 31
0.0
  0
LINE
  5
283
330
1E
100
AcDbEntity
  8
0
100
AcDbLine
 10
236.999975
 20
112.5
 30
0.0
 11
236.999975
 21
114.0
 31
0.0
  0
LINE
  5
284
330
1E
100
AcDbEntity
  8
0
100
AcDbLine
 10
236.999975
 20
112.5
 30
0.0
 11
236.999975
 21
111.0
 31
0.0
  0
LINE
  5
285
330
1E
100
AcDbEntity
  8
0
100
AcDbLine
 10
236.999975
 20
111.0
 30
0.0
 11
236.999975
 21
112.5
 31
0.0
  0
LINE
  5
286
330
1E
100
AcDbEntity
  8
0
100
AcDbLine
 10
236.999975
 20
111.0
 30
0.0
 11
236.999975
 21
83.0
 31
0.0
  0
LINE
  5
287
330
1E
100
AcDbEntity
  8
0
100
AcDbLine
 10
230.299975
 20
116.7
 30
0.0
 11
230.999975
 21
117.0
 31
0.0
  0
LINE
  5
288
330
1E
100
AcDbEntity
  8
0
100
AcDbLine
 10
230.299975
 20
116.7
 30
0.0
 11
230.299975
 21
116.5
 31
0.0
  0
LINE
  5
289
330
1E
100
AcDbEntity
  8
0
100
AcDbLine
 10
229.999975
 20
101.8
 30
0.0
 11
229.999975
 21
100.0
 31
0.0
  0
LINE
  5
28A
330
1E
100
AcDbEntity
  8
0
100
AcDbLine
 10
229.999975
 20
101.8
 30
0.0
 11
229.999975
 21
106.0
 31
0.0
  0
LINE
  5
28B
330
1E
100
AcDbEntity
  8
0
100
AcDbLine
 10
229.999975
 20
101.8
 30
0.0
 11
229.999975
 21
96.2
 31
0.0
  0
LINE
  5
28C
330
1E
100
AcDbEntity
  8
0
100
AcDbLine
 10
229.999975
 20
100.0
 30
0.0
 11
229.999975
 21
102.8
 31
0.0
  0
LINE
  5
28D
330
1E
100
AcDbEntity
  8
0
100
AcDbLine
 10
229.999975
 20
100.0
 30
0.0
 11
229.999975
 21
101.8
 31
0.0
  0
LINE
  5
28E
330
1E
100
AcDbEntity
  8
0
100
AcDbLine
 10
229.999975
 20
100.0
 30
0.0
 11
229.999975
 21
100.5
 31
0.0
  0
LINE
  5
28F
330
1E
100
AcDbEntity
  8
0
100
AcDbLine
 10
229.999975
 20
100.0
 30
0.0
 11
229.999975
 21
111.0
 31
0.0
  0
LINE
  5
290
330
1E
100
AcDbEntity
  8
0
100
AcDbLine
 10
54.499975
 20
93.49999999999999
 30
0.0
 11
173.999975
 21
93.49999999999999
 31
0.0
  0
LINE
  5
295
330
1E
100
AcDbEntity
  8
0
100
AcDbLine
 10
236.999975
 20
117.0
 30
0.0
 11
230.999975
 21
117.0
 31
0.0
  0
LINE
  5
296
330
1E
100
AcDbEntity
  8
0
100
AcDbLine
 10
230.299975
 20
116.7
 30
0.0
 11
229.999975
 21
116.0
 31
0.0
  0
ENDSEC
  0
SECTION
  2
OBJECTS
  0
DICTIONARY
  5
C
330
0
100
AcDbDictionary
  3
ACAD_GROUP
350
D
  3
ACAD_LAYOUT
350
19
  3
ACAD_MLINESTYLE
350
16
  3
ACAD_PLOTSETTINGS
350
18
  3
ACAD_PLOTSTYLENAME
350
E
  3
ACDBHEADERROUNDTRIPXREC
350
2A4
  3
ACDBVARIABLEDICTIONARY
350
297
  0
DICTIONARY
  5
2C6
330
1E
100
AcDbDictionary
280
     1
  3
ACAD_LAYOUTSELFREF
360
2C7
  0
DICTIONARY
  5
2C4
330
1A
100
AcDbDictionary
280
     1
  3
ACAD_LAYOUTSELFREF
360
2C5
  0
DICTIONARY
  5
D
102
{ACAD_REACTORS
330
C
102
}
330
C
100
AcDbDictionary
  0
DICTIONARY
  5
19
102
{ACAD_REACTORS
330
C
102
}
330
C
100
AcDbDictionary
  0
DICTIONARY
  5
16
102
{ACAD_REACTORS
330
C
102
}
330
C
100
AcDbDictionary
  3
STANDARD
350
17
  0
DICTIONARY
  5
18
102
{ACAD_REACTORS
330
C
102
}
330
C
100
AcDbDictionary
  0
ACDBDICTIONARYWDFLT
  5
E
102
{ACAD_REACTORS
330
C
102
}
330
C
100
AcDbDictionary
281
     1
  3
Normal
350
F
100
AcDbDictionaryWithDefault
340
F
  0
DICTIONARY
  5
2A4
102
{ACAD_REACTORS
330
C
102
}
330
C
100
AcDbDictionary
  3
CEPSNTYPE
350
2AE
  3
FINGERPRINTGUID
350
2AF
  3
HYPERLINKBASE
350
2A7
  3
INSUNITS
350
2AD
  3
LAYOUTDICT
350
2A9
  3
LWETCUNION
350
2AC
  3
PLOTSETDICT
350
2AA
  3
PLOTSTYLNAMDICT
350
2AB
  3
PSVPSCALE
350
2B1
  3
PUCSBASE
350
2B4
  3
PUCSORGBACK
350
2BA
  3
PUCSORGBOTTOM
350
2B6
  3
PUCSORGFRONT
350
2B9
  3
PUCSORGLEFT
350
2B7
  3
PUCSORGRIGHT
350
2B8
  3
PUCSORGTOP
350
2B5
  3
PUCSORTHOREF
350
2B2
  3
PUCSORTHOVIEW
350
2B3
  3
STYLESHEET
350
2A8
  3
TSTACKALIGN
350
2A5
  3
TSTACKSIZE
350
2A6
  3
UCSBASE
350
2BD
  3
UCSORGBACK
350
2C3
  3
UCSORGBOTTOM
350
2BF
  3
UCSORGFRONT
350
2C2
  3
UCSORGLEFT
350
2C0
  3
UCSORGRIGHT
350
2C1
  3
UCSORGTOP
350
2BE
  3
UCSORTHOREF
350
2BB
  3
UCSORTHOVIEW
350
2BC
  3
VERSIONGUID
350
2B0
  0
DICTIONARY
  5
297
102
{ACAD_REACTORS
330
C
102
}
330
C
100
AcDbDictionary
  3
DIMASSOC
350
298
  0
XRECORD
  5
2C7
102
{ACAD_REACTORS
330
2C6
102
}
330
2C6
100
AcDbXrecord
340
1E
  0
XRECORD
  5
2C5
102
{ACAD_REACTORS
330
2C4
102
}
330
2C4
100
AcDbXrecord
340
1A
  0
MLINESTYLE
  5
17
102
{ACAD_REACTORS
330
16
102
}
330
16
100
AcDbMlineStyle
  2
STANDARD
 70
     0
  3

 62
   256
 51
90.0
 52
90.0
 71
     2
 49
0.5
 62
   256
  6
BYLAYER
 49
-0.5
 62
   256
  6
BYLAYER
  0
ACDBPLACEHOLDER
  5
F
102
{ACAD_REACTORS
330
E
102
}
330
E
100
AcDbPlaceHolder
280
     0
  0
XRECORD
  5
2AE
102
{ACAD_REACTORS
330
2A4
102
}
330
2A4
100
AcDbXrecord
 90
        0
  0
XRECORD
  5
2AF
102
{ACAD_REACTORS
330
2A4
102
}
330
2A4
100
AcDbXrecord
  1
{03DE1061-2203-4DA6-B9DC-310E2060F6CF}
  0
XRECORD
  5
2A7
102
{ACAD_REACTORS
330
2A4
102
}
330
2A4
100
AcDbXrecord
  1

  0
XRECORD
  5
2AD
102
{ACAD_REACTORS
330
2A4
102
}
330
2A4
100
AcDbXrecord
 90
        0
  0
XRECORD
  5
2A9
102
{ACAD_REACTORS
330
2A4
102
}
330
2A4
100
AcDbXrecord
340
19
  0
XRECORD
  5
2AC
102
{ACAD_REACTORS
330
2A4
102
}
330
2A4
100
AcDbXrecord
 90
    10781
  0
XRECORD
  5
2AA
102
{ACAD_REACTORS
330
2A4
102
}
330
2A4
100
AcDbXrecord
340
18
  0
XRECORD
  5
2AB
102
{ACAD_REACTORS
330
2A4
102
}
330
2A4
100
AcDbXrecord
340
E
  0
XRECORD
  5
2B1
102
{ACAD_REACTORS
330
2A4
102
}
330
2A4
100
AcDbXrecord
 40
0.0
  0
XRECORD
  5
2B4
102
{ACAD_REACTORS
330
2A4
102
}
330
2A4
100
AcDbXrecord
340
0
  0
XRECORD
  5
2BA
102
{ACAD_REACTORS
330
2A4
102
}
330
2A4
100
AcDbXrecord
 10
0.0
 20
0.0
 30
0.0
  0
XRECORD
  5
2B6
102
{ACAD_REACTORS
330
2A4
102
}
330
2A4
100
AcDbXrecord
 10
0.0
 20
0.0
 30
0.0
  0
XRECORD
  5
2B9
102
{ACAD_REACTORS
330
2A4
102
}
330
2A4
100
AcDbXrecord
 10
0.0
 20
0.0
 30
0.0
  0
XRECORD
  5
2B7
102
{ACAD_REACTORS
330
2A4
102
}
330
2A4
100
AcDbXrecord
 10
0.0
 20
0.0
 30
0.0
  0
XRECORD
  5
2B8
102
{ACAD_REACTORS
330
2A4
102
}
330
2A4
100
AcDbXrecord
 10
0.0
 20
0.0
 30
0.0
  0
XRECORD
  5
2B5
102
{ACAD_REACTORS
330
2A4
102
}
330
2A4
100
AcDbXrecord
 10
0.0
 20
0.0
 30
0.0
  0
XRECORD
  5
2B2
102
{ACAD_REACTORS
330
2A4
102
}
330
2A4
100
AcDbXrecord
340
0
  0
XRECORD
  5
2B3
102
{ACAD_REACTORS
330
2A4
102
}
330
2A4
100
AcDbXrecord
 70
     0
  0
XRECORD
  5
2A8
102
{ACAD_REACTORS
330
2A4
102
}
330
2A4
100
AcDbXrecord
  1

  0
XRECORD
  5
2A5
102
{ACAD_REACTORS
330
2A4
102
}
330
2A4
100
AcDbXrecord
 90
        1
  0
XRECORD
  5
2A6
102
{ACAD_REACTORS
330
2A4
102
}
330
2A4
100
AcDbXrecord
 90
       70
  0
XRECORD
  5
2BD
102
{ACAD_REACTORS
330
2A4
102
}
330
2A4
100
AcDbXrecord
340
0
  0
XRECORD
  5
2C3
102
{ACAD_REACTORS
330
2A4
102
}
330
2A4
100
AcDbXrecord
 10
0.0
 20
0.0
 30
0.0
  0
XRECORD
  5
2BF
102
{ACAD_REACTORS
330
2A4
102
}
330
2A4
100
AcDbXrecord
 10
0.0
 20
0.0
 30
0.0
  0
XRECORD
  5
2C2
102
{ACAD_REACTORS
330
2A4
102
}
330
2A4
100
AcDbXrecord
 10
0.0
 20
0.0
 30
0.0
  0
XRECORD
  5
2C0
102
{ACAD_REACTORS
330
2A4
102
}
330
2A4
100
AcDbXrecord
 10
0.0
 20
0.0
 30
0.0
  0
XRECORD
  5
2C1
102
{ACAD_REACTORS
330
2A4
102
}
330
2A4
100
AcDbXrecord
 10
0.0
 20
0.0
 30
0.0
  0
XRECORD
  5
2BE
102
{ACAD_REACTORS
330
2A4
102
}
330
2A4
100
AcDbXrecord
 10
0.0
 20
0.0
 30
0.0
  0
XRECORD
  5
2BB
102
{ACAD_REACTORS
330
2A4
102
}
330
2A4
100
AcDbXrecord
340
0
  0
XRECORD
  5
2BC
102
{ACAD_REACTORS
330
2A4
102
}
330
2A4
100
AcDbXrecord
 70
     1
  0
XRECORD
  5
2B0
102
{ACAD_REACTORS
330
2A4
102
}
330
2A4
100
AcDbXrecord
  1
{19FFF936-C269-49C0-A4FD-6B25353BDD31}
  0
DICTIONARYVAR
  5
298
102
{ACAD_REACTORS
330
297
102
}
330
297
100
DictionaryVariables
280
     0
  1
1
  0
ENDSEC
  0
EOF
