  0
SECTION
  2
HEADER
  9
$ACADVER
  1
AC1015
  9
$ACADMAINTVER
 70
    13
  9
$DWGCODEPAGE
  3
ANSI_1252
  9
$INSBASE
 10
0.0
 20
0.0
 30
0.0
  9
$EXTMIN
 10
0.0000000000000047
 20
0.0000250000000065
 30
0.0
  9
$EXTMAX
 10
168.0
 20
308.9999749999999
 30
0.0
  9
$LIMMIN
 10
0.0
 20
0.0
  9
$LIMMAX
 10
12.0
 20
9.0
  9
$ORTHOMODE
 70
     0
  9
$REGENMODE
 70
     1
  9
$FILLMODE
 70
     1
  9
$QTEXTMODE
 70
     0
  9
$MIRRTEXT
 70
     1
  9
$LTSCALE
 40
1.0
  9
$ATTMODE
 70
     1
  9
$TEXTSIZE
 40
0.2
  9
$TRACEWID
 40
0.05
  9
$TEXTSTYLE
  7
Standard
  9
$CLAYER
  8
0
  9
$CELTYPE
  6
Continuous
  9
$CECOLOR
 62
   256
  9
$CELTSCALE
 40
1.0
  9
$DISPSILH
 70
     0
  9
$DIMSCALE
 40
1.0
  9
$DIMASZ
 40
0.18
  9
$DIMEXO
 40
0.0625
  9
$DIMDLI
 40
0.38
  9
$DIMRND
 40
0.0
  9
$DIMDLE
 40
0.0
  9
$DIMEXE
 40
0.18
  9
$DIMTP
 40
0.0
  9
$DIMTM
 40
0.0
  9
$DIMTXT
 40
0.18
  9
$DIMCEN
 40
0.09
  9
$DIMTSZ
 40
0.0
  9
$DIMTOL
 70
     0
  9
$DIMLIM
 70
     0
  9
$DIMTIH
 70
     1
  9
$DIMTOH
 70
     1
  9
$DIMSE1
 70
     0
  9
$DIMSE2
 70
     0
  9
$DIMTAD
 70
     0
  9
$DIMZIN
 70
     0
  9
$DIMBLK
  1

  9
$DIMASO
 70
     1
  9
$DIMSHO
 70
     1
  9
$DIMPOST
  1

  9
$DIMAPOST
  1

  9
$DIMALT
 70
     0
  9
$DIMALTD
 70
     2
  9
$DIMALTF
 40
25.4
  9
$DIMLFAC
 40
1.0
  9
$DIMTOFL
 70
     0
  9
$DIMTVP
 40
0.0
  9
$DIMTIX
 70
     0
  9
$DIMSOXD
 70
     0
  9
$DIMSAH
 70
     0
  9
$DIMBLK1
  1

  9
$DIMBLK2
  1

  9
$DIMSTYLE
  2
Standard
  9
$DIMCLRD
 70
     0
  9
$DIMCLRE
 70
     0
  9
$DIMCLRT
 70
     0
  9
$DIMTFAC
 40
1.0
  9
$DIMGAP
 40
0.09
  9
$DIMJUST
 70
     0
  9
$DIMSD1
 70
     0
  9
$DIMSD2
 70
     0
  9
$DIMTOLJ
 70
     1
  9
$DIMTZIN
 70
     0
  9
$DIMALTZ
 70
     0
  9
$DIMALTTZ
 70
     0
  9
$DIMUPT
 70
     0
  9
$DIMDEC
 70
     4
  9
$DIMTDEC
 70
     4
  9
$DIMALTU
 70
     2
  9
$DIMALTTD
 70
     2
  9
$DIMTXSTY
  7
Standard
  9
$DIMAUNIT
 70
     0
  9
$DIMADEC
 70
     0
  9
$DIMALTRND
 40
0.0
  9
$DIMAZIN
 70
     0
  9
$DIMDSEP
 70
    46
  9
$DIMATFIT
 70
     3
  9
$DIMFRAC
 70
     0
  9
$DIMLDRBLK
  1

  9
$DIMLUNIT
 70
     2
  9
$DIMLWD
 70
    -2
  9
$DIMLWE
 70
    -2
  9
$DIMTMOVE
 70
     0
  9
$LUNITS
 70
     2
  9
$LUPREC
 70
     4
  9
$SKETCHINC
 40
0.1
  9
$FILLETRAD
 40
0.0
  9
$AUNITS
 70
     0
  9
$AUPREC
 70
     0
  9
$MENU
  1
.
  9
$ELEVATION
 40
0.0
  9
$PELEVATION
 40
0.0
  9
$THICKNESS
 40
0.0
  9
$LIMCHECK
 70
     0
  9
$CHAMFERA
 40
0.0
  9
$CHAMFERB
 40
0.0
  9
$CHAMFERC
 40
0.0
  9
$CHAMFERD
 40
0.0
  9
$SKPOLY
 70
     0
  9
$TDCREATE
 40
2454637.666698819
  9
$TDUCREATE
 40
2454637.583365486
  9
$TDUPDATE
 40
2454637.687898912
  9
$TDUUPDATE
 40
2454637.604565578
  9
$TDINDWG
 40
0.0061469213
  9
$TDUSRTIMER
 40
0.0061469213
  9
$USRTIMER
 70
     1
  9
$ANGBASE
 50
0.0
  9
$ANGDIR
 70
     0
  9
$PDMODE
 70
     0
  9
$PDSIZE
 40
0.0
  9
$PLINEWID
 40
0.0
  9
$SPLFRAME
 70
     0
  9
$SPLINETYPE
 70
     6
  9
$SPLINESEGS
 70
     8
  9
$HANDSEED
  5
265
  9
$SURFTAB1
 70
     6
  9
$SURFTAB2
 70
     6
  9
$SURFTYPE
 70
     6
  9
$SURFU
 70
     6
  9
$SURFV
 70
     6
  9
$UCSBASE
  2

  9
$UCSNAME
  2

  9
$UCSORG
 10
0.0
 20
0.0
 30
0.0
  9
$UCSXDIR
 10
1.0
 20
0.0
 30
0.0
  9
$UCSYDIR
 10
0.0
 20
1.0
 30
0.0
  9
$UCSORTHOREF
  2

  9
$UCSORTHOVIEW
 70
     1
  9
$UCSORGTOP
 10
0.0
 20
0.0
 30
0.0
  9
$UCSORGBOTTOM
 10
0.0
 20
0.0
 30
0.0
  9
$UCSORGLEFT
 10
0.0
 20
0.0
 30
0.0
  9
$UCSORGRIGHT
 10
0.0
 20
0.0
 30
0.0
  9
$UCSORGFRONT
 10
0.0
 20
0.0
 30
0.0
  9
$UCSORGBACK
 10
0.0
 20
0.0
 30
0.0
  9
$PUCSBASE
  2

  9
$PUCSNAME
  2

  9
$PUCSORG
 10
0.0
 20
0.0
 30
0.0
  9
$PUCSXDIR
 10
1.0
 20
0.0
 30
0.0
  9
$PUCSYDIR
 10
0.0
 20
1.0
 30
0.0
  9
$PUCSORTHOREF
  2

  9
$PUCSORTHOVIEW
 70
     0
  9
$PUCSORGTOP
 10
0.0
 20
0.0
 30
0.0
  9
$PUCSORGBOTTOM
 10
0.0
 20
0.0
 30
0.0
  9
$PUCSORGLEFT
 10
0.0
 20
0.0
 30
0.0
  9
$PUCSORGRIGHT
 10
0.0
 20
0.0
 30
0.0
  9
$PUCSORGFRONT
 10
0.0
 20
0.0
 30
0.0
  9
$PUCSORGBACK
 10
0.0
 20
0.0
 30
0.0
  9
$USERI1
 70
     0
  9
$USERI2
 70
     0
  9
$USERI3
 70
     0
  9
$USERI4
 70
     0
  9
$USERI5
 70
     0
  9
$USERR1
 40
0.0
  9
$USERR2
 40
0.0
  9
$USERR3
 40
0.0
  9
$USERR4
 40
0.0
  9
$USERR5
 40
0.0
  9
$WORLDVIEW
 70
     1
  9
$SHADEDGE
 70
     3
  9
$SHADEDIF
 70
    70
  9
$TILEMODE
 70
     1
  9
$MAXACTVP
 70
    64
  9
$PINSBASE
 10
0.0
 20
0.0
 30
0.0
  9
$PLIMCHECK
 70
     0
  9
$PEXTMIN
 10
1.000000000000000E+20
 20
1.000000000000000E+20
 30
1.000000000000000E+20
  9
$PEXTMAX
 10
-1.000000000000000E+20
 20
-1.000000000000000E+20
 30
-1.000000000000000E+20
  9
$PLIMMIN
 10
0.0
 20
0.0
  9
$PLIMMAX
 10
12.0
 20
9.0
  9
$UNITMODE
 70
     0
  9
$VISRETAIN
 70
     1
  9
$PLINEGEN
 70
     0
  9
$PSLTSCALE
 70
     1
  9
$TREEDEPTH
 70
  3020
  9
$CMLSTYLE
  2
Standard
  9
$CMLJUST
 70
     0
  9
$CMLSCALE
 40
1.0
  9
$PROXYGRAPHICS
 70
     1
  9
$MEASUREMENT
 70
     0
  9
$CELWEIGHT
370
    -1
  9
$ENDCAPS
280
     0
  9
$JOINSTYLE
280
     0
  9
$LWDISPLAY
290
     0
  9
$INSUNITS
 70
     0
  9
$HYPERLINKBASE
  1

  9
$STYLESHEET
  1

  9
$XEDIT
290
     1
  9
$CEPSNTYPE
380
     0
  9
$PSTYLEMODE
290
     1
  9
$FINGERPRINTGUID
  2
{969471F4-4CE1-4D8C-A62C-6101CFD791F6}
  9
$VERSIONGUID
  2
{F94F514C-B783-4F36-8562-268AFB70A98E}
  9
$EXTNAMES
290
     1
  9
$PSVPSCALE
 40
0.0
  9
$OLESTARTUP
290
     0
  0
ENDSEC
  0
SECTION
  2
CLASSES
  0
CLASS
  1
ACDBDICTIONARYWDFLT
  2
AcDbDictionaryWithDefault
  3
AutoCAD 2000
 90
        0
280
     0
281
     0
  0
CLASS
  1
ACDBPLACEHOLDER
  2
AcDbPlaceHolder
  3
AutoCAD 2000
 90
        0
280
     0
281
     0
  0
CLASS
  1
LAYOUT
  2
AcDbLayout
  3
AutoCAD 2000
 90
        0
280
     0
281
     0
  0
CLASS
  1
DICTIONARYVAR
  2
AcDbDictionaryVar
  3
AutoCAD 2000
 90
        0
280
     0
281
     0
  0
ENDSEC
  0
SECTION
  2
TABLES
  0
TABLE
  2
VPORT
  5
8
330
0
100
AcDbSymbolTable
 70
     2
  0
VPORT
  5
264
330
8
100
AcDbSymbolTableRecord
100
AcDbViewportTableRecord
  2
*Active
 70
     0
 10
0.0
 20
0.0
 11
1.0
 21
1.0
 12
84.0
 22
154.4999999999999
 13
0.0
 23
0.0
 14
1.0
 24
1.0
 15
0.0
 25
0.0
 16
0.0
 26
0.0
 36
1.0
 17
0.0
 27
0.0
 37
0.0
 40
311.3707936061381
 41
2.043533930857874
 42
50.0
 43
0.0
 44
0.0
 50
0.0
 51
0.0
 71
     0
 72
   100
 73
     1
 74
     3
 75
     0
 76
     0
 77
     0
 78
     0
281
     0
 65
     1
110
0.0
120
0.0
130
0.0
111
1.0
121
0.0
131
0.0
112
0.0
122
1.0
132
0.0
 79
     1
146
0.0
  0
ENDTAB
  0
TABLE
  2
LTYPE
  5
5
330
0
100
AcDbSymbolTable
 70
     1
  0
LTYPE
  5
13
330
5
100
AcDbSymbolTableRecord
100
AcDbLinetypeTableRecord
  2
ByBlock
 70
     0
  3

 72
    65
 73
     0
 40
0.0
  0
LTYPE
  5
14
330
5
100
AcDbSymbolTableRecord
100
AcDbLinetypeTableRecord
  2
ByLayer
 70
     0
  3

 72
    65
 73
     0
 40
0.0
  0
LTYPE
  5
15
330
5
100
AcDbSymbolTableRecord
100
AcDbLinetypeTableRecord
  2
Continuous
 70
     0
  3
Solid line
 72
    65
 73
     0
 40
0.0
  0
ENDTAB
  0
TABLE
  2
LAYER
  5
2
330
0
100
AcDbSymbolTable
 70
     1
  0
LAYER
  5
10
330
2
100
AcDbSymbolTableRecord
100
AcDbLayerTableRecord
  2
0
 70
     0
 62
     7
  6
Continuous
370
    -3
390
F
  0
ENDTAB
  0
TABLE
  2
STYLE
  5
3
330
0
100
AcDbSymbolTable
 70
     1
  0
STYLE
  5
11
330
3
100
AcDbSymbolTableRecord
100
AcDbTextStyleTableRecord
  2
Standard
 70
     0
 40
0.0
 41
1.0
 50
0.0
 71
     0
 42
0.2
  3
txt
  4

  0
ENDTAB
  0
TABLE
  2
VIEW
  5
6
330
0
100
AcDbSymbolTable
 70
     0
  0
ENDTAB
  0
TABLE
  2
UCS
  5
7
330
0
100
AcDbSymbolTable
 70
     0
  0
ENDTAB
  0
TABLE
  2
APPID
  5
9
330
0
100
AcDbSymbolTable
 70
     1
  0
APPID
  5
12
330
9
100
AcDbSymbolTableRecord
100
AcDbRegAppTableRecord
  2
ACAD
 70
     0
  0
ENDTAB
  0
TABLE
  2
DIMSTYLE
  5
A
330
0
100
AcDbSymbolTable
 70
     1
100
AcDbDimStyleTable
 71
     0
  0
DIMSTYLE
105
257
330
A
100
AcDbSymbolTableRecord
100
AcDbDimStyleTableRecord
  2
Standard
 70
     0
340
11
  0
ENDTAB
  0
TABLE
  2
BLOCK_RECORD
  5
1
330
0
100
AcDbSymbolTable
 70
     0
  0
BLOCK_RECORD
  5
1E
330
1
100
AcDbSymbolTableRecord
100
AcDbBlockTableRecord
  2
*Model_Space
340
21
  0
BLOCK_RECORD
  5
1A
330
1
100
AcDbSymbolTableRecord
100
AcDbBlockTableRecord
  2
*Paper_Space
340
1D
  0
ENDTAB
  0
ENDSEC
  0
SECTION
  2
BLOCKS
  0
BLOCK
  5
1F
330
1E
100
AcDbEntity
  8
0
100
AcDbBlockBegin
  2
*Model_Space
 70
     0
 10
0.0
 20
0.0
 30
0.0
  3
*Model_Space
  1

  0
ENDBLK
  5
20
330
1E
100
AcDbEntity
  8
0
100
AcDbBlockEnd
  0
BLOCK
  5
1B
330
1A
100
AcDbEntity
 67
     1
  8
0
100
AcDbBlockBegin
  2
*Paper_Space
 70
     0
 10
0.0
 20
0.0
 30
0.0
  3
*Paper_Space
  1

  0
ENDBLK
  5
1C
330
1A
100
AcDbEntity
 67
     1
  8
0
100
AcDbBlockEnd
  0
ENDSEC
  0
SECTION
  2
ENTITIES
  0
LINE
  5
22
330
1E
100
AcDbEntity
  8
0
100
AcDbLine
 10
0.300000000000005
 20
230.299975
 30
0.0
 11
1.0
 21
229.999975
 31
0.0
  0
LINE
  5
23
330
1E
100
AcDbEntity
  8
0
100
AcDbLine
 10
1.0
 20
229.999975
 30
0.0
 11
1.199999999999999
 21
229.999975
 31
0.0
  0
LINE
  5
24
330
1E
100
AcDbEntity
  8
0
100
AcDbLine
 10
1.7
 20
229.999975
 30
0.0
 11
2.5
 21
229.999975
 31
0.0
  0
LINE
  5
25
330
1E
100
AcDbEntity
  8
0
100
AcDbLine
 10
1.199999999999999
 20
229.999975
 30
0.0
 11
1.7
 21
229.999975
 31
0.0
  0
LINE
  5
26
330
1E
100
AcDbEntity
  8
0
100
AcDbLine
 10
1.1
 20
230.299975
 30
0.0
 11
2.0
 21
230.299975
 31
0.0
  0
LINE
  5
27
330
1E
100
AcDbEntity
  8
0
100
AcDbLine
 10
0.500000000000005
 20
230.299975
 30
0.0
 11
1.1
 21
230.299975
 31
0.0
  0
LINE
  5
28
330
1E
100
AcDbEntity
  8
0
100
AcDbLine
 10
0.300000000000005
 20
230.299975
 30
0.0
 11
0.500000000000005
 21
230.299975
 31
0.0
  0
LINE
  5
29
330
1E
100
AcDbEntity
  8
0
100
AcDbLine
 10
0.8000000000000049
 20
236.999975
 30
0.0
 11
1.8
 21
236.999975
 31
0.0
  0
LINE
  5
2A
330
1E
100
AcDbEntity
  8
0
100
AcDbLine
 10
0.200000000000005
 20
236.999975
 30
0.0
 11
0.8000000000000049
 21
236.999975
 31
0.0
  0
LINE
  5
2B
330
1E
100
AcDbEntity
  8
0
100
AcDbLine
 10
0.0000000000000047
 20
236.999975
 30
0.0
 11
0.0000000000000047
 21
230.999975
 31
0.0
  0
LINE
  5
2C
330
1E
100
AcDbEntity
  8
0
100
AcDbLine
 10
0.0000000000000047
 20
236.999975
 30
0.0
 11
0.200000000000005
 21
236.999975
 31
0.0
  0
LINE
  5
2D
330
1E
100
AcDbEntity
  8
0
100
AcDbLine
 10
0.0000000000000047
 20
230.999975
 30
0.0
 11
0.0000000000000047
 21
236.999975
 31
0.0
  0
LINE
  5
2E
330
1E
100
AcDbEntity
  8
0
100
AcDbLine
 10
0.0000000000000047
 20
230.999975
 30
0.0
 11
0.300000000000005
 21
230.299975
 31
0.0
  0
LINE
  5
2F
330
1E
100
AcDbEntity
  8
0
100
AcDbLine
 10
2.5
 20
229.999975
 30
0.0
 11
3.5
 21
229.999975
 31
0.0
  0
LINE
  5
30
330
1E
100
AcDbEntity
  8
0
100
AcDbLine
 10
2.0
 20
230.299975
 30
0.0
 11
3.200000000000009
 21
230.299975
 31
0.0
  0
LINE
  5
31
330
1E
100
AcDbEntity
  8
0
100
AcDbLine
 10
3.5
 20
229.999975
 30
0.0
 11
4.7
 21
229.999975
 31
0.0
  0
LINE
  5
32
330
1E
100
AcDbEntity
  8
0
100
AcDbLine
 10
3.200000000000009
 20
230.299975
 30
0.0
 11
4.5
 21
230.299975
 31
0.0
  0
LINE
  5
33
330
1E
100
AcDbEntity
  8
0
100
AcDbLine
 10
4.5
 20
230.299975
 30
0.0
 11
6.0
 21
230.299975
 31
0.0
  0
LINE
  5
34
330
1E
100
AcDbEntity
  8
0
100
AcDbLine
 10
1.8
 20
236.999975
 30
0.0
 11
3.0
 21
236.999975
 31
0.0
  0
LINE
  5
35
330
1E
100
AcDbEntity
  8
0
100
AcDbLine
 10
3.0
 20
236.999975
 30
0.0
 11
4.5
 21
236.999975
 31
0.0
  0
LINE
  5
36
330
1E
100
AcDbEntity
  8
0
100
AcDbLine
 10
6.000000000000007
 20
229.999975
 30
0.0
 11
20.5
 21
229.999975
 31
0.0
  0
LINE
  5
37
330
1E
100
AcDbEntity
  8
0
100
AcDbLine
 10
4.7
 20
229.999975
 30
0.0
 11
6.0
 21
229.999975
 31
0.0
  0
LINE
  5
38
330
1E
100
AcDbEntity
  8
0
100
AcDbLine
 10
6.0
 20
229.999975
 30
0.0
 11
7.0
 21
229.999975
 31
0.0
  0
LINE
  5
39
330
1E
100
AcDbEntity
  8
0
100
AcDbLine
 10
6.0
 20
229.999975
 30
0.0
 11
20.5
 21
229.999975
 31
0.0
  0
LINE
  5
3A
330
1E
100
AcDbEntity
  8
0
100
AcDbLine
 10
7.0
 20
229.999975
 30
0.0
 11
9.699999999999999
 21
229.999975
 31
0.0
  0
LINE
  5
3B
330
1E
100
AcDbEntity
  8
0
100
AcDbLine
 10
6.000000000000007
 20
230.299975
 30
0.0
 11
84.0
 21
230.299975
 31
0.0
  0
LINE
  5
3C
330
1E
100
AcDbEntity
  8
0
100
AcDbLine
 10
6.0
 20
236.999975
 30
0.0
 11
84.0
 21
236.999975
 31
0.0
  0
LINE
  5
3D
330
1E
100
AcDbEntity
  8
0
100
AcDbLine
 10
6.0
 20
230.299975
 30
0.0
 11
84.0
 21
230.299975
 31
0.0
  0
LINE
  5
3E
330
1E
100
AcDbEntity
  8
0
100
AcDbLine
 10
4.5
 20
236.999975
 30
0.0
 11
6.0
 21
236.999975
 31
0.0
  0
LINE
  5
3F
330
1E
100
AcDbEntity
  8
0
100
AcDbLine
 10
4.0
 20
282.255875
 30
0.0
 11
4.0
 21
284.2058749999999
 31
0.0
  0
LINE
  5
40
330
1E
100
AcDbEntity
  8
0
100
AcDbLine
 10
4.0
 20
282.255875
 30
0.0
 11
4.0
 21
281.032375
 31
0.0
  0
LINE
  5
41
330
1E
100
AcDbEntity
  8
0
100
AcDbLine
 10
4.0
 20
281.032375
 30
0.0
 11
4.0
 21
282.255875
 31
0.0
  0
LINE
  5
42
330
1E
100
AcDbEntity
  8
0
100
AcDbLine
 10
4.0
 20
281.032375
 30
0.0
 11
4.0
 21
280.5734749999999
 31
0.0
  0
LINE
  5
43
330
1E
100
AcDbEntity
  8
0
100
AcDbLine
 10
4.0
 20
280.5734749999999
 30
0.0
 11
4.0
 21
281.032375
 31
0.0
  0
LINE
  5
44
330
1E
100
AcDbEntity
  8
0
100
AcDbLine
 10
4.0
 20
280.5734749999999
 30
0.0
 11
4.5
 21
280.1911749999999
 31
0.0
  0
LINE
  5
45
330
1E
100
AcDbEntity
  8
0
100
AcDbLine
 10
4.0
 20
284.2058749999999
 30
0.0
 11
4.0
 21
286.8058749999999
 31
0.0
  0
LINE
  5
46
330
1E
100
AcDbEntity
  8
0
100
AcDbLine
 10
4.0
 20
284.2058749999999
 30
0.0
 11
4.0
 21
282.255875
 31
0.0
  0
LINE
  5
47
330
1E
100
AcDbEntity
  8
0
100
AcDbLine
 10
4.0
 20
289.788175
 30
0.0
 11
4.0
 21
286.8058749999999
 31
0.0
  0
LINE
  5
48
330
1E
100
AcDbEntity
  8
0
100
AcDbLine
 10
4.0
 20
289.788175
 30
0.0
 11
4.0
 21
292.9999749999999
 31
0.0
  0
LINE
  5
49
330
1E
100
AcDbEntity
  8
0
100
AcDbLine
 10
4.0
 20
286.8058749999999
 30
0.0
 11
4.0
 21
289.788175
 31
0.0
  0
LINE
  5
4A
330
1E
100
AcDbEntity
  8
0
100
AcDbLine
 10
4.0
 20
286.8058749999999
 30
0.0
 11
4.0
 21
284.2058749999999
 31
0.0
  0
LINE
  5
4B
330
1E
100
AcDbEntity
  8
0
100
AcDbLine
 10
4.0
 20
286.8058749999999
 30
0.0
 11
4.0
 21
289.788175
 31
0.0
  0
LINE
  5
4C
330
1E
100
AcDbEntity
  8
0
100
AcDbLine
 10
4.0
 20
289.788175
 30
0.0
 11
4.0
 21
292.9999749999999
 31
0.0
  0
LINE
  5
4D
330
1E
100
AcDbEntity
  8
0
100
AcDbLine
 10
4.0
 20
289.788175
 30
0.0
 11
4.0
 21
286.8058749999999
 31
0.0
  0
LINE
  5
4E
330
1E
100
AcDbEntity
  8
0
100
AcDbLine
 10
4.0
 20
299.1940749999999
 30
0.0
 11
4.0
 21
301.794075
 31
0.0
  0
LINE
  5
4F
330
1E
100
AcDbEntity
  8
0
100
AcDbLine
 10
4.0
 20
299.1940749999999
 30
0.0
 11
4.0
 21
296.2117749999999
 31
0.0
  0
LINE
  5
50
330
1E
100
AcDbEntity
  8
0
100
AcDbLine
 10
4.0
 20
296.2117749999999
 30
0.0
 11
4.0
 21
299.1940749999999
 31
0.0
  0
LINE
  5
51
330
1E
100
AcDbEntity
  8
0
100
AcDbLine
 10
4.0
 20
296.2117749999999
 30
0.0
 11
4.0
 21
292.9999749999999
 31
0.0
  0
LINE
  5
52
330
1E
100
AcDbEntity
  8
0
100
AcDbLine
 10
4.0
 20
292.9999749999999
 30
0.0
 11
4.0
 21
296.2117749999999
 31
0.0
  0
LINE
  5
53
330
1E
100
AcDbEntity
  8
0
100
AcDbLine
 10
4.0
 20
292.9999749999999
 30
0.0
 11
4.0
 21
289.788175
 31
0.0
  0
LINE
  5
54
330
1E
100
AcDbEntity
  8
0
100
AcDbLine
 10
4.0
 20
292.9999749999999
 30
0.0
 11
4.0
 21
289.788175
 31
0.0
  0
LINE
  5
55
330
1E
100
AcDbEntity
  8
0
100
AcDbLine
 10
4.0
 20
301.794075
 30
0.0
 11
4.0
 21
303.7440749999999
 31
0.0
  0
LINE
  5
56
330
1E
100
AcDbEntity
  8
0
100
AcDbLine
 10
4.0
 20
301.794075
 30
0.0
 11
4.0
 21
299.1940749999999
 31
0.0
  0
LINE
  5
57
330
1E
100
AcDbEntity
  8
0
100
AcDbLine
 10
4.0
 20
303.7440749999999
 30
0.0
 11
4.0
 21
304.9676749999999
 31
0.0
  0
LINE
  5
58
330
1E
100
AcDbEntity
  8
0
100
AcDbLine
 10
4.0
 20
303.7440749999999
 30
0.0
 11
4.0
 21
301.794075
 31
0.0
  0
LINE
  5
59
330
1E
100
AcDbEntity
  8
0
100
AcDbLine
 10
4.0
 20
304.9676749999999
 30
0.0
 11
4.0
 21
305.4264749999999
 31
0.0
  0
LINE
  5
5A
330
1E
100
AcDbEntity
  8
0
100
AcDbLine
 10
4.0
 20
304.9676749999999
 30
0.0
 11
4.0
 21
303.7440749999999
 31
0.0
  0
LINE
  5
5B
330
1E
100
AcDbEntity
  8
0
100
AcDbLine
 10
5.500000000000007
 20
279.9999749999999
 30
0.0
 11
11.6489822213683
 21
280.7030390731489
 31
0.0
  0
LINE
  5
5C
330
1E
100
AcDbEntity
  8
0
100
AcDbLine
 10
4.5
 20
280.1911749999999
 30
0.0
 11
5.5
 21
279.9999749999999
 31
0.0
  0
LINE
  5
5D
330
1E
100
AcDbEntity
  8
0
100
AcDbLine
 10
4.0
 20
305.4264749999999
 30
0.0
 11
4.5
 21
305.8087749999999
 31
0.0
  0
LINE
  5
5E
330
1E
100
AcDbEntity
  8
0
100
AcDbLine
 10
4.0
 20
305.4264749999999
 30
0.0
 11
4.0
 21
304.9676749999999
 31
0.0
  0
LINE
  5
5F
330
1E
100
AcDbEntity
  8
0
100
AcDbLine
 10
5.5
 20
305.999975
 30
0.0
 11
6.0
 21
305.999975
 31
0.0
  0
LINE
  5
60
330
1E
100
AcDbEntity
  8
0
100
AcDbLine
 10
4.5
 20
305.8087749999999
 30
0.0
 11
5.5
 21
305.999975
 31
0.0
  0
LINE
  5
62
330
1E
100
AcDbEntity
  8
0
100
AcDbLine
 10
6.0
 20
305.999975
 30
0.0
 11
6.0
 21
308.9999749999999
 31
0.0
  0
LINE
  5
65
330
1E
100
AcDbEntity
  8
0
100
AcDbLine
 10
6.923999999999998
 20
308.9999749999999
 30
0.0
 11
8.044
 21
308.9999749999999
 31
0.0
  0
LINE
  5
66
330
1E
100
AcDbEntity
  8
0
100
AcDbLine
 10
6.252
 20
308.9999749999999
 30
0.0
 11
6.923999999999998
 21
308.9999749999999
 31
0.0
  0
LINE
  5
67
330
1E
100
AcDbEntity
  8
0
100
AcDbLine
 10
6.0
 20
308.9999749999999
 30
0.0
 11
6.0
 21
305.999975
 31
0.0
  0
LINE
  5
68
330
1E
100
AcDbEntity
  8
0
100
AcDbLine
 10
6.0
 20
308.9999749999999
 30
0.0
 11
6.252
 21
308.9999749999999
 31
0.0
  0
LINE
  5
69
330
1E
100
AcDbEntity
  8
0
100
AcDbLine
 10
5.500000000000007
 20
279.9999749999999
 30
0.0
 11
11.6489822213683
 21
280.7030390731489
 31
0.0
  0
LINE
  5
6A
330
1E
100
AcDbEntity
  8
0
100
AcDbLine
 10
5.5
 20
305.999975
 30
0.0
 11
6.0
 21
305.999975
 31
0.0
  0
LINE
  5
6B
330
1E
100
AcDbEntity
  8
0
100
AcDbLine
 10
6.000000000000007
 20
236.999975
 30
0.0
 11
84.0
 21
236.999975
 31
0.0
  0
LINE
  5
6C
330
1E
100
AcDbEntity
  8
0
100
AcDbLine
 10
9.699999999999999
 20
229.999975
 30
0.0
 11
14.19999999999999
 21
229.999975
 31
0.0
  0
LINE
  5
6D
330
1E
100
AcDbEntity
  8
0
100
AcDbLine
 10
14.19999999999999
 20
229.999975
 30
0.0
 11
20.1
 21
229.999975
 31
0.0
  0
LINE
  5
6E
330
1E
100
AcDbEntity
  8
0
100
AcDbLine
 10
18.6
 20
229.999975
 30
0.0
 11
20.1
 21
229.999975
 31
0.0
  0
LINE
  5
6F
330
1E
100
AcDbEntity
  8
0
100
AcDbLine
 10
18.0
 20
229.999975
 30
0.0
 11
18.6
 21
229.999975
 31
0.0
  0
LINE
  5
70
330
1E
100
AcDbEntity
  8
0
100
AcDbLine
 10
15.2
 20
229.999975
 30
0.0
 11
20.5
 21
229.999975
 31
0.0
  0
LINE
  5
71
330
1E
100
AcDbEntity
  8
0
100
AcDbLine
 10
20.1
 20
229.999975
 30
0.0
 11
22.7
 21
229.999975
 31
0.0
  0
LINE
  5
72
330
1E
100
AcDbEntity
  8
0
100
AcDbLine
 10
20.1
 20
229.999975
 30
0.0
 11
26.8
 21
229.999975
 31
0.0
  0
LINE
  5
73
330
1E
100
AcDbEntity
  8
0
100
AcDbLine
 10
23.5
 20
28.319275
 30
0.0
 11
23.5
 21
31.165475
 31
0.0
  0
LINE
  5
74
330
1E
100
AcDbEntity
  8
0
100
AcDbLine
 10
23.5
 20
28.319275
 30
0.0
 11
23.5
 21
25.921175
 31
0.0
  0
LINE
  5
75
330
1E
100
AcDbEntity
  8
0
100
AcDbLine
 10
23.5
 20
25.921175
 30
0.0
 11
23.5
 21
28.319275
 31
0.0
  0
LINE
  5
76
330
1E
100
AcDbEntity
  8
0
100
AcDbLine
 10
23.5
 20
25.921175
 30
0.0
 11
23.5
 21
24.011975
 31
0.0
  0
LINE
  5
77
330
1E
100
AcDbEntity
  8
0
100
AcDbLine
 10
23.5
 20
31.165475
 30
0.0
 11
23.5
 21
34.410875
 31
0.0
  0
LINE
  5
78
330
1E
100
AcDbEntity
  8
0
100
AcDbLine
 10
23.5
 20
31.165475
 30
0.0
 11
23.5
 21
28.319275
 31
0.0
  0
LINE
  5
79
330
1E
100
AcDbEntity
  8
0
100
AcDbLine
 10
23.5
 20
41.871375
 30
0.0
 11
23.5
 21
45.958975
 31
0.0
  0
LINE
  5
7A
330
1E
100
AcDbEntity
  8
0
100
AcDbLine
 10
23.5
 20
41.871375
 30
0.0
 11
23.5
 21
37.99997499999999
 31
0.0
  0
LINE
  5
7B
330
1E
100
AcDbEntity
  8
0
100
AcDbLine
 10
23.5
 20
45.958975
 30
0.0
 11
23.5
 21
50.192575
 31
0.0
  0
LINE
  5
7C
330
1E
100
AcDbEntity
  8
0
100
AcDbLine
 10
23.5
 20
45.958975
 30
0.0
 11
23.5
 21
41.871375
 31
0.0
  0
LINE
  5
7D
330
1E
100
AcDbEntity
  8
0
100
AcDbLine
 10
23.5
 20
50.192575
 30
0.0
 11
23.5
 21
45.958975
 31
0.0
  0
LINE
  5
7E
330
1E
100
AcDbEntity
  8
0
100
AcDbLine
 10
23.5
 20
50.192575
 30
0.0
 11
23.5
 21
54.499975
 31
0.0
  0
LINE
  5
7F
330
1E
100
AcDbEntity
  8
0
100
AcDbLine
 10
23.5
 20
37.99997499999999
 30
0.0
 11
23.5
 21
34.410875
 31
0.0
  0
LINE
  5
80
330
1E
100
AcDbEntity
  8
0
100
AcDbLine
 10
23.5
 20
37.99997499999999
 30
0.0
 11
23.5
 21
41.871375
 31
0.0
  0
LINE
  5
81
330
1E
100
AcDbEntity
  8
0
100
AcDbLine
 10
23.5
 20
34.410875
 30
0.0
 11
23.5
 21
31.165475
 31
0.0
  0
LINE
  5
82
330
1E
100
AcDbEntity
  8
0
100
AcDbLine
 10
23.5
 20
34.410875
 30
0.0
 11
23.5
 21
37.99997499999999
 31
0.0
  0
LINE
  5
83
330
1E
100
AcDbEntity
  8
0
100
AcDbLine
 10
23.5
 20
24.011975
 30
0.0
 11
23.5
 21
9.86679500000001
 31
0.0
  0
LINE
  5
84
330
1E
100
AcDbEntity
  8
0
100
AcDbLine
 10
23.5
 20
24.011975
 30
0.0
 11
23.5
 21
25.921175
 31
0.0
  0
LINE
  5
85
330
1E
100
AcDbEntity
  8
0
100
AcDbLine
 10
23.5
 20
9.86679500000001
 30
0.0
 11
23.5
 21
24.011975
 31
0.0
  0
LINE
  5
86
330
1E
100
AcDbEntity
  8
0
100
AcDbLine
 10
23.5
 20
9.86679500000001
 30
0.0
 11
23.9
 21
7.329625000000008
 31
0.0
  0
LINE
  5
87
330
1E
100
AcDbEntity
  8
0
100
AcDbLine
 10
34.0
 20
0.0000250000000065
 30
0.0
 11
36.7
 21
0.375902000000007
 31
0.0
  0
LINE
  5
88
330
1E
100
AcDbEntity
  8
0
100
AcDbLine
 10
36.7
 20
0.375902000000007
 30
0.0
 11
39.2
 21
1.31559500000001
 31
0.0
  0
LINE
  5
89
330
1E
100
AcDbEntity
  8
0
100
AcDbLine
 10
34.0
 20
0.0000250000000065
 30
0.0
 11
36.7
 21
0.375902000000007
 31
0.0
  0
LINE
  5
8A
330
1E
100
AcDbEntity
  8
0
100
AcDbLine
 10
23.9
 20
7.329625000000008
 30
0.0
 11
24.9
 21
4.980395000000008
 31
0.0
  0
LINE
  5
8B
330
1E
100
AcDbEntity
  8
0
100
AcDbLine
 10
24.9
 20
4.980395000000008
 30
0.0
 11
26.6
 21
2.913075000000008
 31
0.0
  0
LINE
  5
8C
330
1E
100
AcDbEntity
  8
0
100
AcDbLine
 10
26.6
 20
2.913075000000008
 30
0.0
 11
28.8
 21
1.31559500000001
 31
0.0
  0
LINE
  5
8D
330
1E
100
AcDbEntity
  8
0
100
AcDbLine
 10
36.7
 20
0.375902000000007
 30
0.0
 11
39.2
 21
1.31559500000001
 31
0.0
  0
LINE
  5
8E
330
1E
100
AcDbEntity
  8
0
100
AcDbLine
 10
44.5
 20
28.319275
 30
0.0
 11
44.5
 21
25.921175
 31
0.0
  0
LINE
  5
8F
330
1E
100
AcDbEntity
  8
0
100
AcDbLine
 10
44.5
 20
28.319275
 30
0.0
 11
44.5
 21
31.165475
 31
0.0
  0
LINE
  5
90
330
1E
100
AcDbEntity
  8
0
100
AcDbLine
 10
44.5
 20
25.921175
 30
0.0
 11
44.5
 21
24.011975
 31
0.0
  0
LINE
  5
91
330
1E
100
AcDbEntity
  8
0
100
AcDbLine
 10
44.5
 20
25.921175
 30
0.0
 11
44.5
 21
28.319275
 31
0.0
  0
LINE
  5
92
330
1E
100
AcDbEntity
  8
0
100
AcDbLine
 10
44.5
 20
31.165475
 30
0.0
 11
44.5
 21
34.410875
 31
0.0
  0
LINE
  5
93
330
1E
100
AcDbEntity
  8
0
100
AcDbLine
 10
44.5
 20
31.165475
 30
0.0
 11
44.5
 21
28.319275
 31
0.0
  0
LINE
  5
94
330
1E
100
AcDbEntity
  8
0
100
AcDbLine
 10
44.5
 20
34.410875
 30
0.0
 11
44.5
 21
37.99997499999999
 31
0.0
  0
LINE
  5
95
330
1E
100
AcDbEntity
  8
0
100
AcDbLine
 10
44.5
 20
34.410875
 30
0.0
 11
44.5
 21
31.165475
 31
0.0
  0
LINE
  5
96
330
1E
100
AcDbEntity
  8
0
100
AcDbLine
 10
44.5
 20
37.99997499999999
 30
0.0
 11
44.5
 21
41.871375
 31
0.0
  0
LINE
  5
97
330
1E
100
AcDbEntity
  8
0
100
AcDbLine
 10
44.5
 20
37.99997499999999
 30
0.0
 11
44.5
 21
34.410875
 31
0.0
  0
LINE
  5
98
330
1E
100
AcDbEntity
  8
0
100
AcDbLine
 10
44.5
 20
50.192575
 30
0.0
 11
44.5
 21
54.499975
 31
0.0
  0
LINE
  5
99
330
1E
100
AcDbEntity
  8
0
100
AcDbLine
 10
44.5
 20
50.192575
 30
0.0
 11
44.5
 21
45.958975
 31
0.0
  0
LINE
  5
9A
330
1E
100
AcDbEntity
  8
0
100
AcDbLine
 10
44.5
 20
45.958975
 30
0.0
 11
44.5
 21
50.192575
 31
0.0
  0
LINE
  5
9B
330
1E
100
AcDbEntity
  8
0
100
AcDbLine
 10
44.5
 20
45.958975
 30
0.0
 11
44.5
 21
41.871375
 31
0.0
  0
LINE
  5
9C
330
1E
100
AcDbEntity
  8
0
100
AcDbLine
 10
44.5
 20
41.871375
 30
0.0
 11
44.5
 21
45.958975
 31
0.0
  0
LINE
  5
9D
330
1E
100
AcDbEntity
  8
0
100
AcDbLine
 10
44.5
 20
41.871375
 30
0.0
 11
44.5
 21
37.99997499999999
 31
0.0
  0
LINE
  5
9E
330
1E
100
AcDbEntity
  8
0
100
AcDbLine
 10
44.5
 20
54.499975
 30
0.0
 11
44.5
 21
226.4999749999998
 31
0.0
  0
LINE
  5
9F
330
1E
100
AcDbEntity
  8
0
100
AcDbLine
 10
44.5
 20
54.499975
 30
0.0
 11
44.5
 21
50.192575
 31
0.0
  0
LINE
  5
A0
330
1E
100
AcDbEntity
  8
0
100
AcDbLine
 10
44.5
 20
9.86679500000001
 30
0.0
 11
44.5
 21
24.011975
 31
0.0
  0
LINE
  5
A1
330
1E
100
AcDbEntity
  8
0
100
AcDbLine
 10
44.1
 20
7.329625000000008
 30
0.0
 11
44.5
 21
9.86679500000001
 31
0.0
  0
LINE
  5
A2
330
1E
100
AcDbEntity
  8
0
100
AcDbLine
 10
43.1
 20
4.980395000000008
 30
0.0
 11
44.1
 21
7.329625000000008
 31
0.0
  0
LINE
  5
A3
330
1E
100
AcDbEntity
  8
0
100
AcDbLine
 10
41.39999999999999
 20
2.913075000000008
 30
0.0
 11
43.1
 21
4.980395000000008
 31
0.0
  0
LINE
  5
A4
330
1E
100
AcDbEntity
  8
0
100
AcDbLine
 10
39.2
 20
1.31559500000001
 30
0.0
 11
41.39999999999999
 21
2.913075000000008
 31
0.0
  0
LINE
  5
A5
330
1E
100
AcDbEntity
  8
0
100
AcDbLine
 10
44.5
 20
24.011975
 30
0.0
 11
44.5
 21
9.86679500000001
 31
0.0
  0
LINE
  5
A6
330
1E
100
AcDbEntity
  8
0
100
AcDbLine
 10
44.5
 20
24.011975
 30
0.0
 11
44.5
 21
25.921175
 31
0.0
  0
LINE
  5
A7
330
1E
100
AcDbEntity
  8
0
100
AcDbLine
 10
117.0
 20
189.915975
 30
0.0
 11
117.0
 21
176.525975
 31
0.0
  0
LINE
  5
A8
330
1E
100
AcDbEntity
  8
0
100
AcDbLine
 10
117.0
 20
189.915975
 30
0.0
 11
117.0
 21
192.946975
 31
0.0
  0
LINE
  5
A9
330
1E
100
AcDbEntity
  8
0
100
AcDbLine
 10
117.0
 20
176.525975
 30
0.0
 11
117.0
 21
174.6319749999998
 31
0.0
  0
LINE
  5
AA
330
1E
100
AcDbEntity
  8
0
100
AcDbLine
 10
117.0
 20
176.525975
 30
0.0
 11
117.0
 21
189.915975
 31
0.0
  0
LINE
  5
AB
330
1E
100
AcDbEntity
  8
0
100
AcDbLine
 10
117.324
 20
174.2529749999999
 30
0.0
 11
117.81
 21
173.999975
 31
0.0
  0
LINE
  5
AC
330
1E
100
AcDbEntity
  8
0
100
AcDbLine
 10
117.0
 20
174.6319749999998
 30
0.0
 11
117.0
 21
176.525975
 31
0.0
  0
LINE
  5
AE
330
1E
100
AcDbEntity
  8
0
100
AcDbLine
 10
117.0
 20
174.6319749999998
 30
0.0
 11
117.324
 21
174.2529749999999
 31
0.0
  0
LINE
  5
AF
330
1E
100
AcDbEntity
  8
0
100
AcDbLine
 10
117.6479999999999
 20
206.999975
 30
0.0
 11
118.0
 21
206.999975
 31
0.0
  0
LINE
  5
B0
330
1E
100
AcDbEntity
  8
0
100
AcDbLine
 10
117.25
 20
211.226975
 30
0.0
 11
117.7499999999999
 21
210.999975
 31
0.0
  0
LINE
  5
B1
330
1E
100
AcDbEntity
  8
0
100
AcDbLine
 10
117.25
 20
211.226975
 30
0.0
 11
117.8499999999999
 21
211.226975
 31
0.0
  0
LINE
  5
B2
330
1E
100
AcDbEntity
  8
0
100
AcDbLine
 10
117.0
 20
211.6819749999999
 30
0.0
 11
117.0
 21
229.999975
 31
0.0
  0
LINE
  5
B3
330
1E
100
AcDbEntity
  8
0
100
AcDbLine
 10
117.0
 20
211.6819749999999
 30
0.0
 11
117.25
 21
211.226975
 31
0.0
  0
LINE
  5
B4
330
1E
100
AcDbEntity
  8
0
100
AcDbLine
 10
117.0
 20
206.999975
 30
0.0
 11
117.6479999999999
 21
205.944975
 31
0.0
  0
LINE
  5
B5
330
1E
100
AcDbEntity
  8
0
100
AcDbLine
 10
117.0
 20
206.999975
 30
0.0
 11
117.0
 21
192.946975
 31
0.0
  0
LINE
  5
B6
330
1E
100
AcDbEntity
  8
0
100
AcDbLine
 10
117.0
 20
206.999975
 30
0.0
 11
117.6479999999999
 21
206.999975
 31
0.0
  0
LINE
  5
B7
330
1E
100
AcDbEntity
  8
0
100
AcDbLine
 10
117.7499999999999
 20
210.999975
 30
0.0
 11
118.0
 21
210.999975
 31
0.0
  0
LINE
  5
B8
330
1E
100
AcDbEntity
  8
0
100
AcDbLine
 10
117.6479999999999
 20
205.944975
 30
0.0
 11
119.267
 21
205.0379749999998
 31
0.0
  0
LINE
  5
B9
330
1E
100
AcDbEntity
  8
0
100
AcDbLine
 10
117.0
 20
192.946975
 30
0.0
 11
117.0
 21
189.915975
 31
0.0
  0
LINE
  5
BA
330
1E
100
AcDbEntity
  8
0
100
AcDbLine
 10
117.0
 20
192.946975
 30
0.0
 11
117.0
 21
206.999975
 31
0.0
  0
LINE
  5
BC
330
1E
100
AcDbEntity
  8
0
100
AcDbLine
 10
150.191
 20
173.999975
 30
0.0
 11
150.676
 21
174.2529749999999
 31
0.0
  0
LINE
  5
BD
330
1E
100
AcDbEntity
  8
0
100
AcDbLine
 10
151.0
 20
174.6319749999998
 30
0.0
 11
151.0
 21
176.525975
 31
0.0
  0
LINE
  5
BE
330
1E
100
AcDbEntity
  8
0
100
AcDbLine
 10
150.676
 20
174.2529749999999
 30
0.0
 11
151.0
 21
174.6319749999998
 31
0.0
  0
LINE
  5
C3
330
1E
100
AcDbEntity
  8
0
100
AcDbLine
 10
134.0
 20
173.999975
 30
0.0
 11
150.191
 21
173.999975
 31
0.0
  0
LINE
  5
C5
330
1E
100
AcDbEntity
  8
0
100
AcDbLine
 10
117.8499999999999
 20
211.226975
 30
0.0
 11
119.5
 21
211.226975
 31
0.0
  0
LINE
  5
C6
330
1E
100
AcDbEntity
  8
0
100
AcDbLine
 10
118.0
 20
210.999975
 30
0.0
 11
118.5999999999999
 21
210.999975
 31
0.0
  0
LINE
  5
C7
330
1E
100
AcDbEntity
  8
0
100
AcDbLine
 10
118.0
 20
210.999975
 30
0.0
 11
118.0
 21
206.999975
 31
0.0
  0
LINE
  5
C8
330
1E
100
AcDbEntity
  8
0
100
AcDbLine
 10
120.133
 20
210.999975
 30
0.0
 11
122.733
 21
210.999975
 31
0.0
  0
LINE
  5
C9
330
1E
100
AcDbEntity
  8
0
100
AcDbLine
 10
119.5
 20
211.226975
 30
0.0
 11
122.15
 21
211.226975
 31
0.0
  0
LINE
  5
CA
330
1E
100
AcDbEntity
  8
0
100
AcDbLine
 10
118.5999999999999
 20
210.999975
 30
0.0
 11
120.133
 21
210.999975
 31
0.0
  0
LINE
  5
CB
330
1E
100
AcDbEntity
  8
0
100
AcDbLine
 10
118.0
 20
206.999975
 30
0.0
 11
118.0
 21
210.999975
 31
0.0
  0
LINE
  5
CC
330
1E
100
AcDbEntity
  8
0
100
AcDbLine
 10
118.0
 20
206.999975
 30
0.0
 11
118.1595525721139
 21
205.6583918110518
 31
0.0
  0
LINE
  5
CD
330
1E
100
AcDbEntity
  8
0
100
AcDbLine
 10
119.267
 20
205.0379749999998
 30
0.0
 11
122.0189999999998
 21
204.154975
 31
0.0
  0
LINE
  5
CE
330
1E
100
AcDbEntity
  8
0
100
AcDbLine
 10
122.733
 20
210.999975
 30
0.0
 11
126.067
 21
210.999975
 31
0.0
  0
LINE
  5
CF
330
1E
100
AcDbEntity
  8
0
100
AcDbLine
 10
122.15
 20
211.226975
 30
0.0
 11
125.65
 21
211.226975
 31
0.0
  0
LINE
  5
D0
330
1E
100
AcDbEntity
  8
0
100
AcDbLine
 10
125.65
 20
211.226975
 30
0.0
 11
129.6999999999999
 21
211.226975
 31
0.0
  0
LINE
  5
D1
330
1E
100
AcDbEntity
  8
0
100
AcDbLine
 10
126.067
 20
210.999975
 30
0.0
 11
129.867
 21
210.999975
 31
0.0
  0
LINE
  5
D2
330
1E
100
AcDbEntity
  8
0
100
AcDbLine
 10
122.0189999999998
 20
204.154975
 30
0.0
 11
125.581
 21
203.524975
 31
0.0
  0
LINE
  5
D3
330
1E
100
AcDbEntity
  8
0
100
AcDbLine
 10
125.581
 20
203.524975
 30
0.0
 11
129.6289999999999
 21
203.1219749999999
 31
0.0
  0
LINE
  5
D4
330
1E
100
AcDbEntity
  8
0
100
AcDbLine
 10
151.0
 20
192.946975
 30
0.0
 11
151.0
 21
206.999975
 31
0.0
  0
LINE
  5
D5
330
1E
100
AcDbEntity
  8
0
100
AcDbLine
 10
151.0
 20
192.946975
 30
0.0
 11
151.0
 21
176.525975
 31
0.0
  0
LINE
  5
D6
330
1E
100
AcDbEntity
  8
0
100
AcDbLine
 10
138.1329999999999
 20
210.999975
 30
0.0
 11
141.9329999999999
 21
210.999975
 31
0.0
  0
LINE
  5
D7
330
1E
100
AcDbEntity
  8
0
100
AcDbLine
 10
134.0
 20
210.999975
 30
0.0
 11
138.1329999999999
 21
210.999975
 31
0.0
  0
LINE
  5
D8
330
1E
100
AcDbEntity
  8
0
100
AcDbLine
 10
141.9329999999999
 20
210.999975
 30
0.0
 11
145.2669999999999
 21
210.999975
 31
0.0
  0
LINE
  5
D9
330
1E
100
AcDbEntity
  8
0
100
AcDbLine
 10
145.2669999999999
 20
210.999975
 30
0.0
 11
147.867
 21
210.999975
 31
0.0
  0
LINE
  5
DA
330
1E
100
AcDbEntity
  8
0
100
AcDbLine
 10
149.840447427886
 20
205.658391811051
 30
0.0
 11
150.0
 21
206.999975
 31
0.0
  0
LINE
  5
DB
330
1E
100
AcDbEntity
  8
0
100
AcDbLine
 10
147.867
 20
210.999975
 30
0.0
 11
149.3999999999998
 21
210.999975
 31
0.0
  0
LINE
  5
DC
330
1E
100
AcDbEntity
  8
0
100
AcDbLine
 10
149.3999999999998
 20
210.999975
 30
0.0
 11
150.0
 21
210.999975
 31
0.0
  0
LINE
  5
DD
330
1E
100
AcDbEntity
  8
0
100
AcDbLine
 10
150.0
 20
210.999975
 30
0.0
 11
150.0
 21
206.999975
 31
0.0
  0
LINE
  5
DE
330
1E
100
AcDbEntity
  8
0
100
AcDbLine
 10
150.0
 20
210.999975
 30
0.0
 11
150.2499999999999
 21
210.999975
 31
0.0
  0
LINE
  5
DF
330
1E
100
AcDbEntity
  8
0
100
AcDbLine
 10
150.2499999999999
 20
210.999975
 30
0.0
 11
150.75
 21
211.226975
 31
0.0
  0
LINE
  5
E0
330
1E
100
AcDbEntity
  8
0
100
AcDbLine
 10
150.3519999999999
 20
206.999975
 30
0.0
 11
151.0
 21
206.999975
 31
0.0
  0
LINE
  5
E1
330
1E
100
AcDbEntity
  8
0
100
AcDbLine
 10
150.0
 20
206.999975
 30
0.0
 11
150.3519999999999
 21
206.999975
 31
0.0
  0
LINE
  5
E2
330
1E
100
AcDbEntity
  8
0
100
AcDbLine
 10
150.0
 20
206.999975
 30
0.0
 11
150.0
 21
210.999975
 31
0.0
  0
LINE
  5
E3
330
1E
100
AcDbEntity
  8
0
100
AcDbLine
 10
150.3519999999999
 20
205.944975
 30
0.0
 11
151.0
 21
206.999975
 31
0.0
  0
LINE
  5
E4
330
1E
100
AcDbEntity
  8
0
100
AcDbLine
 10
151.0
 20
206.999975
 30
0.0
 11
151.0
 21
192.946975
 31
0.0
  0
LINE
  5
E5
330
1E
100
AcDbEntity
  8
0
100
AcDbLine
 10
148.733
 20
205.0379749999998
 30
0.0
 11
150.3519999999999
 21
205.944975
 31
0.0
  0
LINE
  5
E6
330
1E
100
AcDbEntity
  8
0
100
AcDbLine
 10
145.981
 20
204.154975
 30
0.0
 11
148.733
 21
205.0379749999998
 31
0.0
  0
LINE
  5
E7
330
1E
100
AcDbEntity
  8
0
100
AcDbLine
 10
142.4189999999998
 20
203.524975
 30
0.0
 11
145.981
 21
204.154975
 31
0.0
  0
LINE
  5
E8
330
1E
100
AcDbEntity
  8
0
100
AcDbLine
 10
138.371
 20
203.1219749999999
 30
0.0
 11
142.4189999999998
 21
203.524975
 31
0.0
  0
LINE
  5
E9
330
1E
100
AcDbEntity
  8
0
100
AcDbLine
 10
134.0
 20
202.9999749999999
 30
0.0
 11
138.371
 21
203.1219749999999
 31
0.0
  0
LINE
  5
EA
330
1E
100
AcDbEntity
  8
0
100
AcDbLine
 10
151.0
 20
176.525975
 30
0.0
 11
151.0
 21
174.6319749999998
 31
0.0
  0
LINE
  5
EB
330
1E
100
AcDbEntity
  8
0
100
AcDbLine
 10
151.0
 20
176.525975
 30
0.0
 11
151.0
 21
192.946975
 31
0.0
  0
LINE
  5
EC
330
1E
100
AcDbEntity
  8
0
100
AcDbLine
 10
129.6999999999999
 20
211.226975
 30
0.0
 11
134.0
 21
211.226975
 31
0.0
  0
LINE
  5
ED
330
1E
100
AcDbEntity
  8
0
100
AcDbLine
 10
145.8499999999999
 20
211.226975
 30
0.0
 11
148.5
 21
211.226975
 31
0.0
  0
LINE
  5
EE
330
1E
100
AcDbEntity
  8
0
100
AcDbLine
 10
148.5
 20
211.226975
 30
0.0
 11
150.15
 21
211.226975
 31
0.0
  0
LINE
  5
EF
330
1E
100
AcDbEntity
  8
0
100
AcDbLine
 10
150.15
 20
211.226975
 30
0.0
 11
150.75
 21
211.226975
 31
0.0
  0
LINE
  5
F0
330
1E
100
AcDbEntity
  8
0
100
AcDbLine
 10
142.3499999999999
 20
211.226975
 30
0.0
 11
145.8499999999999
 21
211.226975
 31
0.0
  0
LINE
  5
F1
330
1E
100
AcDbEntity
  8
0
100
AcDbLine
 10
138.3
 20
211.226975
 30
0.0
 11
142.3499999999999
 21
211.226975
 31
0.0
  0
LINE
  5
F2
330
1E
100
AcDbEntity
  8
0
100
AcDbLine
 10
134.0
 20
211.226975
 30
0.0
 11
138.3
 21
211.226975
 31
0.0
  0
LINE
  5
F3
330
1E
100
AcDbEntity
  8
0
100
AcDbLine
 10
151.0
 20
211.6819749999999
 30
0.0
 11
151.0
 21
229.999975
 31
0.0
  0
LINE
  5
F4
330
1E
100
AcDbEntity
  8
0
100
AcDbLine
 10
150.75
 20
211.226975
 30
0.0
 11
151.0
 21
211.6819749999999
 31
0.0
  0
LINE
  5
F5
330
1E
100
AcDbEntity
  8
0
100
AcDbLine
 10
129.867
 20
210.999975
 30
0.0
 11
134.0
 21
210.999975
 31
0.0
  0
LINE
  5
F6
330
1E
100
AcDbEntity
  8
0
100
AcDbLine
 10
129.6289999999999
 20
203.1219749999999
 30
0.0
 11
134.0
 21
202.9999749999999
 31
0.0
  0
LINE
  5
F8
330
1E
100
AcDbEntity
  8
0
100
AcDbLine
 10
117.81
 20
173.999975
 30
0.0
 11
134.0
 21
173.999975
 31
0.0
  0
LINE
  5
F9
330
1E
100
AcDbEntity
  8
0
100
AcDbLine
 10
44.5
 20
226.4999749999998
 30
0.0
 11
44.5
 21
226.999975
 31
0.0
  0
LINE
  5
FA
330
1E
100
AcDbEntity
  8
0
100
AcDbLine
 10
44.5
 20
226.4999749999998
 30
0.0
 11
44.5
 21
54.499975
 31
0.0
  0
LINE
  5
FB
330
1E
100
AcDbEntity
  8
0
100
AcDbLine
 10
28.8
 20
1.31559500000001
 30
0.0
 11
31.3
 21
0.375902000000007
 31
0.0
  0
LINE
  5
FC
330
1E
100
AcDbEntity
  8
0
100
AcDbLine
 10
28.8
 20
1.31559500000001
 30
0.0
 11
31.3
 21
0.375902000000007
 31
0.0
  0
LINE
  5
FD
330
1E
100
AcDbEntity
  8
0
100
AcDbLine
 10
31.3
 20
0.375902000000007
 30
0.0
 11
34.0
 21
0.0000250000000065
 31
0.0
  0
LINE
  5
FE
330
1E
100
AcDbEntity
  8
0
100
AcDbLine
 10
31.3
 20
0.375902000000007
 30
0.0
 11
34.0
 21
0.0000250000000065
 31
0.0
  0
LINE
  5
FF
330
1E
100
AcDbEntity
  8
0
100
AcDbLine
 10
23.5
 20
54.499975
 30
0.0
 11
23.5
 21
226.4999749999998
 31
0.0
  0
LINE
  5
100
330
1E
100
AcDbEntity
  8
0
100
AcDbLine
 10
23.5
 20
54.499975
 30
0.0
 11
23.5
 21
50.192575
 31
0.0
  0
LINE
  5
101
330
1E
100
AcDbEntity
  8
0
100
AcDbLine
 10
44.5
 20
226.999975
 30
0.0
 11
44.7
 21
227.7999749999998
 31
0.0
  0
LINE
  5
102
330
1E
100
AcDbEntity
  8
0
100
AcDbLine
 10
44.5
 20
226.999975
 30
0.0
 11
44.5
 21
226.4999749999998
 31
0.0
  0
LINE
  5
103
330
1E
100
AcDbEntity
  8
0
100
AcDbLine
 10
44.7
 20
227.7999749999998
 30
0.0
 11
45.2
 21
228.7999749999999
 31
0.0
  0
LINE
  5
104
330
1E
100
AcDbEntity
  8
0
100
AcDbLine
 10
45.2
 20
228.7999749999999
 30
0.0
 11
46.2
 21
229.599975
 31
0.0
  0
LINE
  5
105
330
1E
100
AcDbEntity
  8
0
100
AcDbLine
 10
23.5
 20
226.999975
 30
0.0
 11
23.5
 21
226.4999749999998
 31
0.0
  0
LINE
  5
106
330
1E
100
AcDbEntity
  8
0
100
AcDbLine
 10
23.5
 20
226.4999749999998
 30
0.0
 11
23.5
 21
226.999975
 31
0.0
  0
LINE
  5
107
330
1E
100
AcDbEntity
  8
0
100
AcDbLine
 10
23.5
 20
226.4999749999998
 30
0.0
 11
23.5
 21
54.499975
 31
0.0
  0
LINE
  5
108
330
1E
100
AcDbEntity
  8
0
100
AcDbLine
 10
23.3
 20
227.7999749999998
 30
0.0
 11
23.5
 21
226.999975
 31
0.0
  0
LINE
  5
109
330
1E
100
AcDbEntity
  8
0
100
AcDbLine
 10
22.7
 20
229.999975
 30
0.0
 11
26.0
 21
229.999975
 31
0.0
  0
LINE
  5
10A
330
1E
100
AcDbEntity
  8
0
100
AcDbLine
 10
26.0
 20
229.999975
 30
0.0
 11
29.9
 21
229.999975
 31
0.0
  0
LINE
  5
10B
330
1E
100
AcDbEntity
  8
0
100
AcDbLine
 10
38.1
 20
229.999975
 30
0.0
 11
42.0
 21
229.999975
 31
0.0
  0
LINE
  5
10C
330
1E
100
AcDbEntity
  8
0
100
AcDbLine
 10
42.0
 20
229.999975
 30
0.0
 11
45.3
 21
229.999975
 31
0.0
  0
LINE
  5
10D
330
1E
100
AcDbEntity
  8
0
100
AcDbLine
 10
41.2
 20
229.999975
 30
0.0
 11
47.9
 21
229.999975
 31
0.0
  0
LINE
  5
10E
330
1E
100
AcDbEntity
  8
0
100
AcDbLine
 10
34.0
 20
229.999975
 30
0.0
 11
41.2
 21
229.999975
 31
0.0
  0
LINE
  5
10F
330
1E
100
AcDbEntity
  8
0
100
AcDbLine
 10
34.0
 20
229.999975
 30
0.0
 11
38.1
 21
229.999975
 31
0.0
  0
LINE
  5
110
330
1E
100
AcDbEntity
  8
0
100
AcDbLine
 10
46.2
 20
229.599975
 30
0.0
 11
47.5
 21
229.999975
 31
0.0
  0
LINE
  5
111
330
1E
100
AcDbEntity
  8
0
100
AcDbLine
 10
48.1
 20
229.999975
 30
0.0
 11
48.6
 21
229.999975
 31
0.0
  0
LINE
  5
112
330
1E
100
AcDbEntity
  8
0
100
AcDbLine
 10
47.5
 20
229.999975
 30
0.0
 11
52.8
 21
229.999975
 31
0.0
  0
LINE
  5
113
330
1E
100
AcDbEntity
  8
0
100
AcDbLine
 10
47.5
 20
229.999975
 30
0.0
 11
48.1
 21
229.999975
 31
0.0
  0
LINE
  5
114
330
1E
100
AcDbEntity
  8
0
100
AcDbLine
 10
47.5
 20
229.999975
 30
0.0
 11
84.0
 21
229.999975
 31
0.0
  0
LINE
  5
115
330
1E
100
AcDbEntity
  8
0
100
AcDbLine
 10
45.3
 20
229.999975
 30
0.0
 11
47.9
 21
229.999975
 31
0.0
  0
LINE
  5
116
330
1E
100
AcDbEntity
  8
0
100
AcDbLine
 10
47.9
 20
229.999975
 30
0.0
 11
49.4
 21
229.999975
 31
0.0
  0
LINE
  5
117
330
1E
100
AcDbEntity
  8
0
100
AcDbLine
 10
47.9
 20
229.999975
 30
0.0
 11
53.79999999999999
 21
229.999975
 31
0.0
  0
LINE
  5
118
330
1E
100
AcDbEntity
  8
0
100
AcDbLine
 10
52.8
 20
229.999975
 30
0.0
 11
57.0
 21
229.999975
 31
0.0
  0
LINE
  5
119
330
1E
100
AcDbEntity
  8
0
100
AcDbLine
 10
57.0
 20
229.999975
 30
0.0
 11
59.6
 21
229.999975
 31
0.0
  0
LINE
  5
11A
330
1E
100
AcDbEntity
  8
0
100
AcDbLine
 10
49.4
 20
229.999975
 30
0.0
 11
50.0
 21
229.999975
 31
0.0
  0
LINE
  5
11B
330
1E
100
AcDbEntity
  8
0
100
AcDbLine
 10
53.79999999999999
 20
229.999975
 30
0.0
 11
58.3
 21
229.999975
 31
0.0
  0
LINE
  5
11C
330
1E
100
AcDbEntity
  8
0
100
AcDbLine
 10
84.0
 20
229.999975
 30
0.0
 11
117.0
 21
229.999975
 31
0.0
  0
LINE
  5
11D
330
1E
100
AcDbEntity
  8
0
100
AcDbLine
 10
59.6
 20
229.999975
 30
0.0
 11
60.6
 21
229.999975
 31
0.0
  0
LINE
  5
11E
330
1E
100
AcDbEntity
  8
0
100
AcDbLine
 10
58.3
 20
229.999975
 30
0.0
 11
61.0
 21
229.999975
 31
0.0
  0
LINE
  5
11F
330
1E
100
AcDbEntity
  8
0
100
AcDbLine
 10
61.0
 20
229.999975
 30
0.0
 11
62.0
 21
229.999975
 31
0.0
  0
LINE
  5
120
330
1E
100
AcDbEntity
  8
0
100
AcDbLine
 10
108.4
 20
229.999975
 30
0.0
 11
111.0
 21
229.999975
 31
0.0
  0
LINE
  5
121
330
1E
100
AcDbEntity
  8
0
100
AcDbLine
 10
107.4
 20
229.999975
 30
0.0
 11
108.4
 21
229.999975
 31
0.0
  0
LINE
  5
122
330
1E
100
AcDbEntity
  8
0
100
AcDbLine
 10
111.0
 20
229.999975
 30
0.0
 11
115.2
 21
229.999975
 31
0.0
  0
LINE
  5
123
330
1E
100
AcDbEntity
  8
0
100
AcDbLine
 10
115.2
 20
229.999975
 30
0.0
 11
117.0
 21
229.999975
 31
0.0
  0
LINE
  5
124
330
1E
100
AcDbEntity
  8
0
100
AcDbLine
 10
114.2
 20
229.999975
 30
0.0
 11
120.1
 21
229.999975
 31
0.0
  0
LINE
  5
125
330
1E
100
AcDbEntity
  8
0
100
AcDbLine
 10
117.0
 20
229.999975
 30
0.0
 11
117.0
 21
211.6819749999999
 31
0.0
  0
LINE
  5
126
330
1E
100
AcDbEntity
  8
0
100
AcDbLine
 10
121.5999999999999
 20
229.999975
 30
0.0
 11
125.231
 21
229.999975
 31
0.0
  0
LINE
  5
127
330
1E
100
AcDbEntity
  8
0
100
AcDbLine
 10
125.231
 20
229.999975
 30
0.0
 11
129.482
 21
229.999975
 31
0.0
  0
LINE
  5
128
330
1E
100
AcDbEntity
  8
0
100
AcDbLine
 10
146.4
 20
229.999975
 30
0.0
 11
149.19
 21
229.999975
 31
0.0
  0
LINE
  5
129
330
1E
100
AcDbEntity
  8
0
100
AcDbLine
 10
142.769
 20
229.999975
 30
0.0
 11
146.4
 21
229.999975
 31
0.0
  0
LINE
  5
12A
330
1E
100
AcDbEntity
  8
0
100
AcDbLine
 10
138.518
 20
229.999975
 30
0.0
 11
142.769
 21
229.999975
 31
0.0
  0
LINE
  5
12B
330
1E
100
AcDbEntity
  8
0
100
AcDbLine
 10
134.0
 20
229.999975
 30
0.0
 11
141.1999999999999
 21
229.999975
 31
0.0
  0
LINE
  5
12C
330
1E
100
AcDbEntity
  8
0
100
AcDbLine
 10
134.0
 20
229.999975
 30
0.0
 11
138.518
 21
229.999975
 31
0.0
  0
LINE
  5
12D
330
1E
100
AcDbEntity
  8
0
100
AcDbLine
 10
141.1999999999999
 20
229.999975
 30
0.0
 11
147.9
 21
229.999975
 31
0.0
  0
LINE
  5
12E
330
1E
100
AcDbEntity
  8
0
100
AcDbLine
 10
149.19
 20
229.999975
 30
0.0
 11
150.9079999999999
 21
229.999975
 31
0.0
  0
LINE
  5
12F
330
1E
100
AcDbEntity
  8
0
100
AcDbLine
 10
150.9079999999999
 20
229.999975
 30
0.0
 11
151.5
 21
229.999975
 31
0.0
  0
LINE
  5
130
330
1E
100
AcDbEntity
  8
0
100
AcDbLine
 10
147.9
 20
229.999975
 30
0.0
 11
153.8
 21
229.999975
 31
0.0
  0
LINE
  5
131
330
1E
100
AcDbEntity
  8
0
100
AcDbLine
 10
129.482
 20
229.999975
 30
0.0
 11
134.0
 21
229.999975
 31
0.0
  0
LINE
  5
132
330
1E
100
AcDbEntity
  8
0
100
AcDbLine
 10
126.8
 20
229.999975
 30
0.0
 11
134.0
 21
229.999975
 31
0.0
  0
LINE
  5
133
330
1E
100
AcDbEntity
  8
0
100
AcDbLine
 10
120.1
 20
229.999975
 30
0.0
 11
126.8
 21
229.999975
 31
0.0
  0
LINE
  5
134
330
1E
100
AcDbEntity
  8
0
100
AcDbLine
 10
152.8
 20
229.999975
 30
0.0
 11
157.0
 21
229.999975
 31
0.0
  0
LINE
  5
135
330
1E
100
AcDbEntity
  8
0
100
AcDbLine
 10
157.0
 20
229.999975
 30
0.0
 11
159.6
 21
229.999975
 31
0.0
  0
LINE
  5
136
330
1E
100
AcDbEntity
  8
0
100
AcDbLine
 10
153.8
 20
229.999975
 30
0.0
 11
158.3
 21
229.999975
 31
0.0
  0
LINE
  5
137
330
1E
100
AcDbEntity
  8
0
100
AcDbLine
 10
159.6
 20
229.999975
 30
0.0
 11
160.5999999999999
 21
229.999975
 31
0.0
  0
LINE
  5
138
330
1E
100
AcDbEntity
  8
0
100
AcDbLine
 10
165.5
 20
229.999975
 30
0.0
 11
166.3
 21
229.999975
 31
0.0
  0
LINE
  5
139
330
1E
100
AcDbEntity
  8
0
100
AcDbLine
 10
166.3
 20
229.999975
 30
0.0
 11
166.8
 21
229.999975
 31
0.0
  0
LINE
  5
13A
330
1E
100
AcDbEntity
  8
0
100
AcDbLine
 10
166.8
 20
229.999975
 30
0.0
 11
167.0
 21
229.999975
 31
0.0
  0
LINE
  5
13B
330
1E
100
AcDbEntity
  8
0
100
AcDbLine
 10
164.5
 20
229.999975
 30
0.0
 11
165.5
 21
229.999975
 31
0.0
  0
LINE
  5
13C
330
1E
100
AcDbEntity
  8
0
100
AcDbLine
 10
163.3
 20
229.999975
 30
0.0
 11
164.5
 21
229.999975
 31
0.0
  0
LINE
  5
13D
330
1E
100
AcDbEntity
  8
0
100
AcDbLine
 10
162.0
 20
229.999975
 30
0.0
 11
163.3
 21
229.999975
 31
0.0
  0
LINE
  5
13E
330
1E
100
AcDbEntity
  8
0
100
AcDbLine
 10
158.3
 20
229.999975
 30
0.0
 11
161.0
 21
229.999975
 31
0.0
  0
LINE
  5
13F
330
1E
100
AcDbEntity
  8
0
100
AcDbLine
 10
161.0
 20
229.999975
 30
0.0
 11
162.0
 21
229.999975
 31
0.0
  0
LINE
  5
140
330
1E
100
AcDbEntity
  8
0
100
AcDbLine
 10
151.0
 20
229.999975
 30
0.0
 11
151.0
 21
211.6819749999999
 31
0.0
  0
LINE
  5
141
330
1E
100
AcDbEntity
  8
0
100
AcDbLine
 10
151.0
 20
229.999975
 30
0.0
 11
162.0
 21
229.999975
 31
0.0
  0
LINE
  5
142
330
1E
100
AcDbEntity
  8
0
100
AcDbLine
 10
151.0
 20
229.999975
 30
0.0
 11
152.8
 21
229.999975
 31
0.0
  0
LINE
  5
143
330
1E
100
AcDbEntity
  8
0
100
AcDbLine
 10
151.0
 20
229.999975
 30
0.0
 11
151.5
 21
229.999975
 31
0.0
  0
LINE
  5
144
330
1E
100
AcDbEntity
  8
0
100
AcDbLine
 10
118.81
 20
229.999975
 30
0.0
 11
121.5999999999999
 21
229.999975
 31
0.0
  0
LINE
  5
145
330
1E
100
AcDbEntity
  8
0
100
AcDbLine
 10
117.092
 20
229.999975
 30
0.0
 11
118.81
 21
229.999975
 31
0.0
  0
LINE
  5
146
330
1E
100
AcDbEntity
  8
0
100
AcDbLine
 10
116.5
 20
229.999975
 30
0.0
 11
117.092
 21
229.999975
 31
0.0
  0
LINE
  5
147
330
1E
100
AcDbEntity
  8
0
100
AcDbLine
 10
116.5
 20
229.999975
 30
0.0
 11
117.0
 21
229.999975
 31
0.0
  0
LINE
  5
148
330
1E
100
AcDbEntity
  8
0
100
AcDbLine
 10
109.6999999999999
 20
229.999975
 30
0.0
 11
114.2
 21
229.999975
 31
0.0
  0
LINE
  5
149
330
1E
100
AcDbEntity
  8
0
100
AcDbLine
 10
107.0
 20
229.999975
 30
0.0
 11
109.6999999999999
 21
229.999975
 31
0.0
  0
LINE
  5
14A
330
1E
100
AcDbEntity
  8
0
100
AcDbLine
 10
106.0
 20
229.999975
 30
0.0
 11
107.0
 21
229.999975
 31
0.0
  0
LINE
  5
14B
330
1E
100
AcDbEntity
  8
0
100
AcDbLine
 10
29.9
 20
229.999975
 30
0.0
 11
34.0
 21
229.999975
 31
0.0
  0
LINE
  5
14C
330
1E
100
AcDbEntity
  8
0
100
AcDbLine
 10
26.8
 20
229.999975
 30
0.0
 11
34.0
 21
229.999975
 31
0.0
  0
LINE
  5
14D
330
1E
100
AcDbEntity
  8
0
100
AcDbLine
 10
22.8
 20
228.7999749999999
 30
0.0
 11
23.3
 21
227.7999749999998
 31
0.0
  0
LINE
  5
14E
330
1E
100
AcDbEntity
  8
0
100
AcDbLine
 10
21.8
 20
229.599975
 30
0.0
 11
22.8
 21
228.7999749999999
 31
0.0
  0
LINE
  5
14F
330
1E
100
AcDbEntity
  8
0
100
AcDbLine
 10
20.5
 20
229.999975
 30
0.0
 11
21.8
 21
229.599975
 31
0.0
  0
LINE
  5
150
330
1E
100
AcDbEntity
  8
0
100
AcDbLine
 10
19.9
 20
229.999975
 30
0.0
 11
20.5
 21
229.999975
 31
0.0
  0
LINE
  5
151
330
1E
100
AcDbEntity
  8
0
100
AcDbLine
 10
19.39999999999998
 20
229.999975
 30
0.0
 11
19.9
 21
229.999975
 31
0.0
  0
LINE
  5
152
330
1E
100
AcDbEntity
  8
0
100
AcDbLine
 10
11.0
 20
229.999975
 30
0.0
 11
15.2
 21
229.999975
 31
0.0
  0
LINE
  5
153
330
1E
100
AcDbEntity
  8
0
100
AcDbLine
 10
164.8
 20
230.299975
 30
0.0
 11
166.0
 21
230.299975
 31
0.0
  0
LINE
  5
154
330
1E
100
AcDbEntity
  8
0
100
AcDbLine
 10
163.4999999999999
 20
230.299975
 30
0.0
 11
164.8
 21
230.299975
 31
0.0
  0
LINE
  5
155
330
1E
100
AcDbEntity
  8
0
100
AcDbLine
 10
162.0
 20
230.299975
 30
0.0
 11
163.4999999999999
 21
230.299975
 31
0.0
  0
LINE
  5
156
330
1E
100
AcDbEntity
  8
0
100
AcDbLine
 10
84.0
 20
230.299975
 30
0.0
 11
162.0
 21
230.299975
 31
0.0
  0
LINE
  5
157
330
1E
100
AcDbEntity
  8
0
100
AcDbLine
 10
166.0
 20
230.299975
 30
0.0
 11
166.9
 21
230.299975
 31
0.0
  0
LINE
  5
158
330
1E
100
AcDbEntity
  8
0
100
AcDbLine
 10
166.9
 20
230.299975
 30
0.0
 11
167.5
 21
230.299975
 31
0.0
  0
LINE
  5
159
330
1E
100
AcDbEntity
  8
0
100
AcDbLine
 10
167.5
 20
230.299975
 30
0.0
 11
167.6999999999999
 21
230.299975
 31
0.0
  0
LINE
  5
15A
330
1E
100
AcDbEntity
  8
0
100
AcDbLine
 10
167.6999999999999
 20
230.299975
 30
0.0
 11
168.0
 21
230.999975
 31
0.0
  0
LINE
  5
15B
330
1E
100
AcDbEntity
  8
0
100
AcDbLine
 10
113.0
 20
236.999975
 30
0.0
 11
113.0
 21
271.9999749999999
 31
0.0
  0
LINE
  5
15C
330
1E
100
AcDbEntity
  8
0
100
AcDbLine
 10
155.0
 20
236.999975
 30
0.0
 11
155.0
 21
271.9999749999999
 31
0.0
  0
LINE
  5
15D
330
1E
100
AcDbEntity
  8
0
100
AcDbLine
 10
55.0
 20
236.999975
 30
0.0
 11
55.0
 21
271.9999749999999
 31
0.0
  0
LINE
  5
15E
330
1E
100
AcDbEntity
  8
0
100
AcDbLine
 10
13.0
 20
236.999975
 30
0.0
 11
13.0
 21
271.9999749999999
 31
0.0
  0
LINE
  5
15F
330
1E
100
AcDbEntity
  8
0
100
AcDbLine
 10
165.0
 20
236.999975
 30
0.0
 11
166.1999999999999
 21
236.999975
 31
0.0
  0
LINE
  5
160
330
1E
100
AcDbEntity
  8
0
100
AcDbLine
 10
163.4999999999999
 20
236.999975
 30
0.0
 11
165.0
 21
236.999975
 31
0.0
  0
LINE
  5
161
330
1E
100
AcDbEntity
  8
0
100
AcDbLine
 10
162.0
 20
236.999975
 30
0.0
 11
163.4999999999999
 21
236.999975
 31
0.0
  0
LINE
  5
162
330
1E
100
AcDbEntity
  8
0
100
AcDbLine
 10
84.0
 20
236.999975
 30
0.0
 11
162.0
 21
236.999975
 31
0.0
  0
LINE
  5
163
330
1E
100
AcDbEntity
  8
0
100
AcDbLine
 10
166.1999999999999
 20
236.999975
 30
0.0
 11
167.1999999999998
 21
236.999975
 31
0.0
  0
LINE
  5
164
330
1E
100
AcDbEntity
  8
0
100
AcDbLine
 10
11.0
 20
279.9999749999999
 30
0.0
 11
11.6489822213683
 21
280.7030390731489
 31
0.0
  0
LINE
  5
165
330
1E
100
AcDbEntity
  8
0
100
AcDbLine
 10
11.0
 20
279.9999749999999
 30
0.0
 11
11.828
 21
279.9999749999999
 31
0.0
  0
LINE
  5
166
330
1E
100
AcDbEntity
  8
0
100
AcDbLine
 10
11.0
 20
279.9999749999999
 30
0.0
 11
11.0
 21
271.9999749999999
 31
0.0
  0
LINE
  5
167
330
1E
100
AcDbEntity
  8
0
100
AcDbLine
 10
13.75599999999999
 20
271.9999749999999
 30
0.0
 11
15.772
 21
271.9999749999999
 31
0.0
  0
LINE
  5
168
330
1E
100
AcDbEntity
  8
0
100
AcDbLine
 10
13.0
 20
271.9999749999999
 30
0.0
 11
13.0
 21
236.999975
 31
0.0
  0
LINE
  5
169
330
1E
100
AcDbEntity
  8
0
100
AcDbLine
 10
13.0
 20
271.9999749999999
 30
0.0
 11
13.75599999999999
 21
271.9999749999999
 31
0.0
  0
LINE
  5
16A
330
1E
100
AcDbEntity
  8
0
100
AcDbLine
 10
19.132
 20
271.9999749999999
 30
0.0
 11
23.584
 21
271.9999749999999
 31
0.0
  0
LINE
  5
16B
330
1E
100
AcDbEntity
  8
0
100
AcDbLine
 10
15.772
 20
271.9999749999999
 30
0.0
 11
19.132
 21
271.9999749999999
 31
0.0
  0
LINE
  5
16C
330
1E
100
AcDbEntity
  8
0
100
AcDbLine
 10
39.888
 20
271.9999749999999
 30
0.0
 11
45.40799999999999
 21
271.9999749999999
 31
0.0
  0
LINE
  5
16D
330
1E
100
AcDbEntity
  8
0
100
AcDbLine
 10
34.0
 20
271.9999749999999
 30
0.0
 11
39.37599999999999
 21
271.9999749999999
 31
0.0
  0
LINE
  5
16E
330
1E
100
AcDbEntity
  8
0
100
AcDbLine
 10
34.0
 20
271.9999749999999
 30
0.0
 11
39.888
 21
271.9999749999999
 31
0.0
  0
LINE
  5
16F
330
1E
100
AcDbEntity
  8
0
100
AcDbLine
 10
39.37599999999999
 20
271.9999749999999
 30
0.0
 11
44.416
 21
271.9999749999999
 31
0.0
  0
LINE
  5
170
330
1E
100
AcDbEntity
  8
0
100
AcDbLine
 10
45.40799999999999
 20
271.9999749999999
 30
0.0
 11
50.284
 21
271.9999749999999
 31
0.0
  0
LINE
  5
171
330
1E
100
AcDbEntity
  8
0
100
AcDbLine
 10
50.284
 20
271.9999749999999
 30
0.0
 11
53.96399999999999
 21
271.9999749999999
 31
0.0
  0
LINE
  5
172
330
1E
100
AcDbEntity
  8
0
100
AcDbLine
 10
44.416
 20
271.9999749999999
 30
0.0
 11
48.868
 21
271.9999749999999
 31
0.0
  0
LINE
  5
173
330
1E
100
AcDbEntity
  8
0
100
AcDbLine
 10
48.868
 20
271.9999749999999
 30
0.0
 11
52.228
 21
271.9999749999999
 31
0.0
  0
LINE
  5
174
330
1E
100
AcDbEntity
  8
0
100
AcDbLine
 10
52.228
 20
271.9999749999999
 30
0.0
 11
54.244
 21
271.9999749999999
 31
0.0
  0
LINE
  5
175
330
1E
100
AcDbEntity
  8
0
100
AcDbLine
 10
28.624
 20
271.9999749999999
 30
0.0
 11
34.0
 21
271.9999749999999
 31
0.0
  0
LINE
  5
176
330
1E
100
AcDbEntity
  8
0
100
AcDbLine
 10
23.584
 20
271.9999749999999
 30
0.0
 11
28.624
 21
271.9999749999999
 31
0.0
  0
LINE
  5
177
330
1E
100
AcDbEntity
  8
0
100
AcDbLine
 10
28.11199999999999
 20
271.9999749999999
 30
0.0
 11
34.0
 21
271.9999749999999
 31
0.0
  0
LINE
  5
178
330
1E
100
AcDbEntity
  8
0
100
AcDbLine
 10
22.59199999999999
 20
271.9999749999999
 30
0.0
 11
28.11199999999999
 21
271.9999749999999
 31
0.0
  0
LINE
  5
179
330
1E
100
AcDbEntity
  8
0
100
AcDbLine
 10
17.71599999999998
 20
271.9999749999999
 30
0.0
 11
22.59199999999999
 21
271.9999749999999
 31
0.0
  0
LINE
  5
17A
330
1E
100
AcDbEntity
  8
0
100
AcDbLine
 10
14.03599999999999
 20
271.9999749999999
 30
0.0
 11
17.71599999999998
 21
271.9999749999999
 31
0.0
  0
LINE
  5
17B
330
1E
100
AcDbEntity
  8
0
100
AcDbLine
 10
11.828
 20
279.9999749999999
 30
0.0
 11
14.03599999999999
 21
279.9999749999999
 31
0.0
  0
LINE
  5
17C
330
1E
100
AcDbEntity
  8
0
100
AcDbLine
 10
11.828
 20
271.9999749999999
 30
0.0
 11
13.0
 21
271.9999749999999
 31
0.0
  0
LINE
  5
17D
330
1E
100
AcDbEntity
  8
0
100
AcDbLine
 10
11.828
 20
271.9999749999999
 30
0.0
 11
14.03599999999999
 21
271.9999749999999
 31
0.0
  0
LINE
  5
17E
330
1E
100
AcDbEntity
  8
0
100
AcDbLine
 10
11.0
 20
271.9999749999999
 30
0.0
 11
11.0
 21
279.9999749999999
 31
0.0
  0
LINE
  5
17F
330
1E
100
AcDbEntity
  8
0
100
AcDbLine
 10
11.0
 20
271.9999749999999
 30
0.0
 11
11.828
 21
271.9999749999999
 31
0.0
  0
LINE
  5
181
330
1E
100
AcDbEntity
  8
0
100
AcDbLine
 10
53.96399999999999
 20
271.9999749999999
 30
0.0
 11
56.172
 21
271.9999749999999
 31
0.0
  0
LINE
  5
182
330
1E
100
AcDbEntity
  8
0
100
AcDbLine
 10
56.172
 20
271.9999749999999
 30
0.0
 11
57.0
 21
271.9999749999999
 31
0.0
  0
LINE
  5
183
330
1E
100
AcDbEntity
  8
0
100
AcDbLine
 10
55.0
 20
271.9999749999999
 30
0.0
 11
55.0
 21
236.999975
 31
0.0
  0
LINE
  5
184
330
1E
100
AcDbEntity
  8
0
100
AcDbLine
 10
55.0
 20
271.9999749999999
 30
0.0
 11
56.172
 21
271.9999749999999
 31
0.0
  0
LINE
  5
185
330
1E
100
AcDbEntity
  8
0
100
AcDbLine
 10
54.244
 20
271.9999749999999
 30
0.0
 11
55.0
 21
271.9999749999999
 31
0.0
  0
LINE
  5
186
330
1E
100
AcDbEntity
  8
0
100
AcDbLine
 10
53.3076923076923
 20
283.9999749999999
 30
0.0
 11
114.692307692308
 21
283.9999749999999
 31
0.0
  0
LINE
  5
187
330
1E
100
AcDbEntity
  8
0
100
AcDbLine
 10
53.3076923076923
 20
283.9999749999999
 30
0.0
 11
114.692307692308
 21
283.9999749999999
 31
0.0
  0
LINE
  5
188
330
1E
100
AcDbEntity
  8
0
100
AcDbLine
 10
53.3076923076923
 20
283.9999749999999
 30
0.0
 11
114.692307692308
 21
283.9999749999999
 31
0.0
  0
LINE
  5
189
330
1E
100
AcDbEntity
  8
0
100
AcDbLine
 10
14.03599999999999
 20
279.9999749999999
 30
0.0
 11
56.172
 21
279.9999749999999
 31
0.0
  0
LINE
  5
18A
330
1E
100
AcDbEntity
  8
0
100
AcDbLine
 10
111.8279999999999
 20
271.9999749999999
 30
0.0
 11
114.036
 21
271.9999749999999
 31
0.0
  0
LINE
  5
18B
330
1E
100
AcDbEntity
  8
0
100
AcDbLine
 10
111.8279999999999
 20
271.9999749999999
 30
0.0
 11
113.0
 21
271.9999749999999
 31
0.0
  0
LINE
  5
18C
330
1E
100
AcDbEntity
  8
0
100
AcDbLine
 10
111.0
 20
271.9999749999999
 30
0.0
 11
111.0
 21
279.9999749999999
 31
0.0
  0
LINE
  5
18D
330
1E
100
AcDbEntity
  8
0
100
AcDbLine
 10
111.0
 20
271.9999749999999
 30
0.0
 11
111.8279999999999
 21
271.9999749999999
 31
0.0
  0
LINE
  5
18E
330
1E
100
AcDbEntity
  8
0
100
AcDbLine
 10
114.036
 20
271.9999749999999
 30
0.0
 11
117.716
 21
271.9999749999999
 31
0.0
  0
LINE
  5
18F
330
1E
100
AcDbEntity
  8
0
100
AcDbLine
 10
117.716
 20
271.9999749999999
 30
0.0
 11
122.592
 21
271.9999749999999
 31
0.0
  0
LINE
  5
190
330
1E
100
AcDbEntity
  8
0
100
AcDbLine
 10
119.132
 20
271.9999749999999
 30
0.0
 11
123.584
 21
271.9999749999999
 31
0.0
  0
LINE
  5
191
330
1E
100
AcDbEntity
  8
0
100
AcDbLine
 10
115.772
 20
271.9999749999999
 30
0.0
 11
119.132
 21
271.9999749999999
 31
0.0
  0
LINE
  5
192
330
1E
100
AcDbEntity
  8
0
100
AcDbLine
 10
113.756
 20
271.9999749999999
 30
0.0
 11
115.772
 21
271.9999749999999
 31
0.0
  0
LINE
  5
193
330
1E
100
AcDbEntity
  8
0
100
AcDbLine
 10
113.0
 20
271.9999749999999
 30
0.0
 11
113.756
 21
271.9999749999999
 31
0.0
  0
LINE
  5
194
330
1E
100
AcDbEntity
  8
0
100
AcDbLine
 10
113.0
 20
271.9999749999999
 30
0.0
 11
113.0
 21
236.999975
 31
0.0
  0
LINE
  5
196
330
1E
100
AcDbEntity
  8
0
100
AcDbLine
 10
111.0
 20
279.9999749999999
 30
0.0
 11
114.692307692308
 21
283.9999749999999
 31
0.0
  0
LINE
  5
198
330
1E
100
AcDbEntity
  8
0
100
AcDbLine
 10
111.0
 20
279.9999749999999
 30
0.0
 11
111.0
 21
271.9999749999999
 31
0.0
  0
LINE
  5
199
330
1E
100
AcDbEntity
  8
0
100
AcDbLine
 10
57.0
 20
279.9999749999999
 30
0.0
 11
57.0
 21
271.9999749999999
 31
0.0
  0
LINE
  5
19A
330
1E
100
AcDbEntity
  8
0
100
AcDbLine
 10
57.0
 20
271.9999749999999
 30
0.0
 11
57.0
 21
279.9999749999999
 31
0.0
  0
LINE
  5
19B
330
1E
100
AcDbEntity
  8
0
100
AcDbLine
 10
56.172
 20
279.9999749999999
 30
0.0
 11
57.0
 21
279.9999749999999
 31
0.0
  0
LINE
  5
19C
330
1E
100
AcDbEntity
  8
0
100
AcDbLine
 10
53.3076923076923
 20
283.9999749999999
 30
0.0
 11
57.0
 21
279.9999749999999
 31
0.0
  0
LINE
  5
19D
330
1E
100
AcDbEntity
  8
0
100
AcDbLine
 10
53.3076923076923
 20
283.9999749999999
 30
0.0
 11
114.692307692308
 21
283.9999749999999
 31
0.0
  0
LINE
  5
1A8
330
1E
100
AcDbEntity
  8
0
100
AcDbLine
 10
11.208
 20
308.9999749999999
 30
0.0
 11
13.0
 21
308.9999749999999
 31
0.0
  0
LINE
  5
1A9
330
1E
100
AcDbEntity
  8
0
100
AcDbLine
 10
9.527999999999996
 20
308.9999749999999
 30
0.0
 11
11.208
 21
308.9999749999999
 31
0.0
  0
LINE
  5
1AA
330
1E
100
AcDbEntity
  8
0
100
AcDbLine
 10
8.044
 20
308.9999749999999
 30
0.0
 11
9.527999999999996
 21
308.9999749999999
 31
0.0
  0
LINE
  5
1AF
330
1E
100
AcDbEntity
  8
0
100
AcDbLine
 10
13.0
 20
308.9999749999999
 30
0.0
 11
14.792
 21
308.9999749999999
 31
0.0
  0
LINE
  5
1B6
330
1E
100
AcDbEntity
  8
0
100
AcDbLine
 10
14.792
 20
308.9999749999999
 30
0.0
 11
16.472
 21
308.9999749999999
 31
0.0
  0
LINE
  5
1B7
330
1E
100
AcDbEntity
  8
0
100
AcDbLine
 10
16.472
 20
308.9999749999999
 30
0.0
 11
17.956
 21
308.9999749999999
 31
0.0
  0
LINE
  5
1BA
330
1E
100
AcDbEntity
  8
0
100
AcDbLine
 10
24.0
 20
308.9999749999999
 30
0.0
 11
134.0
 21
308.9999749999999
 31
0.0
  0
LINE
  5
1BB
330
1E
100
AcDbEntity
  8
0
100
AcDbLine
 10
24.0
 20
308.9999749999999
 30
0.0
 11
134.0
 21
308.9999749999999
 31
0.0
  0
LINE
  5
1BD
330
1E
100
AcDbEntity
  8
0
100
AcDbLine
 10
17.956
 20
308.9999749999999
 30
0.0
 11
19.076
 21
308.9999749999999
 31
0.0
  0
LINE
  5
1BE
330
1E
100
AcDbEntity
  8
0
100
AcDbLine
 10
19.076
 20
308.9999749999999
 30
0.0
 11
24.0
 21
308.9999749999999
 31
0.0
  0
LINE
  5
1C4
330
1E
100
AcDbEntity
  8
0
100
AcDbLine
 10
122.592
 20
271.9999749999999
 30
0.0
 11
128.112
 21
271.9999749999999
 31
0.0
  0
LINE
  5
1C5
330
1E
100
AcDbEntity
  8
0
100
AcDbLine
 10
123.584
 20
271.9999749999999
 30
0.0
 11
128.624
 21
271.9999749999999
 31
0.0
  0
LINE
  5
1C6
330
1E
100
AcDbEntity
  8
0
100
AcDbLine
 10
128.112
 20
271.9999749999999
 30
0.0
 11
134.0
 21
271.9999749999999
 31
0.0
  0
LINE
  5
1C7
330
1E
100
AcDbEntity
  8
0
100
AcDbLine
 10
128.624
 20
271.9999749999999
 30
0.0
 11
134.0
 21
271.9999749999999
 31
0.0
  0
LINE
  5
1C8
330
1E
100
AcDbEntity
  8
0
100
AcDbLine
 10
134.0
 20
271.9999749999999
 30
0.0
 11
139.376
 21
271.9999749999999
 31
0.0
  0
LINE
  5
1C9
330
1E
100
AcDbEntity
  8
0
100
AcDbLine
 10
134.0
 20
271.9999749999999
 30
0.0
 11
139.888
 21
271.9999749999999
 31
0.0
  0
LINE
  5
1CA
330
1E
100
AcDbEntity
  8
0
100
AcDbLine
 10
134.0
 20
279.9999749999999
 30
0.0
 11
137.328
 21
280.4679749999999
 31
0.0
  0
LINE
  5
1CB
330
1E
100
AcDbEntity
  8
0
100
AcDbLine
 10
139.888
 20
271.9999749999999
 30
0.0
 11
145.4079999999999
 21
271.9999749999999
 31
0.0
  0
LINE
  5
1CC
330
1E
100
AcDbEntity
  8
0
100
AcDbLine
 10
145.4079999999999
 20
271.9999749999999
 30
0.0
 11
150.2839999999999
 21
271.9999749999999
 31
0.0
  0
LINE
  5
1CD
330
1E
100
AcDbEntity
  8
0
100
AcDbLine
 10
139.376
 20
271.9999749999999
 30
0.0
 11
144.4159999999999
 21
271.9999749999999
 31
0.0
  0
LINE
  5
1CE
330
1E
100
AcDbEntity
  8
0
100
AcDbLine
 10
144.4159999999999
 20
271.9999749999999
 30
0.0
 11
148.868
 21
271.9999749999999
 31
0.0
  0
LINE
  5
1CF
330
1E
100
AcDbEntity
  8
0
100
AcDbLine
 10
150.2839999999999
 20
271.9999749999999
 30
0.0
 11
153.964
 21
271.9999749999999
 31
0.0
  0
LINE
  5
1D0
330
1E
100
AcDbEntity
  8
0
100
AcDbLine
 10
153.964
 20
271.9999749999999
 30
0.0
 11
156.172
 21
271.9999749999999
 31
0.0
  0
LINE
  5
1D1
330
1E
100
AcDbEntity
  8
0
100
AcDbLine
 10
148.868
 20
271.9999749999999
 30
0.0
 11
152.2279999999998
 21
271.9999749999999
 31
0.0
  0
LINE
  5
1D2
330
1E
100
AcDbEntity
  8
0
100
AcDbLine
 10
152.2279999999998
 20
271.9999749999999
 30
0.0
 11
154.244
 21
271.9999749999999
 31
0.0
  0
LINE
  5
1D3
330
1E
100
AcDbEntity
  8
0
100
AcDbLine
 10
157.0
 20
271.9999749999999
 30
0.0
 11
157.0
 21
279.9999749999999
 31
0.0
  0
LINE
  5
1D4
330
1E
100
AcDbEntity
  8
0
100
AcDbLine
 10
156.172
 20
271.9999749999999
 30
0.0
 11
157.0
 21
271.9999749999999
 31
0.0
  0
LINE
  5
1D5
330
1E
100
AcDbEntity
  8
0
100
AcDbLine
 10
154.244
 20
271.9999749999999
 30
0.0
 11
155.0
 21
271.9999749999999
 31
0.0
  0
LINE
  5
1D6
330
1E
100
AcDbEntity
  8
0
100
AcDbLine
 10
157.0
 20
279.9999749999999
 30
0.0
 11
157.0
 21
271.9999749999999
 31
0.0
  0
LINE
  5
1D7
330
1E
100
AcDbEntity
  8
0
100
AcDbLine
 10
155.0
 20
271.9999749999999
 30
0.0
 11
155.0
 21
236.999975
 31
0.0
  0
LINE
  5
1D8
330
1E
100
AcDbEntity
  8
0
100
AcDbLine
 10
155.0
 20
271.9999749999999
 30
0.0
 11
156.172
 21
271.9999749999999
 31
0.0
  0
LINE
  5
1DA
330
1E
100
AcDbEntity
  8
0
100
AcDbLine
 10
157.0
 20
279.9999749999999
 30
0.0
 11
164.0
 21
279.9999749999999
 31
0.0
  0
LINE
  5
1DB
330
1E
100
AcDbEntity
  8
0
100
AcDbLine
 10
157.0
 20
279.9999749999999
 30
0.0
 11
157.0
 21
279.9999749999999
 31
0.0
  0
LINE
  5
1DC
330
1E
100
AcDbEntity
  8
0
100
AcDbLine
 10
164.0
 20
279.9999749999999
 30
0.0
 11
164.0
 21
280.4679749999999
 31
0.0
  0
LINE
  5
1DD
330
1E
100
AcDbEntity
  8
0
100
AcDbLine
 10
164.0
 20
280.4679749999999
 30
0.0
 11
164.0
 21
281.7159749999999
 31
0.0
  0
LINE
  5
1DE
330
1E
100
AcDbEntity
  8
0
100
AcDbLine
 10
164.0
 20
280.4679749999999
 30
0.0
 11
164.0
 21
279.9999749999999
 31
0.0
  0
LINE
  5
1DF
330
1E
100
AcDbEntity
  8
0
100
AcDbLine
 10
137.328
 20
280.4679749999999
 30
0.0
 11
140.4479999999999
 21
281.7159749999999
 31
0.0
  0
LINE
  5
1E0
330
1E
100
AcDbEntity
  8
0
100
AcDbLine
 10
134.0
 20
281.857075
 30
0.0
 11
136.8529999999998
 21
282.2582749999999
 31
0.0
  0
LINE
  5
1E1
330
1E
100
AcDbEntity
  8
0
100
AcDbLine
 10
136.8529999999998
 20
282.2582749999999
 30
0.0
 11
139.527
 21
283.327975
 31
0.0
  0
LINE
  5
1E2
330
1E
100
AcDbEntity
  8
0
100
AcDbLine
 10
164.0
 20
281.7159749999999
 30
0.0
 11
164.0
 21
283.7959749999999
 31
0.0
  0
LINE
  5
1E3
330
1E
100
AcDbEntity
  8
0
100
AcDbLine
 10
164.0
 20
281.7159749999999
 30
0.0
 11
164.0
 21
280.4679749999999
 31
0.0
  0
LINE
  5
1E4
330
1E
100
AcDbEntity
  8
0
100
AcDbLine
 10
140.4479999999999
 20
281.7159749999999
 30
0.0
 11
143.204
 21
283.7959749999999
 31
0.0
  0
LINE
  5
1E5
330
1E
100
AcDbEntity
  8
0
100
AcDbLine
 10
139.527
 20
283.327975
 30
0.0
 11
141.889
 21
285.1108749999999
 31
0.0
  0
LINE
  5
1E6
330
1E
100
AcDbEntity
  8
0
100
AcDbLine
 10
164.0
 20
283.7959749999999
 30
0.0
 11
164.0
 21
286.5519749999999
 31
0.0
  0
LINE
  5
1E7
330
1E
100
AcDbEntity
  8
0
100
AcDbLine
 10
164.0
 20
283.7959749999999
 30
0.0
 11
164.0
 21
281.7159749999999
 31
0.0
  0
LINE
  5
1E8
330
1E
100
AcDbEntity
  8
0
100
AcDbLine
 10
143.204
 20
283.7959749999999
 30
0.0
 11
145.2839999999999
 21
286.5519749999999
 31
0.0
  0
LINE
  5
1E9
330
1E
100
AcDbEntity
  8
0
100
AcDbLine
 10
131.147
 20
282.2582749999999
 30
0.0
 11
134.0
 21
281.857075
 31
0.0
  0
LINE
  5
1EA
330
1E
100
AcDbEntity
  8
0
100
AcDbLine
 10
128.4729999999999
 20
283.327975
 30
0.0
 11
131.147
 21
282.2582749999999
 31
0.0
  0
LINE
  5
1EB
330
1E
100
AcDbEntity
  8
0
100
AcDbLine
 10
130.672
 20
280.4679749999999
 30
0.0
 11
134.0
 21
279.9999749999999
 31
0.0
  0
LINE
  5
1EC
330
1E
100
AcDbEntity
  8
0
100
AcDbLine
 10
127.5519999999999
 20
281.7159749999999
 30
0.0
 11
130.672
 21
280.4679749999999
 31
0.0
  0
LINE
  5
1ED
330
1E
100
AcDbEntity
  8
0
100
AcDbLine
 10
141.889
 20
285.1108749999999
 30
0.0
 11
143.672
 21
287.4730749999999
 31
0.0
  0
LINE
  5
1EE
330
1E
100
AcDbEntity
  8
0
100
AcDbLine
 10
143.672
 20
287.4730749999999
 30
0.0
 11
144.742
 21
290.1473749999999
 31
0.0
  0
LINE
  5
1EF
330
1E
100
AcDbEntity
  8
0
100
AcDbLine
 10
145.2839999999999
 20
286.5519749999999
 30
0.0
 11
146.532
 21
289.6719749999999
 31
0.0
  0
LINE
  5
1F0
330
1E
100
AcDbEntity
  8
0
100
AcDbLine
 10
164.0
 20
286.5519749999999
 30
0.0
 11
164.0
 21
289.6719749999999
 31
0.0
  0
LINE
  5
1F1
330
1E
100
AcDbEntity
  8
0
100
AcDbLine
 10
164.0
 20
286.5519749999999
 30
0.0
 11
164.0
 21
283.7959749999999
 31
0.0
  0
LINE
  5
1F2
330
1E
100
AcDbEntity
  8
0
100
AcDbLine
 10
164.0
 20
289.6719749999999
 30
0.0
 11
164.0
 21
292.9999749999999
 31
0.0
  0
LINE
  5
1F3
330
1E
100
AcDbEntity
  8
0
100
AcDbLine
 10
164.0
 20
289.6719749999999
 30
0.0
 11
164.0
 21
286.5519749999999
 31
0.0
  0
LINE
  5
1F4
330
1E
100
AcDbEntity
  8
0
100
AcDbLine
 10
146.532
 20
289.6719749999999
 30
0.0
 11
147.0
 21
292.9999749999999
 31
0.0
  0
LINE
  5
1F5
330
1E
100
AcDbEntity
  8
0
100
AcDbLine
 10
126.111
 20
285.1108749999999
 30
0.0
 11
128.4729999999999
 21
283.327975
 31
0.0
  0
LINE
  5
1F6
330
1E
100
AcDbEntity
  8
0
100
AcDbLine
 10
124.3279999999999
 20
287.4730749999999
 30
0.0
 11
126.111
 21
285.1108749999999
 31
0.0
  0
LINE
  5
1F7
330
1E
100
AcDbEntity
  8
0
100
AcDbLine
 10
124.796
 20
283.7959749999999
 30
0.0
 11
127.5519999999999
 21
281.7159749999999
 31
0.0
  0
LINE
  5
1F8
330
1E
100
AcDbEntity
  8
0
100
AcDbLine
 10
122.716
 20
286.5519749999999
 30
0.0
 11
124.796
 21
283.7959749999999
 31
0.0
  0
LINE
  5
1F9
330
1E
100
AcDbEntity
  8
0
100
AcDbLine
 10
122.716
 20
299.447975
 30
0.0
 11
124.796
 21
302.203975
 31
0.0
  0
LINE
  5
1FA
330
1E
100
AcDbEntity
  8
0
100
AcDbLine
 10
121.4679999999999
 20
296.327975
 30
0.0
 11
122.716
 21
299.447975
 31
0.0
  0
LINE
  5
1FB
330
1E
100
AcDbEntity
  8
0
100
AcDbLine
 10
144.742
 20
290.1473749999999
 30
0.0
 11
145.143
 21
292.9999749999999
 31
0.0
  0
LINE
  5
1FC
330
1E
100
AcDbEntity
  8
0
100
AcDbLine
 10
124.3279999999999
 20
298.5268749999999
 30
0.0
 11
126.111
 21
300.8890749999999
 31
0.0
  0
LINE
  5
1FD
330
1E
100
AcDbEntity
  8
0
100
AcDbLine
 10
123.258
 20
295.852575
 30
0.0
 11
124.3279999999999
 21
298.5268749999999
 31
0.0
  0
LINE
  5
1FE
330
1E
100
AcDbEntity
  8
0
100
AcDbLine
 10
143.672
 20
298.5268749999999
 30
0.0
 11
144.742
 21
295.852575
 31
0.0
  0
LINE
  5
1FF
330
1E
100
AcDbEntity
  8
0
100
AcDbLine
 10
144.742
 20
295.852575
 30
0.0
 11
145.143
 21
292.9999749999999
 31
0.0
  0
LINE
  5
200
330
1E
100
AcDbEntity
  8
0
100
AcDbLine
 10
139.527
 20
302.6719749999999
 30
0.0
 11
141.889
 21
300.8890749999999
 31
0.0
  0
LINE
  5
201
330
1E
100
AcDbEntity
  8
0
100
AcDbLine
 10
141.889
 20
300.8890749999999
 30
0.0
 11
143.672
 21
298.5268749999999
 31
0.0
  0
LINE
  5
202
330
1E
100
AcDbEntity
  8
0
100
AcDbLine
 10
143.204
 20
302.203975
 30
0.0
 11
145.2839999999999
 21
299.447975
 31
0.0
  0
LINE
  5
203
330
1E
100
AcDbEntity
  8
0
100
AcDbLine
 10
145.2839999999999
 20
299.447975
 30
0.0
 11
146.532
 21
296.327975
 31
0.0
  0
LINE
  5
204
330
1E
100
AcDbEntity
  8
0
100
AcDbLine
 10
164.0
 20
302.203975
 30
0.0
 11
164.0
 21
304.283975
 31
0.0
  0
LINE
  5
205
330
1E
100
AcDbEntity
  8
0
100
AcDbLine
 10
164.0
 20
302.203975
 30
0.0
 11
164.0
 21
299.447975
 31
0.0
  0
LINE
  5
206
330
1E
100
AcDbEntity
  8
0
100
AcDbLine
 10
164.0
 20
299.447975
 30
0.0
 11
164.0
 21
302.203975
 31
0.0
  0
LINE
  5
207
330
1E
100
AcDbEntity
  8
0
100
AcDbLine
 10
164.0
 20
299.447975
 30
0.0
 11
164.0
 21
296.327975
 31
0.0
  0
LINE
  5
208
330
1E
100
AcDbEntity
  8
0
100
AcDbLine
 10
164.0
 20
296.327975
 30
0.0
 11
164.0
 21
299.447975
 31
0.0
  0
LINE
  5
209
330
1E
100
AcDbEntity
  8
0
100
AcDbLine
 10
164.0
 20
296.327975
 30
0.0
 11
164.0
 21
292.9999749999999
 31
0.0
  0
LINE
  5
20A
330
1E
100
AcDbEntity
  8
0
100
AcDbLine
 10
164.0
 20
292.9999749999999
 30
0.0
 11
164.0
 21
289.6719749999999
 31
0.0
  0
LINE
  5
20B
330
1E
100
AcDbEntity
  8
0
100
AcDbLine
 10
164.0
 20
292.9999749999999
 30
0.0
 11
164.0
 21
296.327975
 31
0.0
  0
LINE
  5
20C
330
1E
100
AcDbEntity
  8
0
100
AcDbLine
 10
146.532
 20
296.327975
 30
0.0
 11
147.0
 21
292.9999749999999
 31
0.0
  0
LINE
  5
20E
330
1E
100
AcDbEntity
  8
0
100
AcDbLine
 10
134.0
 20
304.142875
 30
0.0
 11
136.8529999999998
 21
303.7416749999999
 31
0.0
  0
LINE
  5
22A
330
1E
100
AcDbEntity
  8
0
100
AcDbLine
 10
164.0
 20
304.283975
 30
0.0
 11
164.0
 21
305.5319749999999
 31
0.0
  0
LINE
  5
22B
330
1E
100
AcDbEntity
  8
0
100
AcDbLine
 10
164.0
 20
304.283975
 30
0.0
 11
164.0
 21
302.203975
 31
0.0
  0
LINE
  5
22C
330
1E
100
AcDbEntity
  8
0
100
AcDbLine
 10
136.8529999999998
 20
303.7416749999999
 30
0.0
 11
139.527
 21
302.6719749999999
 31
0.0
  0
LINE
  5
22D
330
1E
100
AcDbEntity
  8
0
100
AcDbLine
 10
140.4479999999999
 20
304.283975
 30
0.0
 11
143.204
 21
302.203975
 31
0.0
  0
LINE
  5
22E
330
1E
100
AcDbEntity
  8
0
100
AcDbLine
 10
131.147
 20
303.7416749999999
 30
0.0
 11
134.0
 21
304.142875
 31
0.0
  0
LINE
  5
22F
330
1E
100
AcDbEntity
  8
0
100
AcDbLine
 10
128.4729999999999
 20
302.6719749999999
 30
0.0
 11
131.147
 21
303.7416749999999
 31
0.0
  0
LINE
  5
230
330
1E
100
AcDbEntity
  8
0
100
AcDbLine
 10
126.111
 20
300.8890749999999
 30
0.0
 11
128.4729999999999
 21
302.6719749999999
 31
0.0
  0
LINE
  5
231
330
1E
100
AcDbEntity
  8
0
100
AcDbLine
 10
164.0
 20
305.5319749999999
 30
0.0
 11
164.0
 21
305.999975
 31
0.0
  0
LINE
  5
232
330
1E
100
AcDbEntity
  8
0
100
AcDbLine
 10
164.0
 20
305.5319749999999
 30
0.0
 11
164.0
 21
304.283975
 31
0.0
  0
LINE
  5
235
330
1E
100
AcDbEntity
  8
0
100
AcDbLine
 10
134.0
 20
308.9999749999999
 30
0.0
 11
147.0
 21
308.9999749999999
 31
0.0
  0
LINE
  5
236
330
1E
100
AcDbEntity
  8
0
100
AcDbLine
 10
164.0
 20
305.999975
 30
0.0
 11
164.0
 21
305.5319749999999
 31
0.0
  0
LINE
  5
237
330
1E
100
AcDbEntity
  8
0
100
AcDbLine
 10
155.0
 20
308.9999749999999
 30
0.0
 11
156.7919999999999
 21
308.9999749999999
 31
0.0
  0
LINE
  5
238
330
1E
100
AcDbEntity
  8
0
100
AcDbLine
 10
156.7919999999999
 20
308.9999749999999
 30
0.0
 11
158.472
 21
308.9999749999999
 31
0.0
  0
LINE
  5
239
330
1E
100
AcDbEntity
  8
0
100
AcDbLine
 10
158.472
 20
308.9999749999999
 30
0.0
 11
159.956
 21
308.9999749999999
 31
0.0
  0
LINE
  5
23A
330
1E
100
AcDbEntity
  8
0
100
AcDbLine
 10
159.956
 20
308.9999749999999
 30
0.0
 11
161.0759999999999
 21
308.9999749999999
 31
0.0
  0
LINE
  5
23B
330
1E
100
AcDbEntity
  8
0
100
AcDbLine
 10
161.0759999999999
 20
308.9999749999999
 30
0.0
 11
161.748
 21
308.9999749999999
 31
0.0
  0
LINE
  5
23C
330
1E
100
AcDbEntity
  8
0
100
AcDbLine
 10
161.748
 20
308.9999749999999
 30
0.0
 11
162.0
 21
308.9999749999999
 31
0.0
  0
LINE
  5
23D
330
1E
100
AcDbEntity
  8
0
100
AcDbLine
 10
153.208
 20
308.9999749999999
 30
0.0
 11
155.0
 21
308.9999749999999
 31
0.0
  0
LINE
  5
23E
330
1E
100
AcDbEntity
  8
0
100
AcDbLine
 10
151.5279999999999
 20
308.9999749999999
 30
0.0
 11
153.208
 21
308.9999749999999
 31
0.0
  0
LINE
  5
23F
330
1E
100
AcDbEntity
  8
0
100
AcDbLine
 10
150.0439999999999
 20
308.9999749999999
 30
0.0
 11
151.5279999999999
 21
308.9999749999999
 31
0.0
  0
LINE
  5
240
330
1E
100
AcDbEntity
  8
0
100
AcDbLine
 10
148.924
 20
308.9999749999999
 30
0.0
 11
150.0439999999999
 21
308.9999749999999
 31
0.0
  0
LINE
  5
242
330
1E
100
AcDbEntity
  8
0
100
AcDbLine
 10
147.0
 20
308.9999749999999
 30
0.0
 11
148.924
 21
308.9999749999999
 31
0.0
  0
LINE
  5
244
330
1E
100
AcDbEntity
  8
0
100
AcDbLine
 10
162.0
 20
305.999975
 30
0.0
 11
164.0
 21
305.999975
 31
0.0
  0
LINE
  5
245
330
1E
100
AcDbEntity
  8
0
100
AcDbLine
 10
134.0
 20
305.999975
 30
0.0
 11
137.328
 21
305.5319749999999
 31
0.0
  0
LINE
  5
247
330
1E
100
AcDbEntity
  8
0
100
AcDbLine
 10
137.328
 20
305.5319749999999
 30
0.0
 11
140.4479999999999
 21
304.283975
 31
0.0
  0
LINE
  5
248
330
1E
100
AcDbEntity
  8
0
100
AcDbLine
 10
130.672
 20
305.5319749999999
 30
0.0
 11
134.0
 21
305.999975
 31
0.0
  0
LINE
  5
249
330
1E
100
AcDbEntity
  8
0
100
AcDbLine
 10
127.5519999999999
 20
304.283975
 30
0.0
 11
130.672
 21
305.5319749999999
 31
0.0
  0
LINE
  5
24A
330
1E
100
AcDbEntity
  8
0
100
AcDbLine
 10
124.796
 20
302.203975
 30
0.0
 11
127.5519999999999
 21
304.283975
 31
0.0
  0
LINE
  5
24B
330
1E
100
AcDbEntity
  8
0
100
AcDbLine
 10
123.258
 20
290.1473749999999
 30
0.0
 11
124.3279999999999
 21
287.4730749999999
 31
0.0
  0
LINE
  5
24C
330
1E
100
AcDbEntity
  8
0
100
AcDbLine
 10
122.857
 20
292.9999749999999
 30
0.0
 11
123.258
 21
290.1473749999999
 31
0.0
  0
LINE
  5
24D
330
1E
100
AcDbEntity
  8
0
100
AcDbLine
 10
122.857
 20
292.9999749999999
 30
0.0
 11
123.258
 21
295.852575
 31
0.0
  0
LINE
  5
24E
330
1E
100
AcDbEntity
  8
0
100
AcDbLine
 10
121.4679999999999
 20
289.6719749999999
 30
0.0
 11
122.716
 21
286.5519749999999
 31
0.0
  0
LINE
  5
24F
330
1E
100
AcDbEntity
  8
0
100
AcDbLine
 10
121.0
 20
292.9999749999999
 30
0.0
 11
121.4679999999999
 21
289.6719749999999
 31
0.0
  0
LINE
  5
250
330
1E
100
AcDbEntity
  8
0
100
AcDbLine
 10
121.0
 20
292.9999749999999
 30
0.0
 11
121.4679999999999
 21
296.327975
 31
0.0
  0
LINE
  5
251
330
1E
100
AcDbEntity
  8
0
100
AcDbLine
 10
167.1999999999998
 20
236.999975
 30
0.0
 11
167.8
 21
236.999975
 31
0.0
  0
LINE
  5
252
330
1E
100
AcDbEntity
  8
0
100
AcDbLine
 10
167.8
 20
236.999975
 30
0.0
 11
168.0
 21
236.999975
 31
0.0
  0
LINE
  5
253
330
1E
100
AcDbEntity
  8
0
100
AcDbLine
 10
168.0
 20
230.999975
 30
0.0
 11
168.0
 21
236.999975
 31
0.0
  0
LINE
  5
254
330
1E
100
AcDbEntity
  8
0
100
AcDbLine
 10
168.0
 20
236.999975
 30
0.0
 11
168.0
 21
230.999975
 31
0.0
  0
LINE
  5
255
330
1E
100
AcDbEntity
  8
0
100
AcDbLine
 10
8.400000000000007
 20
229.999975
 30
0.0
 11
11.0
 21
229.999975
 31
0.0
  0
LINE
  5
256
330
1E
100
AcDbEntity
  8
0
100
AcDbLine
 10
7.4
 20
229.999975
 30
0.0
 11
8.400000000000007
 21
229.999975
 31
0.0
  0
LINE
  5
25B
330
1E
100
AcDbEntity
  8
0
100
AcDbLine
 10
167.0
 20
229.999975
 30
0.0
 11
167.6999999999999
 21
230.299975
 31
0.0
  0
LINE
  5
25C
330
1E
100
AcDbEntity
  8
0
100
AcDbLine
 10
162.0
 20
308.9999749999999
 30
0.0
 11
162.0
 21
305.999975
 31
0.0
  0
ENDSEC
  0
SECTION
  2
OBJECTS
  0
DICTIONARY
  5
C
330
0
100
AcDbDictionary
281
     1
  3
ACAD_GROUP
350
D
  3
ACAD_LAYOUT
350
19
  3
ACAD_MLINESTYLE
350
16
  3
ACAD_PLOTSETTINGS
350
18
  3
ACAD_PLOTSTYLENAME
350
E
  3
AcDbVariableDictionary
350
25D
  0
DICTIONARY
  5
D
102
{ACAD_REACTORS
330
C
102
}
330
C
100
AcDbDictionary
281
     1
  0
DICTIONARY
  5
19
102
{ACAD_REACTORS
330
C
102
}
330
C
100
AcDbDictionary
281
     1
  3
Layout1
350
1D
  3
Model
350
21
  0
DICTIONARY
  5
16
102
{ACAD_REACTORS
330
C
102
}
330
C
100
AcDbDictionary
281
     1
  3
Standard
350
17
  0
DICTIONARY
  5
18
102
{ACAD_REACTORS
330
C
102
}
330
C
100
AcDbDictionary
281
     1
  0
ACDBDICTIONARYWDFLT
  5
E
102
{ACAD_REACTORS
330
C
102
}
330
C
100
AcDbDictionary
281
     1
  3
Normal
350
F
100
AcDbDictionaryWithDefault
340
F
  0
DICTIONARY
  5
25D
102
{ACAD_REACTORS
330
C
102
}
330
C
100
AcDbDictionary
281
     1
  3
DIMASSOC
350
25E
  0
LAYOUT
  5
1D
102
{ACAD_REACTORS
330
19
102
}
330
19
100
AcDbPlotSettings
  1

  2
hp deskjet 980c series
  4

  6

 40
0.0
 41
0.0
 42
0.0
 43
0.0
 44
0.0
 45
0.0
 46
0.0
 47
0.0
 48
0.0
 49
0.0
140
0.0
141
0.0
142
1.0
143
1.0
 70
   688
 72
     0
 73
     0
 74
     5
  7

 75
    16
147
1.0
148
0.0
149
0.0
100
AcDbLayout
  1
Layout1
 70
     1
 71
     1
 10
0.0
 20
0.0
 11
12.0
 21
9.0
 12
0.0
 22
0.0
 32
0.0
 14
1.000000000000000E+20
 24
1.000000000000000E+20
 34
1.000000000000000E+20
 15
-1.000000000000000E+20
 25
-1.000000000000000E+20
 35
-1.000000000000000E+20
146
0.0
 13
0.0
 23
0.0
 33
0.0
 16
1.0
 26
0.0
 36
0.0
 17
0.0
 27
1.0
 37
0.0
 76
     0
330
1A
  0
LAYOUT
  5
21
102
{ACAD_REACTORS
330
19
102
}
330
19
100
AcDbPlotSettings
  1

  2
hp deskjet 980c series
  4

  6

 40
0.0
 41
0.0
 42
0.0
 43
0.0
 44
0.0
 45
0.0
 46
0.0
 47
0.0
 48
0.0
 49
0.0
140
0.0
141
0.0
142
1.0
143
1.0
 70
  1712
 72
     0
 73
     0
 74
     0
  7

 75
     0
147
1.0
148
0.0
149
0.0
100
AcDbLayout
  1
Model
 70
     1
 71
     0
 10
0.0
 20
0.0
 11
12.0
 21
9.0
 12
0.0
 22
0.0
 32
0.0
 14
0.0
 24
0.0
 34
0.0
 15
0.0
 25
0.0
 35
0.0
146
0.0
 13
0.0
 23
0.0
 33
0.0
 16
1.0
 26
0.0
 36
0.0
 17
0.0
 27
1.0
 37
0.0
 76
     0
330
1E
  0
MLINESTYLE
  5
17
102
{ACAD_REACTORS
330
16
102
}
330
16
100
AcDbMlineStyle
  2
STANDARD
 70
     0
  3

 62
   256
 51
90.0
 52
90.0
 71
     2
 49
0.5
 62
   256
  6
BYLAYER
 49
-0.5
 62
   256
  6
BYLAYER
  0
ACDBPLACEHOLDER
  5
F
102
{ACAD_REACTORS
330
E
102
}
330
E
  0
DICTIONARYVAR
  5
25E
102
{ACAD_REACTORS
330
25D
102
}
330
25D
100
DictionaryVariables
280
     0
  1
1
  0
ENDSEC
  0
EOF
