  0
SECTION
  2
HEADER
  9
$ACADVER
  1
AC1015
  9
$ACADMAINTVER
 70
    13
  9
$DWGCODEPAGE
  3
ANSI_1252
  9
$INSBASE
 10
0.0
 20
0.0
 30
0.0
  9
$EXTMIN
 10
0.0000000000000047
 20
-0.0000000000000697
 30
0.0
  9
$EXTMAX
 10
168.0
 20
117.0
 30
0.0
  9
$LIMMIN
 10
0.0
 20
0.0
  9
$LIMMAX
 10
12.0
 20
9.0
  9
$ORTHOMODE
 70
     0
  9
$REGENMODE
 70
     1
  9
$FILLMODE
 70
     1
  9
$QTEXTMODE
 70
     0
  9
$MIRRTEXT
 70
     1
  9
$LTSCALE
 40
1.0
  9
$ATTMODE
 70
     1
  9
$TEXTSIZE
 40
0.2
  9
$TRACEWID
 40
0.05
  9
$TEXTSTYLE
  7
Standard
  9
$CLAYER
  8
0
  9
$CELTYPE
  6
Continuous
  9
$CECOLOR
 62
   256
  9
$CELTSCALE
 40
1.0
  9
$DISPSILH
 70
     0
  9
$DIMSCALE
 40
1.0
  9
$DIMASZ
 40
0.18
  9
$DIMEXO
 40
0.0625
  9
$DIMDLI
 40
0.38
  9
$DIMRND
 40
0.0
  9
$DIMDLE
 40
0.0
  9
$DIMEXE
 40
0.18
  9
$DIMTP
 40
0.0
  9
$DIMTM
 40
0.0
  9
$DIMTXT
 40
0.18
  9
$DIMCEN
 40
0.09
  9
$DIMTSZ
 40
0.0
  9
$DIMTOL
 70
     0
  9
$DIMLIM
 70
     0
  9
$DIMTIH
 70
     1
  9
$DIMTOH
 70
     1
  9
$DIMSE1
 70
     0
  9
$DIMSE2
 70
     0
  9
$DIMTAD
 70
     0
  9
$DIMZIN
 70
     0
  9
$DIMBLK
  1

  9
$DIMASO
 70
     1
  9
$DIMSHO
 70
     1
  9
$DIMPOST
  1

  9
$DIMAPOST
  1

  9
$DIMALT
 70
     0
  9
$DIMALTD
 70
     2
  9
$DIMALTF
 40
25.4
  9
$DIMLFAC
 40
1.0
  9
$DIMTOFL
 70
     0
  9
$DIMTVP
 40
0.0
  9
$DIMTIX
 70
     0
  9
$DIMSOXD
 70
     0
  9
$DIMSAH
 70
     0
  9
$DIMBLK1
  1

  9
$DIMBLK2
  1

  9
$DIMSTYLE
  2
Standard
  9
$DIMCLRD
 70
     0
  9
$DIMCLRE
 70
     0
  9
$DIMCLRT
 70
     0
  9
$DIMTFAC
 40
1.0
  9
$DIMGAP
 40
0.09
  9
$DIMJUST
 70
     0
  9
$DIMSD1
 70
     0
  9
$DIMSD2
 70
     0
  9
$DIMTOLJ
 70
     1
  9
$DIMTZIN
 70
     0
  9
$DIMALTZ
 70
     0
  9
$DIMALTTZ
 70
     0
  9
$DIMUPT
 70
     0
  9
$DIMDEC
 70
     4
  9
$DIMTDEC
 70
     4
  9
$DIMALTU
 70
     2
  9
$DIMALTTD
 70
     2
  9
$DIMTXSTY
  7
Standard
  9
$DIMAUNIT
 70
     0
  9
$DIMADEC
 70
     0
  9
$DIMALTRND
 40
0.0
  9
$DIMAZIN
 70
     0
  9
$DIMDSEP
 70
    46
  9
$DIMATFIT
 70
     3
  9
$DIMFRAC
 70
     0
  9
$DIMLDRBLK
  1

  9
$DIMLUNIT
 70
     2
  9
$DIMLWD
 70
    -2
  9
$DIMLWE
 70
    -2
  9
$DIMTMOVE
 70
     0
  9
$LUNITS
 70
     2
  9
$LUPREC
 70
     4
  9
$SKETCHINC
 40
0.1
  9
$FILLETRAD
 40
0.0
  9
$AUNITS
 70
     0
  9
$AUPREC
 70
     0
  9
$MENU
  1
.
  9
$ELEVATION
 40
0.0
  9
$PELEVATION
 40
0.0
  9
$THICKNESS
 40
0.0
  9
$LIMCHECK
 70
     0
  9
$CHAMFERA
 40
0.0
  9
$CHAMFERB
 40
0.0
  9
$CHAMFERC
 40
0.0
  9
$CHAMFERD
 40
0.0
  9
$SKPOLY
 70
     0
  9
$TDCREATE
 40
2454637.666694305
  9
$TDUCREATE
 40
2454637.583360972
  9
$TDUPDATE
 40
2454637.674755289
  9
$TDUUPDATE
 40
2454637.591421956
  9
$TDINDWG
 40
0.0080609838
  9
$TDUSRTIMER
 40
0.0080609838
  9
$USRTIMER
 70
     1
  9
$ANGBASE
 50
0.0
  9
$ANGDIR
 70
     0
  9
$PDMODE
 70
     0
  9
$PDSIZE
 40
0.0
  9
$PLINEWID
 40
0.0
  9
$SPLFRAME
 70
     0
  9
$SPLINETYPE
 70
     6
  9
$SPLINESEGS
 70
     8
  9
$HANDSEED
  5
1BC
  9
$SURFTAB1
 70
     6
  9
$SURFTAB2
 70
     6
  9
$SURFTYPE
 70
     6
  9
$SURFU
 70
     6
  9
$SURFV
 70
     6
  9
$UCSBASE
  2

  9
$UCSNAME
  2

  9
$UCSORG
 10
0.0
 20
0.0
 30
0.0
  9
$UCSXDIR
 10
1.0
 20
0.0
 30
0.0
  9
$UCSYDIR
 10
0.0
 20
1.0
 30
0.0
  9
$UCSORTHOREF
  2

  9
$UCSORTHOVIEW
 70
     1
  9
$UCSORGTOP
 10
0.0
 20
0.0
 30
0.0
  9
$UCSORGBOTTOM
 10
0.0
 20
0.0
 30
0.0
  9
$UCSORGLEFT
 10
0.0
 20
0.0
 30
0.0
  9
$UCSORGRIGHT
 10
0.0
 20
0.0
 30
0.0
  9
$UCSORGFRONT
 10
0.0
 20
0.0
 30
0.0
  9
$UCSORGBACK
 10
0.0
 20
0.0
 30
0.0
  9
$PUCSBASE
  2

  9
$PUCSNAME
  2

  9
$PUCSORG
 10
0.0
 20
0.0
 30
0.0
  9
$PUCSXDIR
 10
1.0
 20
0.0
 30
0.0
  9
$PUCSYDIR
 10
0.0
 20
1.0
 30
0.0
  9
$PUCSORTHOREF
  2

  9
$PUCSORTHOVIEW
 70
     0
  9
$PUCSORGTOP
 10
0.0
 20
0.0
 30
0.0
  9
$PUCSORGBOTTOM
 10
0.0
 20
0.0
 30
0.0
  9
$PUCSORGLEFT
 10
0.0
 20
0.0
 30
0.0
  9
$PUCSORGRIGHT
 10
0.0
 20
0.0
 30
0.0
  9
$PUCSORGFRONT
 10
0.0
 20
0.0
 30
0.0
  9
$PUCSORGBACK
 10
0.0
 20
0.0
 30
0.0
  9
$USERI1
 70
     0
  9
$USERI2
 70
     0
  9
$USERI3
 70
     0
  9
$USERI4
 70
     0
  9
$USERI5
 70
     0
  9
$USERR1
 40
0.0
  9
$USERR2
 40
0.0
  9
$USERR3
 40
0.0
  9
$USERR4
 40
0.0
  9
$USERR5
 40
0.0
  9
$WORLDVIEW
 70
     1
  9
$SHADEDGE
 70
     3
  9
$SHADEDIF
 70
    70
  9
$TILEMODE
 70
     1
  9
$MAXACTVP
 70
    64
  9
$PINSBASE
 10
0.0
 20
0.0
 30
0.0
  9
$PLIMCHECK
 70
     0
  9
$PEXTMIN
 10
1.000000000000000E+20
 20
1.000000000000000E+20
 30
1.000000000000000E+20
  9
$PEXTMAX
 10
-1.000000000000000E+20
 20
-1.000000000000000E+20
 30
-1.000000000000000E+20
  9
$PLIMMIN
 10
0.0
 20
0.0
  9
$PLIMMAX
 10
12.0
 20
9.0
  9
$UNITMODE
 70
     0
  9
$VISRETAIN
 70
     1
  9
$PLINEGEN
 70
     0
  9
$PSLTSCALE
 70
     1
  9
$TREEDEPTH
 70
  3020
  9
$CMLSTYLE
  2
Standard
  9
$CMLJUST
 70
     0
  9
$CMLSCALE
 40
1.0
  9
$PROXYGRAPHICS
 70
     1
  9
$MEASUREMENT
 70
     0
  9
$CELWEIGHT
370
    -1
  9
$ENDCAPS
280
     0
  9
$JOINSTYLE
280
     0
  9
$LWDISPLAY
290
     0
  9
$INSUNITS
 70
     0
  9
$HYPERLINKBASE
  1

  9
$STYLESHEET
  1

  9
$XEDIT
290
     1
  9
$CEPSNTYPE
380
     0
  9
$PSTYLEMODE
290
     1
  9
$FINGERPRINTGUID
  2
{CBA85505-FB88-4A77-8228-70112CBE8CA2}
  9
$VERSIONGUID
  2
{A4189FFA-2B77-42BA-9228-1304D0FBC0A2}
  9
$EXTNAMES
290
     1
  9
$PSVPSCALE
 40
0.0
  9
$OLESTARTUP
290
     0
  0
ENDSEC
  0
SECTION
  2
CLASSES
  0
CLASS
  1
ACDBDICTIONARYWDFLT
  2
AcDbDictionaryWithDefault
  3
AutoCAD 2000
 90
        0
280
     0
281
     0
  0
CLASS
  1
ACDBPLACEHOLDER
  2
AcDbPlaceHolder
  3
AutoCAD 2000
 90
        0
280
     0
281
     0
  0
CLASS
  1
LAYOUT
  2
AcDbLayout
  3
AutoCAD 2000
 90
        0
280
     0
281
     0
  0
CLASS
  1
DICTIONARYVAR
  2
AcDbDictionaryVar
  3
AutoCAD 2000
 90
        0
280
     0
281
     0
  0
ENDSEC
  0
SECTION
  2
TABLES
  0
TABLE
  2
VPORT
  5
8
330
0
100
AcDbSymbolTable
 70
     2
  0
VPORT
  5
1BB
330
8
100
AcDbSymbolTableRecord
100
AcDbViewportTableRecord
  2
*Active
 70
     0
 10
0.0
 20
0.0
 11
1.0
 21
1.0
 12
84.0
 22
58.49999999999996
 13
0.0
 23
0.0
 14
1.0
 24
1.0
 15
0.0
 25
0.0
 16
0.0
 26
0.0
 36
1.0
 17
0.0
 27
0.0
 37
0.0
 40
117.8976982097187
 41
2.043533930857874
 42
50.0
 43
0.0
 44
0.0
 50
0.0
 51
0.0
 71
     0
 72
   100
 73
     1
 74
     3
 75
     0
 76
     0
 77
     0
 78
     0
281
     0
 65
     1
110
0.0
120
0.0
130
0.0
111
1.0
121
0.0
131
0.0
112
0.0
122
1.0
132
0.0
 79
     1
146
0.0
  0
ENDTAB
  0
TABLE
  2
LTYPE
  5
5
330
0
100
AcDbSymbolTable
 70
     1
  0
LTYPE
  5
13
330
5
100
AcDbSymbolTableRecord
100
AcDbLinetypeTableRecord
  2
ByBlock
 70
     0
  3

 72
    65
 73
     0
 40
0.0
  0
LTYPE
  5
14
330
5
100
AcDbSymbolTableRecord
100
AcDbLinetypeTableRecord
  2
ByLayer
 70
     0
  3

 72
    65
 73
     0
 40
0.0
  0
LTYPE
  5
15
330
5
100
AcDbSymbolTableRecord
100
AcDbLinetypeTableRecord
  2
Continuous
 70
     0
  3
Solid line
 72
    65
 73
     0
 40
0.0
  0
ENDTAB
  0
TABLE
  2
LAYER
  5
2
330
0
100
AcDbSymbolTable
 70
     1
  0
LAYER
  5
10
330
2
100
AcDbSymbolTableRecord
100
AcDbLayerTableRecord
  2
0
 70
     0
 62
     7
  6
Continuous
370
    -3
390
F
  0
ENDTAB
  0
TABLE
  2
STYLE
  5
3
330
0
100
AcDbSymbolTable
 70
     1
  0
STYLE
  5
11
330
3
100
AcDbSymbolTableRecord
100
AcDbTextStyleTableRecord
  2
Standard
 70
     0
 40
0.0
 41
1.0
 50
0.0
 71
     0
 42
0.2
  3
txt
  4

  0
ENDTAB
  0
TABLE
  2
VIEW
  5
6
330
0
100
AcDbSymbolTable
 70
     0
  0
ENDTAB
  0
TABLE
  2
UCS
  5
7
330
0
100
AcDbSymbolTable
 70
     0
  0
ENDTAB
  0
TABLE
  2
APPID
  5
9
330
0
100
AcDbSymbolTable
 70
     1
  0
APPID
  5
12
330
9
100
AcDbSymbolTableRecord
100
AcDbRegAppTableRecord
  2
ACAD
 70
     0
  0
ENDTAB
  0
TABLE
  2
DIMSTYLE
  5
A
330
0
100
AcDbSymbolTable
 70
     1
100
AcDbDimStyleTable
 71
     0
  0
DIMSTYLE
105
1AB
330
A
100
AcDbSymbolTableRecord
100
AcDbDimStyleTableRecord
  2
Standard
 70
     0
340
11
  0
ENDTAB
  0
TABLE
  2
BLOCK_RECORD
  5
1
330
0
100
AcDbSymbolTable
 70
     0
  0
BLOCK_RECORD
  5
1E
330
1
100
AcDbSymbolTableRecord
100
AcDbBlockTableRecord
  2
*Model_Space
340
21
  0
BLOCK_RECORD
  5
1A
330
1
100
AcDbSymbolTableRecord
100
AcDbBlockTableRecord
  2
*Paper_Space
340
1D
  0
ENDTAB
  0
ENDSEC
  0
SECTION
  2
BLOCKS
  0
BLOCK
  5
1F
330
1E
100
AcDbEntity
  8
0
100
AcDbBlockBegin
  2
*Model_Space
 70
     0
 10
0.0
 20
0.0
 30
0.0
  3
*Model_Space
  1

  0
ENDBLK
  5
20
330
1E
100
AcDbEntity
  8
0
100
AcDbBlockEnd
  0
BLOCK
  5
1B
330
1A
100
AcDbEntity
 67
     1
  8
0
100
AcDbBlockBegin
  2
*Paper_Space
 70
     0
 10
0.0
 20
0.0
 30
0.0
  3
*Paper_Space
  1

  0
ENDBLK
  5
1C
330
1A
100
AcDbEntity
 67
     1
  8
0
100
AcDbBlockEnd
  0
ENDSEC
  0
SECTION
  2
ENTITIES
  0
LINE
  5
22
330
1E
100
AcDbEntity
  8
0
100
AcDbLine
 10
0.200000000000005
 20
53.49999999999989
 30
0.0
 11
0.8000000000000049
 21
51.99999999999989
 31
0.0
  0
LINE
  5
23
330
1E
100
AcDbEntity
  8
0
100
AcDbLine
 10
0.300000000000005
 20
54.99999999999989
 30
0.0
 11
0.300000000000005
 21
83.0
 31
0.0
  0
LINE
  5
24
330
1E
100
AcDbEntity
  8
0
100
AcDbLine
 10
0.300000000000005
 20
54.99999999999989
 30
0.0
 11
0.500000000000005
 21
53.49999999999989
 31
0.0
  0
LINE
  5
25
330
1E
100
AcDbEntity
  8
0
100
AcDbLine
 10
0.200000000000005
 20
53.49999999999989
 30
0.0
 11
0.8000000000000049
 21
51.99999999999989
 31
0.0
  0
LINE
  5
26
330
1E
100
AcDbEntity
  8
0
100
AcDbLine
 10
0.0000000000000047
 20
54.99999999999989
 30
0.0
 11
0.0000000000000047
 21
83.0
 31
0.0
  0
LINE
  5
27
330
1E
100
AcDbEntity
  8
0
100
AcDbLine
 10
0.0000000000000047
 20
54.99999999999989
 30
0.0
 11
0.200000000000005
 21
53.49999999999989
 31
0.0
  0
LINE
  5
28
330
1E
100
AcDbEntity
  8
0
100
AcDbLine
 10
0.0000000000000047
 20
54.99999999999989
 30
0.0
 11
0.200000000000005
 21
53.49999999999989
 31
0.0
  0
LINE
  5
29
330
1E
100
AcDbEntity
  8
0
100
AcDbLine
 10
4.5
 20
49.49999999999989
 30
0.0
 11
6.0
 21
49.29999999999989
 31
0.0
  0
LINE
  5
2A
330
1E
100
AcDbEntity
  8
0
100
AcDbLine
 10
6.0
 20
49.29999999999989
 30
0.0
 11
23.5
 21
49.29999999999989
 31
0.0
  0
LINE
  5
2B
330
1E
100
AcDbEntity
  8
0
100
AcDbLine
 10
6.000000000000009
 20
49.29999999999989
 30
0.0
 11
23.5
 21
49.29999999999989
 31
0.0
  0
LINE
  5
2C
330
1E
100
AcDbEntity
  8
0
100
AcDbLine
 10
4.5
 20
49.1999999999999
 30
0.0
 11
6.0
 21
48.99999999999989
 31
0.0
  0
LINE
  5
2D
330
1E
100
AcDbEntity
  8
0
100
AcDbLine
 10
6.0
 20
48.99999999999989
 30
0.0
 11
23.5
 21
48.99999999999989
 31
0.0
  0
LINE
  5
2E
330
1E
100
AcDbEntity
  8
0
100
AcDbLine
 10
6.000000000000009
 20
48.99999999999989
 30
0.0
 11
23.5
 21
48.99999999999989
 31
0.0
  0
LINE
  5
2F
330
1E
100
AcDbEntity
  8
0
100
AcDbLine
 10
2.0
 20
50.99999999999989
 30
0.0
 11
3.200000000000009
 21
50.0999999999999
 31
0.0
  0
LINE
  5
30
330
1E
100
AcDbEntity
  8
0
100
AcDbLine
 10
3.200000000000009
 20
50.0999999999999
 30
0.0
 11
4.5
 21
49.49999999999989
 31
0.0
  0
LINE
  5
31
330
1E
100
AcDbEntity
  8
0
100
AcDbLine
 10
3.0
 20
49.79999999999989
 30
0.0
 11
4.5
 21
49.1999999999999
 31
0.0
  0
LINE
  5
32
330
1E
100
AcDbEntity
  8
0
100
AcDbLine
 10
1.8
 20
50.7999999999999
 30
0.0
 11
3.0
 21
49.79999999999989
 31
0.0
  0
LINE
  5
33
330
1E
100
AcDbEntity
  8
0
100
AcDbLine
 10
1.1
 20
52.19999999999989
 30
0.0
 11
2.0
 21
50.99999999999989
 31
0.0
  0
LINE
  5
34
330
1E
100
AcDbEntity
  8
0
100
AcDbLine
 10
0.500000000000005
 20
53.49999999999989
 30
0.0
 11
1.1
 21
52.19999999999989
 31
0.0
  0
LINE
  5
35
330
1E
100
AcDbEntity
  8
0
100
AcDbLine
 10
0.8000000000000049
 20
51.99999999999989
 30
0.0
 11
1.8
 21
50.7999999999999
 31
0.0
  0
LINE
  5
36
330
1E
100
AcDbEntity
  8
0
100
AcDbLine
 10
0.300000000000005
 20
83.0
 30
0.0
 11
0.300000000000005
 21
111.0
 31
0.0
  0
LINE
  5
37
330
1E
100
AcDbEntity
  8
0
100
AcDbLine
 10
0.300000000000005
 20
83.0
 30
0.0
 11
0.300000000000005
 21
54.99999999999989
 31
0.0
  0
LINE
  5
38
330
1E
100
AcDbEntity
  8
0
100
AcDbLine
 10
0.0000000000000047
 20
83.0
 30
0.0
 11
0.0000000000000047
 21
111.0
 31
0.0
  0
LINE
  5
39
330
1E
100
AcDbEntity
  8
0
100
AcDbLine
 10
0.0000000000000047
 20
83.0
 30
0.0
 11
0.0000000000000047
 21
54.99999999999989
 31
0.0
  0
LINE
  5
3A
330
1E
100
AcDbEntity
  8
0
100
AcDbLine
 10
7.7
 20
76.0
 30
0.0
 11
10.4
 21
69.39999999999989
 31
0.0
  0
LINE
  5
3B
330
1E
100
AcDbEntity
  8
0
100
AcDbLine
 10
0.300000000000005
 20
111.0
 30
0.0
 11
0.500000000000005
 21
112.5
 31
0.0
  0
LINE
  5
3C
330
1E
100
AcDbEntity
  8
0
100
AcDbLine
 10
0.300000000000005
 20
111.0
 30
0.0
 11
0.300000000000005
 21
83.0
 31
0.0
  0
LINE
  5
3D
330
1E
100
AcDbEntity
  8
0
100
AcDbLine
 10
1.1
 20
113.7999999999999
 30
0.0
 11
2.0
 21
115.0
 31
0.0
  0
LINE
  5
3E
330
1E
100
AcDbEntity
  8
0
100
AcDbLine
 10
0.500000000000005
 20
112.5
 30
0.0
 11
1.1
 21
113.7999999999999
 31
0.0
  0
LINE
  5
3F
330
1E
100
AcDbEntity
  8
0
100
AcDbLine
 10
0.8000000000000049
 20
114.0
 30
0.0
 11
1.8
 21
115.2
 31
0.0
  0
LINE
  5
40
330
1E
100
AcDbEntity
  8
0
100
AcDbLine
 10
0.200000000000005
 20
112.5
 30
0.0
 11
0.8000000000000049
 21
114.0
 31
0.0
  0
LINE
  5
41
330
1E
100
AcDbEntity
  8
0
100
AcDbLine
 10
0.0000000000000047
 20
111.0
 30
0.0
 11
0.0000000000000047
 21
83.0
 31
0.0
  0
LINE
  5
42
330
1E
100
AcDbEntity
  8
0
100
AcDbLine
 10
0.0000000000000047
 20
111.0
 30
0.0
 11
0.200000000000005
 21
112.5
 31
0.0
  0
LINE
  5
43
330
1E
100
AcDbEntity
  8
0
100
AcDbLine
 10
2.0
 20
115.0
 30
0.0
 11
3.200000000000009
 21
115.9
 31
0.0
  0
LINE
  5
44
330
1E
100
AcDbEntity
  8
0
100
AcDbLine
 10
1.8
 20
115.2
 30
0.0
 11
3.0
 21
116.2
 31
0.0
  0
LINE
  5
45
330
1E
100
AcDbEntity
  8
0
100
AcDbLine
 10
3.200000000000009
 20
115.9
 30
0.0
 11
4.5
 21
116.5
 31
0.0
  0
LINE
  5
46
330
1E
100
AcDbEntity
  8
0
100
AcDbLine
 10
4.5
 20
116.5
 30
0.0
 11
6.0
 21
116.7
 31
0.0
  0
LINE
  5
47
330
1E
100
AcDbEntity
  8
0
100
AcDbLine
 10
6.0
 20
116.7
 30
0.0
 11
84.0
 21
116.7
 31
0.0
  0
LINE
  5
48
330
1E
100
AcDbEntity
  8
0
100
AcDbLine
 10
3.0
 20
116.2
 30
0.0
 11
4.5
 21
116.7999999999999
 31
0.0
  0
LINE
  5
49
330
1E
100
AcDbEntity
  8
0
100
AcDbLine
 10
4.5
 20
116.7999999999999
 30
0.0
 11
6.0
 21
117.0
 31
0.0
  0
LINE
  5
4A
330
1E
100
AcDbEntity
  8
0
100
AcDbLine
 10
7.7
 20
90.0
 30
0.0
 11
10.4
 21
96.6
 31
0.0
  0
LINE
  5
4C
330
1E
100
AcDbEntity
  8
0
100
AcDbLine
 10
6.000000000000009
 20
116.7
 30
0.0
 11
84.0
 21
116.7
 31
0.0
  0
LINE
  5
4D
330
1E
100
AcDbEntity
  8
0
100
AcDbLine
 10
6.000000000000009
 20
117.0
 30
0.0
 11
84.0
 21
117.0
 31
0.0
  0
LINE
  5
4E
330
1E
100
AcDbEntity
  8
0
100
AcDbLine
 10
6.0
 20
117.0
 30
0.0
 11
84.0
 21
117.0
 31
0.0
  0
LINE
  5
4F
330
1E
100
AcDbEntity
  8
0
100
AcDbLine
 10
6.7
 20
83.0
 30
0.0
 11
7.7
 21
76.0
 31
0.0
  0
LINE
  5
50
330
1E
100
AcDbEntity
  8
0
100
AcDbLine
 10
6.7
 20
83.0
 30
0.0
 11
7.7
 21
90.0
 31
0.0
  0
LINE
  5
51
330
1E
100
AcDbEntity
  8
0
100
AcDbLine
 10
130.4
 20
0.381817999999931
 30
0.0
 11
134.0
 21
-0.0000000000000696
 31
0.0
  0
LINE
  5
52
330
1E
100
AcDbEntity
  8
0
100
AcDbLine
 10
130.4
 20
0.381817999999931
 30
0.0
 11
134.0
 21
-0.0000000000000696
 31
0.0
  0
LINE
  5
53
330
1E
100
AcDbEntity
  8
0
100
AcDbLine
 10
36.6
 20
19.71659999999989
 30
0.0
 11
39.0
 21
20.02449999999989
 31
0.0
  0
LINE
  5
54
330
1E
100
AcDbEntity
  8
0
100
AcDbLine
 10
34.0
 20
19.57979999999989
 30
0.0
 11
36.6
 21
19.71659999999989
 31
0.0
  0
LINE
  5
55
330
1E
100
AcDbEntity
  8
0
100
AcDbLine
 10
120.0
 20
13.3635999999999
 30
0.0
 11
120.4
 21
9.927269999999928
 31
0.0
  0
LINE
  5
56
330
1E
100
AcDbEntity
  8
0
100
AcDbLine
 10
121.867
 20
6.745449999999929
 30
0.0
 11
124.0
 21
3.81817999999993
 31
0.0
  0
LINE
  5
57
330
1E
100
AcDbEntity
  8
0
100
AcDbLine
 10
124.0
 20
3.81817999999993
 30
0.0
 11
127.067
 21
1.78181999999993
 31
0.0
  0
LINE
  5
58
330
1E
100
AcDbEntity
  8
0
100
AcDbLine
 10
124.0
 20
3.81817999999993
 30
0.0
 11
127.067
 21
1.78181999999993
 31
0.0
  0
LINE
  5
59
330
1E
100
AcDbEntity
  8
0
100
AcDbLine
 10
127.067
 20
1.78181999999993
 30
0.0
 11
130.4
 21
0.381817999999931
 31
0.0
  0
LINE
  5
5A
330
1E
100
AcDbEntity
  8
0
100
AcDbLine
 10
127.067
 20
1.78181999999993
 30
0.0
 11
130.4
 21
0.381817999999931
 31
0.0
  0
LINE
  5
5B
330
1E
100
AcDbEntity
  8
0
100
AcDbLine
 10
134.0
 20
-0.0000000000000697
 30
0.0
 11
137.5999999999999
 21
0.381817999999931
 31
0.0
  0
LINE
  5
5C
330
1E
100
AcDbEntity
  8
0
100
AcDbLine
 10
134.0
 20
-0.0000000000000696
 30
0.0
 11
137.5999999999999
 21
0.381817999999931
 31
0.0
  0
LINE
  5
5D
330
1E
100
AcDbEntity
  8
0
100
AcDbLine
 10
137.5999999999999
 20
0.381817999999931
 30
0.0
 11
140.9329999999999
 21
1.78181999999993
 31
0.0
  0
LINE
  5
5E
330
1E
100
AcDbEntity
  8
0
100
AcDbLine
 10
134.0
 20
-0.0000000000000696
 30
0.0
 11
137.5999999999999
 21
0.381817999999931
 31
0.0
  0
LINE
  5
5F
330
1E
100
AcDbEntity
  8
0
100
AcDbLine
 10
140.9329999999999
 20
1.78181999999993
 30
0.0
 11
144.0
 21
3.81817999999993
 31
0.0
  0
LINE
  5
60
330
1E
100
AcDbEntity
  8
0
100
AcDbLine
 10
148.0
 20
13.3635999999999
 30
0.0
 11
149.548
 21
49.04769999999989
 31
0.0
  0
LINE
  5
61
330
1E
100
AcDbEntity
  8
0
100
AcDbLine
 10
148.0
 20
13.3635999999999
 30
0.0
 11
149.548
 21
48.9917999999999
 31
0.0
  0
LINE
  5
62
330
1E
100
AcDbEntity
  8
0
100
AcDbLine
 10
147.5999999999999
 20
9.927269999999928
 30
0.0
 11
148.0
 21
13.3635999999999
 31
0.0
  0
LINE
  5
63
330
1E
100
AcDbEntity
  8
0
100
AcDbLine
 10
144.0
 20
3.81817999999993
 30
0.0
 11
146.1329999999999
 21
6.745449999999929
 31
0.0
  0
LINE
  5
64
330
1E
100
AcDbEntity
  8
0
100
AcDbLine
 10
140.9329999999999
 20
1.78181999999993
 30
0.0
 11
144.0
 21
3.81817999999993
 31
0.0
  0
LINE
  5
65
330
1E
100
AcDbEntity
  8
0
100
AcDbLine
 10
148.0
 20
13.3635999999999
 30
0.0
 11
149.548
 21
48.9917999999999
 31
0.0
  0
LINE
  5
66
330
1E
100
AcDbEntity
  8
0
100
AcDbLine
 10
148.0
 20
13.3635999999999
 30
0.0
 11
149.548
 21
49.04769999999989
 31
0.0
  0
LINE
  5
67
330
1E
100
AcDbEntity
  8
0
100
AcDbLine
 10
137.5999999999999
 20
0.381817999999931
 30
0.0
 11
140.9329999999999
 21
1.78181999999993
 31
0.0
  0
LINE
  5
68
330
1E
100
AcDbEntity
  8
0
100
AcDbLine
 10
134.0
 20
-0.0000000000000697
 30
0.0
 11
137.5999999999999
 21
0.381817999999931
 31
0.0
  0
LINE
  5
69
330
1E
100
AcDbEntity
  8
0
100
AcDbLine
 10
130.4
 20
0.381817999999931
 30
0.0
 11
134.0
 21
-0.0000000000000697
 31
0.0
  0
LINE
  5
6A
330
1E
100
AcDbEntity
  8
0
100
AcDbLine
 10
130.4
 20
0.381817999999931
 30
0.0
 11
134.0
 21
-0.0000000000000697
 31
0.0
  0
LINE
  5
6B
330
1E
100
AcDbEntity
  8
0
100
AcDbLine
 10
23.9
 20
24.3932999999999
 30
0.0
 11
24.9
 21
25.2483999999999
 31
0.0
  0
LINE
  5
6C
330
1E
100
AcDbEntity
  8
0
100
AcDbLine
 10
25.0
 20
22.9999999999999
 30
0.0
 11
25.3
 21
22.2133999999999
 31
0.0
  0
LINE
  5
6D
330
1E
100
AcDbEntity
  8
0
100
AcDbLine
 10
25.0
 20
22.9999999999999
 30
0.0
 11
25.3
 21
23.7866999999999
 31
0.0
  0
LINE
  5
6E
330
1E
100
AcDbEntity
  8
0
100
AcDbLine
 10
25.3
 20
22.2133999999999
 30
0.0
 11
26.2
 21
21.46089999999989
 31
0.0
  0
LINE
  5
6F
330
1E
100
AcDbEntity
  8
0
100
AcDbLine
 10
24.39999999999999
 20
23.8892999999999
 30
0.0
 11
25.3
 21
24.7100999999999
 31
0.0
  0
LINE
  5
70
330
1E
100
AcDbEntity
  8
0
100
AcDbLine
 10
25.3
 20
23.7866999999999
 30
0.0
 11
26.2
 21
24.53909999999989
 31
0.0
  0
LINE
  5
71
330
1E
100
AcDbEntity
  8
0
100
AcDbLine
 10
25.3
 20
24.7100999999999
 30
0.0
 11
26.89999999999999
 21
25.4283999999999
 31
0.0
  0
LINE
  5
72
330
1E
100
AcDbEntity
  8
0
100
AcDbLine
 10
24.9
 20
25.2483999999999
 30
0.0
 11
26.6
 21
26.00079999999989
 31
0.0
  0
LINE
  5
73
330
1E
100
AcDbEntity
  8
0
100
AcDbLine
 10
24.0
 20
22.9999999999999
 30
0.0
 11
24.39999999999999
 21
22.11079999999989
 31
0.0
  0
LINE
  5
74
330
1E
100
AcDbEntity
  8
0
100
AcDbLine
 10
24.0
 20
22.9999999999999
 30
0.0
 11
24.39999999999999
 21
23.8892999999999
 31
0.0
  0
LINE
  5
75
330
1E
100
AcDbEntity
  8
0
100
AcDbLine
 10
23.9
 20
22.54639999999989
 30
0.0
 11
24.39999999999999
 21
22.11079999999989
 31
0.0
  0
LINE
  5
76
330
1E
100
AcDbEntity
  8
0
100
AcDbLine
 10
24.39999999999999
 20
22.11079999999989
 30
0.0
 11
25.3
 21
21.28989999999989
 31
0.0
  0
LINE
  5
77
330
1E
100
AcDbEntity
  8
0
100
AcDbLine
 10
26.2
 20
24.53909999999989
 30
0.0
 11
27.6
 21
25.1889999999999
 31
0.0
  0
LINE
  5
78
330
1E
100
AcDbEntity
  8
0
100
AcDbLine
 10
26.15712074303409
 20
24.50325294117639
 30
0.0
 11
26.3
 21
24.1611999999999
 31
0.0
  0
LINE
  5
79
330
1E
100
AcDbEntity
  8
0
100
AcDbLine
 10
26.89999999999999
 20
25.4283999999999
 30
0.0
 11
29.0
 21
25.9755999999999
 31
0.0
  0
LINE
  5
7A
330
1E
100
AcDbEntity
  8
0
100
AcDbLine
 10
26.6
 20
26.00079999999989
 30
0.0
 11
28.8
 21
26.5822999999999
 31
0.0
  0
LINE
  5
7B
330
1E
100
AcDbEntity
  8
0
100
AcDbLine
 10
26.3
 20
24.1611999999999
 30
0.0
 11
27.1
 21
23.5112999999999
 31
0.0
  0
LINE
  5
7C
330
1E
100
AcDbEntity
  8
0
100
AcDbLine
 10
27.6
 20
25.1889999999999
 30
0.0
 11
29.5
 21
25.6678
 31
0.0
  0
LINE
  5
7D
330
1E
100
AcDbEntity
  8
0
100
AcDbLine
 10
29.0
 20
25.9755999999999
 30
0.0
 11
31.4
 21
26.2833999999999
 31
0.0
  0
LINE
  5
7E
330
1E
100
AcDbEntity
  8
0
100
AcDbLine
 10
28.8
 20
26.5822999999999
 30
0.0
 11
31.3
 21
26.9242999999999
 31
0.0
  0
LINE
  5
7F
330
1E
100
AcDbEntity
  8
0
100
AcDbLine
 10
27.1
 20
23.5112999999999
 30
0.0
 11
28.39999999999999
 21
22.9640999999999
 31
0.0
  0
LINE
  5
80
330
1E
100
AcDbEntity
  8
0
100
AcDbLine
 10
28.39999999999999
 20
22.9640999999999
 30
0.0
 11
30.0
 21
22.5194999999999
 31
0.0
  0
LINE
  5
81
330
1E
100
AcDbEntity
  8
0
100
AcDbLine
 10
26.2
 20
21.46089999999989
 30
0.0
 11
27.6
 21
20.81109999999989
 31
0.0
  0
LINE
  5
82
330
1E
100
AcDbEntity
  8
0
100
AcDbLine
 10
27.6
 20
20.81109999999989
 30
0.0
 11
29.5
 21
20.33229999999989
 31
0.0
  0
LINE
  5
83
330
1E
100
AcDbEntity
  8
0
100
AcDbLine
 10
25.3
 20
21.28989999999989
 30
0.0
 11
26.89999999999999
 21
20.57169999999989
 31
0.0
  0
LINE
  5
84
330
1E
100
AcDbEntity
  8
0
100
AcDbLine
 10
26.89999999999999
 20
20.57169999999989
 30
0.0
 11
29.0
 21
20.02449999999989
 31
0.0
  0
LINE
  5
85
330
1E
100
AcDbEntity
  8
0
100
AcDbLine
 10
36.29999999999999
 20
20.02449999999989
 30
0.0
 11
38.5
 21
20.33229999999989
 31
0.0
  0
LINE
  5
86
330
1E
100
AcDbEntity
  8
0
100
AcDbLine
 10
34.0
 20
19.92189999999989
 30
0.0
 11
36.29999999999999
 21
20.02449999999989
 31
0.0
  0
LINE
  5
87
330
1E
100
AcDbEntity
  8
0
100
AcDbLine
 10
39.0
 20
20.02449999999989
 30
0.0
 11
41.1
 21
20.57169999999989
 31
0.0
  0
LINE
  5
88
330
1E
100
AcDbEntity
  8
0
100
AcDbLine
 10
29.5
 20
25.6678
 30
0.0
 11
31.69999999999999
 21
25.9755999999999
 31
0.0
  0
LINE
  5
89
330
1E
100
AcDbEntity
  8
0
100
AcDbLine
 10
36.1
 20
22.24589999999989
 30
0.0
 11
38.0
 21
22.5194999999999
 31
0.0
  0
LINE
  5
8A
330
1E
100
AcDbEntity
  8
0
100
AcDbLine
 10
34.0
 20
22.1432999999999
 30
0.0
 11
36.1
 21
22.24589999999989
 31
0.0
  0
LINE
  5
8B
330
1E
100
AcDbEntity
  8
0
100
AcDbLine
 10
40.4
 20
20.81109999999989
 30
0.0
 11
41.79999999999999
 21
21.46089999999989
 31
0.0
  0
LINE
  5
8C
330
1E
100
AcDbEntity
  8
0
100
AcDbLine
 10
38.5
 20
20.33229999999989
 30
0.0
 11
40.4
 21
20.81109999999989
 31
0.0
  0
LINE
  5
8D
330
1E
100
AcDbEntity
  8
0
100
AcDbLine
 10
42.7
 20
22.2133999999999
 30
0.0
 11
43.0
 21
22.9999999999999
 31
0.0
  0
LINE
  5
8E
330
1E
100
AcDbEntity
  8
0
100
AcDbLine
 10
41.79999999999999
 20
21.46089999999989
 30
0.0
 11
42.7
 21
22.2133999999999
 31
0.0
  0
LINE
  5
8F
330
1E
100
AcDbEntity
  8
0
100
AcDbLine
 10
43.6
 20
22.11079999999989
 30
0.0
 11
44.1
 21
22.54639999999989
 31
0.0
  0
LINE
  5
90
330
1E
100
AcDbEntity
  8
0
100
AcDbLine
 10
43.6
 20
22.11079999999989
 30
0.0
 11
44.0
 21
22.9999999999999
 31
0.0
  0
LINE
  5
91
330
1E
100
AcDbEntity
  8
0
100
AcDbLine
 10
42.7
 20
21.28989999999989
 30
0.0
 11
43.6
 21
22.11079999999989
 31
0.0
  0
LINE
  5
92
330
1E
100
AcDbEntity
  8
0
100
AcDbLine
 10
41.1
 20
20.57169999999989
 30
0.0
 11
42.7
 21
21.28989999999989
 31
0.0
  0
LINE
  5
93
330
1E
100
AcDbEntity
  8
0
100
AcDbLine
 10
38.5
 20
25.6678
 30
0.0
 11
40.4
 21
25.1889999999999
 31
0.0
  0
LINE
  5
94
330
1E
100
AcDbEntity
  8
0
100
AcDbLine
 10
36.29999999999999
 20
25.9755999999999
 30
0.0
 11
38.5
 21
25.6678
 31
0.0
  0
LINE
  5
95
330
1E
100
AcDbEntity
  8
0
100
AcDbLine
 10
39.0
 20
25.9755999999999
 30
0.0
 11
41.1
 21
25.4283999999999
 31
0.0
  0
LINE
  5
96
330
1E
100
AcDbEntity
  8
0
100
AcDbLine
 10
40.4
 20
25.1889999999999
 30
0.0
 11
41.79999999999999
 21
24.53909999999989
 31
0.0
  0
LINE
  5
97
330
1E
100
AcDbEntity
  8
0
100
AcDbLine
 10
41.1
 20
25.4283999999999
 30
0.0
 11
42.7
 21
24.7100999999999
 31
0.0
  0
LINE
  5
98
330
1E
100
AcDbEntity
  8
0
100
AcDbLine
 10
42.7
 20
23.7866999999999
 30
0.0
 11
43.0
 21
22.9999999999999
 31
0.0
  0
LINE
  5
99
330
1E
100
AcDbEntity
  8
0
100
AcDbLine
 10
41.79999999999999
 20
24.53909999999989
 30
0.0
 11
42.7
 21
23.7866999999999
 31
0.0
  0
LINE
  5
9A
330
1E
100
AcDbEntity
  8
0
100
AcDbLine
 10
43.6
 20
23.8892999999999
 30
0.0
 11
44.0
 21
22.9999999999999
 31
0.0
  0
LINE
  5
9B
330
1E
100
AcDbEntity
  8
0
100
AcDbLine
 10
42.7
 20
24.7100999999999
 30
0.0
 11
43.6
 21
23.8892999999999
 31
0.0
  0
LINE
  5
9C
330
1E
100
AcDbEntity
  8
0
100
AcDbLine
 10
44.1
 20
24.3932999999999
 30
0.0
 11
44.5
 21
23.4698999999999
 31
0.0
  0
LINE
  5
9D
330
1E
100
AcDbEntity
  8
0
100
AcDbLine
 10
43.1
 20
25.2483999999999
 30
0.0
 11
44.1
 21
24.3932999999999
 31
0.0
  0
LINE
  5
9E
330
1E
100
AcDbEntity
  8
0
100
AcDbLine
 10
41.7
 20
24.1611999999999
 30
0.0
 11
41.84287925696589
 21
24.50325294117639
 31
0.0
  0
LINE
  5
9F
330
1E
100
AcDbEntity
  8
0
100
AcDbLine
 10
40.89999999999999
 20
23.5112999999999
 30
0.0
 11
41.7
 21
24.1611999999999
 31
0.0
  0
LINE
  5
A0
330
1E
100
AcDbEntity
  8
0
100
AcDbLine
 10
39.6
 20
22.9640999999999
 30
0.0
 11
40.89999999999999
 21
23.5112999999999
 31
0.0
  0
LINE
  5
A1
330
1E
100
AcDbEntity
  8
0
100
AcDbLine
 10
38.0
 20
22.5194999999999
 30
0.0
 11
39.6
 21
22.9640999999999
 31
0.0
  0
LINE
  5
A2
330
1E
100
AcDbEntity
  8
0
100
AcDbLine
 10
44.5
 20
23.4698999999999
 30
0.0
 11
44.5
 21
62.62859999999999
 31
0.0
  0
LINE
  5
A3
330
1E
100
AcDbEntity
  8
0
100
AcDbLine
 10
44.1
 20
22.54639999999989
 30
0.0
 11
44.5
 21
23.4698999999999
 31
0.0
  0
LINE
  5
A4
330
1E
100
AcDbEntity
  8
0
100
AcDbLine
 10
34.0
 20
26.0781999999999
 30
0.0
 11
36.29999999999999
 21
25.9755999999999
 31
0.0
  0
LINE
  5
A5
330
1E
100
AcDbEntity
  8
0
100
AcDbLine
 10
36.6
 20
26.2833999999999
 30
0.0
 11
39.0
 21
25.9755999999999
 31
0.0
  0
LINE
  5
A6
330
1E
100
AcDbEntity
  8
0
100
AcDbLine
 10
34.0
 20
26.42019999999989
 30
0.0
 11
36.6
 21
26.2833999999999
 31
0.0
  0
LINE
  5
A7
330
1E
100
AcDbEntity
  8
0
100
AcDbLine
 10
41.39999999999999
 20
26.00079999999989
 30
0.0
 11
43.1
 21
25.2483999999999
 31
0.0
  0
LINE
  5
A8
330
1E
100
AcDbEntity
  8
0
100
AcDbLine
 10
39.2
 20
26.5822999999999
 30
0.0
 11
41.39999999999999
 21
26.00079999999989
 31
0.0
  0
LINE
  5
A9
330
1E
100
AcDbEntity
  8
0
100
AcDbLine
 10
36.7
 20
26.9242999999999
 30
0.0
 11
39.2
 21
26.5822999999999
 31
0.0
  0
LINE
  5
AA
330
1E
100
AcDbEntity
  8
0
100
AcDbLine
 10
31.69999999999999
 20
25.9755999999999
 30
0.0
 11
34.0
 21
26.0781999999999
 31
0.0
  0
LINE
  5
AB
330
1E
100
AcDbEntity
  8
0
100
AcDbLine
 10
31.4
 20
26.2833999999999
 30
0.0
 11
34.0
 21
26.42019999999989
 31
0.0
  0
LINE
  5
AC
330
1E
100
AcDbEntity
  8
0
100
AcDbLine
 10
44.5
 20
49.29999999999989
 30
0.0
 11
84.0
 21
49.29999999999989
 31
0.0
  0
LINE
  5
AD
330
1E
100
AcDbEntity
  8
0
100
AcDbLine
 10
44.5
 20
48.99999999999989
 30
0.0
 11
84.0
 21
48.99999999999989
 31
0.0
  0
LINE
  5
AE
330
1E
100
AcDbEntity
  8
0
100
AcDbLine
 10
34.0
 20
27.0610999999999
 30
0.0
 11
36.7
 21
26.9242999999999
 31
0.0
  0
LINE
  5
AF
330
1E
100
AcDbEntity
  8
0
100
AcDbLine
 10
47.6
 20
59.39999999999989
 30
0.0
 11
53.3
 21
63.7
 31
0.0
  0
LINE
  5
B0
330
1E
100
AcDbEntity
  8
0
100
AcDbLine
 10
44.5
 20
58.1318181818181
 30
0.0
 11
47.6
 21
59.39999999999989
 31
0.0
  0
LINE
  5
B1
330
1E
100
AcDbEntity
  8
0
100
AcDbLine
 10
149.548
 20
48.9917999999999
 30
0.0
 11
149.5627489996089
 21
49.3925777268828
 31
0.0
  0
LINE
  5
B3
330
1E
100
AcDbEntity
  8
0
100
AcDbLine
 10
84.0
 20
49.29999999999989
 30
0.0
 11
118.4388412206469
 21
49.29999999999989
 31
0.0
  0
LINE
  5
B4
330
1E
100
AcDbEntity
  8
0
100
AcDbLine
 10
84.0
 20
48.99999999999989
 30
0.0
 11
118.4516498962019
 21
48.99999999999989
 31
0.0
  0
LINE
  5
B5
330
1E
100
AcDbEntity
  8
0
100
AcDbLine
 10
118.4372510003909
 20
49.3925777268836
 30
0.0
 11
118.452
 21
48.9917999999999
 31
0.0
  0
LINE
  5
B6
330
1E
100
AcDbEntity
  8
0
100
AcDbLine
 10
162.0
 20
48.99999999999989
 30
0.0
 11
163.4999999999999
 21
49.1999999999999
 31
0.0
  0
LINE
  5
B7
330
1E
100
AcDbEntity
  8
0
100
AcDbLine
 10
149.548350103799
 20
48.99999999999989
 30
0.0
 11
162.0
 21
48.99999999999989
 31
0.0
  0
LINE
  5
B8
330
1E
100
AcDbEntity
  8
0
100
AcDbLine
 10
166.0
 20
50.99999999999989
 30
0.0
 11
166.9
 21
52.19999999999989
 31
0.0
  0
LINE
  5
B9
330
1E
100
AcDbEntity
  8
0
100
AcDbLine
 10
164.8
 20
50.0999999999999
 30
0.0
 11
166.0
 21
50.99999999999989
 31
0.0
  0
LINE
  5
BA
330
1E
100
AcDbEntity
  8
0
100
AcDbLine
 10
163.4999999999999
 20
49.49999999999989
 30
0.0
 11
164.8
 21
50.0999999999999
 31
0.0
  0
LINE
  5
BB
330
1E
100
AcDbEntity
  8
0
100
AcDbLine
 10
162.0
 20
49.29999999999989
 30
0.0
 11
163.4999999999999
 21
49.49999999999989
 31
0.0
  0
LINE
  5
BC
330
1E
100
AcDbEntity
  8
0
100
AcDbLine
 10
149.561158779353
 20
49.29999999999989
 30
0.0
 11
162.0
 21
49.29999999999989
 31
0.0
  0
LINE
  5
BD
330
1E
100
AcDbEntity
  8
0
100
AcDbLine
 10
166.9
 20
52.19999999999989
 30
0.0
 11
167.5
 21
53.49999999999989
 31
0.0
  0
LINE
  5
BE
330
1E
100
AcDbEntity
  8
0
100
AcDbLine
 10
167.6999999999999
 20
54.99999999999989
 30
0.0
 11
167.6999999999999
 21
83.0
 31
0.0
  0
LINE
  5
BF
330
1E
100
AcDbEntity
  8
0
100
AcDbLine
 10
167.5
 20
53.49999999999989
 30
0.0
 11
167.6999999999999
 21
54.99999999999989
 31
0.0
  0
LINE
  5
C0
330
1E
100
AcDbEntity
  8
0
100
AcDbLine
 10
167.1999999999999
 20
51.99999999999989
 30
0.0
 11
167.8
 21
53.49999999999989
 31
0.0
  0
LINE
  5
C1
330
1E
100
AcDbEntity
  8
0
100
AcDbLine
 10
168.0
 20
54.99999999999989
 30
0.0
 11
168.0
 21
83.0
 31
0.0
  0
LINE
  5
C2
330
1E
100
AcDbEntity
  8
0
100
AcDbLine
 10
167.8
 20
53.49999999999989
 30
0.0
 11
168.0
 21
54.99999999999989
 31
0.0
  0
LINE
  5
C4
330
1E
100
AcDbEntity
  8
0
100
AcDbLine
 10
118.452
 20
49.04769999999989
 30
0.0
 11
120.0
 21
13.3635999999999
 31
0.0
  0
LINE
  5
C5
330
1E
100
AcDbEntity
  8
0
100
AcDbLine
 10
118.452
 20
49.04769999999989
 30
0.0
 11
120.0
 21
13.3635999999999
 31
0.0
  0
LINE
  5
C6
330
1E
100
AcDbEntity
  8
0
100
AcDbLine
 10
118.452
 20
48.9917999999999
 30
0.0
 11
120.0
 21
13.3635999999999
 31
0.0
  0
LINE
  5
C7
330
1E
100
AcDbEntity
  8
0
100
AcDbLine
 10
118.452
 20
48.9917999999999
 30
0.0
 11
120.0
 21
13.3635999999999
 31
0.0
  0
LINE
  5
C9
330
1E
100
AcDbEntity
  8
0
100
AcDbLine
 10
31.3
 20
26.9242999999999
 30
0.0
 11
34.0
 21
27.0610999999999
 31
0.0
  0
LINE
  5
CA
330
1E
100
AcDbEntity
  8
0
100
AcDbLine
 10
30.0
 20
22.5194999999999
 30
0.0
 11
31.89999999999999
 21
22.24589999999989
 31
0.0
  0
LINE
  5
CB
330
1E
100
AcDbEntity
  8
0
100
AcDbLine
 10
31.89999999999999
 20
22.24589999999989
 30
0.0
 11
34.0
 21
22.1432999999999
 31
0.0
  0
LINE
  5
CC
330
1E
100
AcDbEntity
  8
0
100
AcDbLine
 10
29.5
 20
20.33229999999989
 30
0.0
 11
31.69999999999999
 21
20.02449999999989
 31
0.0
  0
LINE
  5
CD
330
1E
100
AcDbEntity
  8
0
100
AcDbLine
 10
31.69999999999999
 20
20.02449999999989
 30
0.0
 11
34.0
 21
19.92189999999989
 31
0.0
  0
LINE
  5
CE
330
1E
100
AcDbEntity
  8
0
100
AcDbLine
 10
29.0
 20
20.02449999999989
 30
0.0
 11
31.4
 21
19.71659999999989
 31
0.0
  0
LINE
  5
CF
330
1E
100
AcDbEntity
  8
0
100
AcDbLine
 10
31.4
 20
19.71659999999989
 30
0.0
 11
34.0
 21
19.57979999999989
 31
0.0
  0
LINE
  5
D0
330
1E
100
AcDbEntity
  8
0
100
AcDbLine
 10
23.5
 20
23.4698999999999
 30
0.0
 11
23.9
 21
22.54639999999989
 31
0.0
  0
LINE
  5
D1
330
1E
100
AcDbEntity
  8
0
100
AcDbLine
 10
23.5
 20
23.4698999999999
 30
0.0
 11
23.5
 21
62.62859999999999
 31
0.0
  0
LINE
  5
D2
330
1E
100
AcDbEntity
  8
0
100
AcDbLine
 10
23.5
 20
23.4698999999999
 30
0.0
 11
23.9
 21
24.3932999999999
 31
0.0
  0
LINE
  5
D3
330
1E
100
AcDbEntity
  8
0
100
AcDbLine
 10
150.07200487156
 20
61.26484578029979
 30
0.0
 11
153.3
 21
63.7
 31
0.0
  0
LINE
  5
D5
330
1E
100
AcDbEntity
  8
0
100
AcDbLine
 10
44.5
 20
62.62859999999999
 30
0.0
 11
44.5
 21
23.4698999999999
 31
0.0
  0
LINE
  5
D6
330
1E
100
AcDbEntity
  8
0
100
AcDbLine
 10
44.5
 20
62.62859999999999
 30
0.0
 11
44.5
 21
66.5
 31
0.0
  0
LINE
  5
D7
330
1E
100
AcDbEntity
  8
0
100
AcDbLine
 10
153.3
 20
63.7
 30
0.0
 11
157.6
 21
69.39999999999989
 31
0.0
  0
LINE
  5
D9
330
1E
100
AcDbEntity
  8
0
100
AcDbLine
 10
44.5
 20
66.5
 30
0.0
 11
44.5
 21
62.62859999999999
 31
0.0
  0
LINE
  5
DA
330
1E
100
AcDbEntity
  8
0
100
AcDbLine
 10
44.5
 20
66.5
 30
0.0
 11
44.5
 21
70.0891
 31
0.0
  0
LINE
  5
DB
330
1E
100
AcDbEntity
  8
0
100
AcDbLine
 10
53.3
 20
63.7
 30
0.0
 11
57.6
 21
69.39999999999989
 31
0.0
  0
LINE
  5
DC
330
1E
100
AcDbEntity
  8
0
100
AcDbLine
 10
114.7
 20
63.7
 30
0.0
 11
117.92799512844
 21
61.26484578029979
 31
0.0
  0
LINE
  5
DE
330
1E
100
AcDbEntity
  8
0
100
AcDbLine
 10
150.3929999999999
 20
68.36579999999989
 30
0.0
 11
150.689
 21
75.42839999999991
 31
0.0
  0
LINE
  5
DF
330
1E
100
AcDbEntity
  8
0
100
AcDbLine
 10
149.5627489996089
 20
49.3925777268828
 30
0.0
 11
150.3929999999999
 21
68.36579999999989
 31
0.0
  0
LINE
  5
E0
330
1E
100
AcDbEntity
  8
0
100
AcDbLine
 10
157.6
 20
69.39999999999989
 30
0.0
 11
160.3
 21
76.0
 31
0.0
  0
LINE
  5
E1
330
1E
100
AcDbEntity
  8
0
100
AcDbLine
 10
110.4
 20
69.39999999999989
 30
0.0
 11
114.7
 21
63.7
 31
0.0
  0
LINE
  5
E3
330
1E
100
AcDbEntity
  8
0
100
AcDbLine
 10
117.607
 20
68.36579999999989
 30
0.0
 11
118.4372510003909
 21
49.3925777268836
 31
0.0
  0
LINE
  5
E4
330
1E
100
AcDbEntity
  8
0
100
AcDbLine
 10
57.6
 20
69.39999999999989
 30
0.0
 11
60.3
 21
76.0
 31
0.0
  0
LINE
  5
E6
330
1E
100
AcDbEntity
  8
0
100
AcDbLine
 10
23.5
 20
66.5
 30
0.0
 11
23.5
 21
70.0891
 31
0.0
  0
LINE
  5
E7
330
1E
100
AcDbEntity
  8
0
100
AcDbLine
 10
23.5
 20
66.5
 30
0.0
 11
23.5
 21
62.62859999999999
 31
0.0
  0
LINE
  5
E8
330
1E
100
AcDbEntity
  8
0
100
AcDbLine
 10
23.5
 20
62.62859999999999
 30
0.0
 11
23.5
 21
23.4698999999999
 31
0.0
  0
LINE
  5
E9
330
1E
100
AcDbEntity
  8
0
100
AcDbLine
 10
23.5
 20
62.62859999999999
 30
0.0
 11
23.5
 21
66.5
 31
0.0
  0
LINE
  5
EA
330
1E
100
AcDbEntity
  8
0
100
AcDbLine
 10
14.69999999999999
 20
63.7
 30
0.0
 11
20.4
 21
59.39999999999989
 31
0.0
  0
LINE
  5
EB
330
1E
100
AcDbEntity
  8
0
100
AcDbLine
 10
20.4
 20
59.39999999999989
 30
0.0
 11
23.5
 21
58.1318181818181
 31
0.0
  0
LINE
  5
EE
330
1E
100
AcDbEntity
  8
0
100
AcDbLine
 10
20.26419999999999
 20
76.5517571428571
 30
0.0
 11
20.6070466022011
 21
75.6456625513256
 31
0.0
  0
LINE
  5
F1
330
1E
100
AcDbEntity
  8
0
100
AcDbLine
 10
19.3
 20
79.09999999999991
 30
0.0
 11
20.26419999999999
 21
76.5517571428571
 31
0.0
  0
LINE
  5
F3
330
1E
100
AcDbEntity
  8
0
100
AcDbLine
 10
20.26419999999999
 20
89.44824285714279
 30
0.0
 11
20.60704660220099
 21
90.3543374486739
 31
0.0
  0
LINE
  5
F6
330
1E
100
AcDbEntity
  8
0
100
AcDbLine
 10
19.3
 20
86.90000000000001
 30
0.0
 11
20.26419999999999
 21
89.44824285714279
 31
0.0
  0
LINE
  5
F7
330
1E
100
AcDbEntity
  8
0
100
AcDbLine
 10
14.69999999999999
 20
102.2999999999999
 30
0.0
 11
20.4
 21
106.6
 31
0.0
  0
LINE
  5
F8
330
1E
100
AcDbEntity
  8
0
100
AcDbLine
 10
20.4
 20
106.6
 30
0.0
 11
27.0
 21
109.2999999999999
 31
0.0
  0
LINE
  5
FB
330
1E
100
AcDbEntity
  8
0
100
AcDbLine
 10
10.4
 20
96.6
 30
0.0
 11
14.69999999999999
 21
102.2999999999999
 31
0.0
  0
LINE
  5
FC
330
1E
100
AcDbEntity
  8
0
100
AcDbLine
 10
18.7
 20
83.0
 30
0.0
 11
19.3
 21
79.09999999999991
 31
0.0
  0
LINE
  5
FD
330
1E
100
AcDbEntity
  8
0
100
AcDbLine
 10
18.7
 20
83.0
 30
0.0
 11
19.3
 21
86.90000000000001
 31
0.0
  0
LINE
  5
FE
330
1E
100
AcDbEntity
  8
0
100
AcDbLine
 10
44.5
 20
70.0891
 30
0.0
 11
44.5
 21
66.5
 31
0.0
  0
LINE
  5
FF
330
1E
100
AcDbEntity
  8
0
100
AcDbLine
 10
44.5
 20
70.0891
 30
0.0
 11
44.5
 21
73.3345
 31
0.0
  0
LINE
  5
101
330
1E
100
AcDbEntity
  8
0
100
AcDbLine
 10
44.79999999999999
 20
72.1999999999999
 30
0.0
 11
46.37922220432429
 21
74.221404421535
 31
0.0
  0
LINE
  5
103
330
1E
100
AcDbEntity
  8
0
100
AcDbLine
 10
44.5
 20
71.9656249999999
 30
0.0
 11
44.79999999999999
 21
72.1999999999999
 31
0.0
  0
LINE
  5
105
330
1E
100
AcDbEntity
  8
0
100
AcDbLine
 10
23.5
 20
70.0891
 30
0.0
 11
23.5
 21
73.3345
 31
0.0
  0
LINE
  5
106
330
1E
100
AcDbEntity
  8
0
100
AcDbLine
 10
23.5
 20
70.0891
 30
0.0
 11
23.5
 21
66.5
 31
0.0
  0
LINE
  5
107
330
1E
100
AcDbEntity
  8
0
100
AcDbLine
 10
44.5
 20
73.3345
 30
0.0
 11
44.5
 21
76.1806999999999
 31
0.0
  0
LINE
  5
108
330
1E
100
AcDbEntity
  8
0
100
AcDbLine
 10
44.5
 20
73.3345
 30
0.0
 11
44.5
 21
70.0891
 31
0.0
  0
LINE
  5
10B
330
1E
100
AcDbEntity
  8
0
100
AcDbLine
 10
150.689
 20
75.42839999999991
 30
0.0
 11
151.0
 21
83.0
 31
0.0
  0
LINE
  5
10C
330
1E
100
AcDbEntity
  8
0
100
AcDbLine
 10
117.311
 20
75.42839999999991
 30
0.0
 11
117.607
 21
68.36579999999989
 31
0.0
  0
LINE
  5
10D
330
1E
100
AcDbEntity
  8
0
100
AcDbLine
 10
46.37922220432429
 20
74.221404421535
 30
0.0
 11
48.2642
 21
77.9482428571428
 31
0.0
  0
LINE
  5
10E
330
1E
100
AcDbEntity
  8
0
100
AcDbLine
 10
23.5
 20
73.3345
 30
0.0
 11
23.5
 21
76.1806999999999
 31
0.0
  0
LINE
  5
10F
330
1E
100
AcDbEntity
  8
0
100
AcDbLine
 10
23.5
 20
73.3345
 30
0.0
 11
23.5
 21
70.0891
 31
0.0
  0
LINE
  5
111
330
1E
100
AcDbEntity
  8
0
100
AcDbLine
 10
23.19999999999999
 20
72.1999999999999
 30
0.0
 11
23.5
 21
71.9656249999999
 31
0.0
  0
LINE
  5
114
330
1E
100
AcDbEntity
  8
0
100
AcDbLine
 10
20.69999999999999
 20
75.39999999999991
 30
0.0
 11
23.19999999999999
 21
72.1999999999999
 31
0.0
  0
LINE
  5
115
330
1E
100
AcDbEntity
  8
0
100
AcDbLine
 10
23.5
 20
80.48799999999999
 30
0.0
 11
23.5
 21
81.87549999999991
 31
0.0
  0
LINE
  5
116
330
1E
100
AcDbEntity
  8
0
100
AcDbLine
 10
23.5
 20
80.48799999999999
 30
0.0
 11
23.5
 21
78.5787999999999
 31
0.0
  0
LINE
  5
117
330
1E
100
AcDbEntity
  8
0
100
AcDbLine
 10
23.5
 20
81.87549999999991
 30
0.0
 11
23.5
 21
82.7177
 31
0.0
  0
LINE
  5
118
330
1E
100
AcDbEntity
  8
0
100
AcDbLine
 10
23.5
 20
81.87549999999991
 30
0.0
 11
23.5
 21
80.48799999999999
 31
0.0
  0
LINE
  5
119
330
1E
100
AcDbEntity
  8
0
100
AcDbLine
 10
23.5
 20
82.7177
 30
0.0
 11
23.5
 21
81.87549999999991
 31
0.0
  0
LINE
  5
11A
330
1E
100
AcDbEntity
  8
0
100
AcDbLine
 10
23.5
 20
82.7177
 30
0.0
 11
23.5
 21
83.0
 31
0.0
  0
LINE
  5
11B
330
1E
100
AcDbEntity
  8
0
100
AcDbLine
 10
23.5
 20
78.5787999999999
 30
0.0
 11
23.5
 21
76.1806999999999
 31
0.0
  0
LINE
  5
11C
330
1E
100
AcDbEntity
  8
0
100
AcDbLine
 10
23.5
 20
78.5787999999999
 30
0.0
 11
23.5
 21
80.48799999999999
 31
0.0
  0
LINE
  5
11D
330
1E
100
AcDbEntity
  8
0
100
AcDbLine
 10
23.5
 20
76.1806999999999
 30
0.0
 11
23.5
 21
73.3345
 31
0.0
  0
LINE
  5
11E
330
1E
100
AcDbEntity
  8
0
100
AcDbLine
 10
23.5
 20
76.1806999999999
 30
0.0
 11
23.5
 21
78.5787999999999
 31
0.0
  0
LINE
  5
11F
330
1E
100
AcDbEntity
  8
0
100
AcDbLine
 10
23.5
 20
83.0
 30
0.0
 11
23.9
 21
85.7
 31
0.0
  0
LINE
  5
120
330
1E
100
AcDbEntity
  8
0
100
AcDbLine
 10
23.5
 20
83.0
 30
0.0
 11
23.5
 21
82.7177
 31
0.0
  0
LINE
  5
121
330
1E
100
AcDbEntity
  8
0
100
AcDbLine
 10
23.9
 20
85.7
 30
0.0
 11
24.9
 21
88.2
 31
0.0
  0
LINE
  5
125
330
1E
100
AcDbEntity
  8
0
100
AcDbLine
 10
23.19999999999999
 20
93.8
 30
0.0
 11
26.4
 21
96.3
 31
0.0
  0
LINE
  5
126
330
1E
100
AcDbEntity
  8
0
100
AcDbLine
 10
26.4
 20
96.3
 30
0.0
 11
30.1
 21
97.70000000000001
 31
0.0
  0
LINE
  5
128
330
1E
100
AcDbEntity
  8
0
100
AcDbLine
 10
20.69999999999999
 20
90.6
 30
0.0
 11
23.19999999999999
 21
93.8
 31
0.0
  0
LINE
  5
129
330
1E
100
AcDbEntity
  8
0
100
AcDbLine
 10
20.60704660220099
 20
90.3543374486739
 30
0.0
 11
20.69999999999999
 21
90.6
 31
0.0
  0
LINE
  5
12A
330
1E
100
AcDbEntity
  8
0
100
AcDbLine
 10
24.9
 20
88.2
 30
0.0
 11
26.6
 21
90.4
 31
0.0
  0
LINE
  5
12D
330
1E
100
AcDbEntity
  8
0
100
AcDbLine
 10
44.5
 20
76.1806999999999
 30
0.0
 11
44.5
 21
78.5787999999999
 31
0.0
  0
LINE
  5
12E
330
1E
100
AcDbEntity
  8
0
100
AcDbLine
 10
44.5
 20
76.1806999999999
 30
0.0
 11
44.5
 21
73.3345
 31
0.0
  0
LINE
  5
130
330
1E
100
AcDbEntity
  8
0
100
AcDbLine
 10
44.5
 20
78.5787999999999
 30
0.0
 11
44.5
 21
80.48799999999999
 31
0.0
  0
LINE
  5
131
330
1E
100
AcDbEntity
  8
0
100
AcDbLine
 10
44.5
 20
78.5787999999999
 30
0.0
 11
44.5
 21
76.1806999999999
 31
0.0
  0
LINE
  5
132
330
1E
100
AcDbEntity
  8
0
100
AcDbLine
 10
44.5
 20
83.0
 30
0.0
 11
44.5
 21
82.7177
 31
0.0
  0
LINE
  5
133
330
1E
100
AcDbEntity
  8
0
100
AcDbLine
 10
44.5
 20
82.7177
 30
0.0
 11
44.5
 21
83.0
 31
0.0
  0
LINE
  5
134
330
1E
100
AcDbEntity
  8
0
100
AcDbLine
 10
44.5
 20
82.7177
 30
0.0
 11
44.5
 21
81.87549999999991
 31
0.0
  0
LINE
  5
136
330
1E
100
AcDbEntity
  8
0
100
AcDbLine
 10
44.5
 20
81.87549999999991
 30
0.0
 11
44.5
 21
82.7177
 31
0.0
  0
LINE
  5
137
330
1E
100
AcDbEntity
  8
0
100
AcDbLine
 10
44.5
 20
81.87549999999991
 30
0.0
 11
44.5
 21
80.48799999999999
 31
0.0
  0
LINE
  5
138
330
1E
100
AcDbEntity
  8
0
100
AcDbLine
 10
44.5
 20
80.48799999999999
 30
0.0
 11
44.5
 21
81.87549999999991
 31
0.0
  0
LINE
  5
139
330
1E
100
AcDbEntity
  8
0
100
AcDbLine
 10
44.5
 20
80.48799999999999
 30
0.0
 11
44.5
 21
78.5787999999999
 31
0.0
  0
LINE
  5
13A
330
1E
100
AcDbEntity
  8
0
100
AcDbLine
 10
44.1
 20
85.7
 30
0.0
 11
44.5
 21
83.0
 31
0.0
  0
LINE
  5
13B
330
1E
100
AcDbEntity
  8
0
100
AcDbLine
 10
48.2642
 20
77.9482428571428
 30
0.0
 11
48.7
 21
79.09999999999991
 31
0.0
  0
LINE
  5
13C
330
1E
100
AcDbEntity
  8
0
100
AcDbLine
 10
48.7
 20
79.09999999999991
 30
0.0
 11
49.29999999999999
 21
83.0
 31
0.0
  0
LINE
  5
13E
330
1E
100
AcDbEntity
  8
0
100
AcDbLine
 10
43.1
 20
88.2
 30
0.0
 11
44.1
 21
85.7
 31
0.0
  0
LINE
  5
140
330
1E
100
AcDbEntity
  8
0
100
AcDbLine
 10
60.3
 20
76.0
 30
0.0
 11
61.29999999999999
 21
83.0
 31
0.0
  0
LINE
  5
141
330
1E
100
AcDbEntity
  8
0
100
AcDbLine
 10
48.7
 20
86.90000000000001
 30
0.0
 11
49.29999999999999
 21
83.0
 31
0.0
  0
LINE
  5
142
330
1E
100
AcDbEntity
  8
0
100
AcDbLine
 10
39.2
 20
92.09999999999999
 30
0.0
 11
41.39999999999999
 21
90.4
 31
0.0
  0
LINE
  5
144
330
1E
100
AcDbEntity
  8
0
100
AcDbLine
 10
39.2
 20
92.09999999999999
 30
0.0
 11
41.39999999999999
 21
90.4
 31
0.0
  0
LINE
  5
145
330
1E
100
AcDbEntity
  8
0
100
AcDbLine
 10
41.39999999999999
 20
90.4
 30
0.0
 11
43.1
 21
88.2
 31
0.0
  0
LINE
  5
147
330
1E
100
AcDbEntity
  8
0
100
AcDbLine
 10
60.3
 20
90.0
 30
0.0
 11
61.29999999999999
 21
83.0
 31
0.0
  0
LINE
  5
148
330
1E
100
AcDbEntity
  8
0
100
AcDbLine
 10
107.6999999999999
 20
76.0
 30
0.0
 11
110.4
 21
69.39999999999989
 31
0.0
  0
LINE
  5
149
330
1E
100
AcDbEntity
  8
0
100
AcDbLine
 10
117.0
 20
83.0
 30
0.0
 11
117.0
 21
82.3523999999999
 31
0.0
  0
LINE
  5
14A
330
1E
100
AcDbEntity
  8
0
100
AcDbLine
 10
117.0
 20
83.0
 30
0.0
 11
117.486
 21
87.3714
 31
0.0
  0
LINE
  5
14D
330
1E
100
AcDbEntity
  8
0
100
AcDbLine
 10
117.0
 20
83.0
 30
0.0
 11
117.311
 21
75.42839999999991
 31
0.0
  0
LINE
  5
14E
330
1E
100
AcDbEntity
  8
0
100
AcDbLine
 10
150.8038566019849
 20
78.2246966160407
 30
0.0
 11
150.9079999999999
 21
78.4824
 31
0.0
  0
LINE
  5
14F
330
1E
100
AcDbEntity
  8
0
100
AcDbLine
 10
117.092
 20
78.4824
 30
0.0
 11
117.196143398015
 21
78.2246966160407
 31
0.0
  0
LINE
  5
150
330
1E
100
AcDbEntity
  8
0
100
AcDbLine
 10
150.514
 20
87.3714
 30
0.0
 11
151.0
 21
83.0
 31
0.0
  0
LINE
  5
151
330
1E
100
AcDbEntity
  8
0
100
AcDbLine
 10
150.9079999999999
 20
78.4824
 30
0.0
 11
151.5
 21
83.0
 31
0.0
  0
LINE
  5
152
330
1E
100
AcDbEntity
  8
0
100
AcDbLine
 10
160.3
 20
76.0
 30
0.0
 11
161.3
 21
83.0
 31
0.0
  0
LINE
  5
153
330
1E
100
AcDbEntity
  8
0
100
AcDbLine
 10
167.6999999999999
 20
83.0
 30
0.0
 11
167.6999999999999
 21
111.0
 31
0.0
  0
LINE
  5
154
330
1E
100
AcDbEntity
  8
0
100
AcDbLine
 10
167.6999999999999
 20
83.0
 30
0.0
 11
167.6999999999999
 21
54.99999999999989
 31
0.0
  0
LINE
  5
155
330
1E
100
AcDbEntity
  8
0
100
AcDbLine
 10
168.0
 20
83.0
 30
0.0
 11
168.0
 21
111.0
 31
0.0
  0
LINE
  5
156
330
1E
100
AcDbEntity
  8
0
100
AcDbLine
 10
168.0
 20
83.0
 30
0.0
 11
168.0
 21
54.99999999999989
 31
0.0
  0
LINE
  5
157
330
1E
100
AcDbEntity
  8
0
100
AcDbLine
 10
150.891614824794
 20
80.3869352042799
 30
0.0
 11
151.0
 21
82.3523999999999
 31
0.0
  0
LINE
  5
158
330
1E
100
AcDbEntity
  8
0
100
AcDbLine
 10
150.9079999999999
 20
87.5176
 30
0.0
 11
151.5
 21
83.0
 31
0.0
  0
LINE
  5
159
330
1E
100
AcDbEntity
  8
0
100
AcDbLine
 10
117.486
 20
87.3714
 30
0.0
 11
119.267
 21
91.41899999999999
 31
0.0
  0
LINE
  5
15A
330
1E
100
AcDbEntity
  8
0
100
AcDbLine
 10
117.0
 20
82.3523999999999
 30
0.0
 11
117.108385175206
 21
80.3869352042788
 31
0.0
  0
LINE
  5
15B
330
1E
100
AcDbEntity
  8
0
100
AcDbLine
 10
117.0
 20
82.3523999999999
 30
0.0
 11
117.0
 21
83.0
 31
0.0
  0
LINE
  5
15C
330
1E
100
AcDbEntity
  8
0
100
AcDbLine
 10
160.3
 20
90.0
 30
0.0
 11
161.3
 21
83.0
 31
0.0
  0
LINE
  5
15D
330
1E
100
AcDbEntity
  8
0
100
AcDbLine
 10
117.092
 20
87.5176
 30
0.0
 11
118.81
 21
91.7688
 31
0.0
  0
LINE
  5
15E
330
1E
100
AcDbEntity
  8
0
100
AcDbLine
 10
116.5
 20
83.0
 30
0.0
 11
117.092
 21
87.5176
 31
0.0
  0
LINE
  5
15F
330
1E
100
AcDbEntity
  8
0
100
AcDbLine
 10
116.5
 20
83.0
 30
0.0
 11
117.092
 21
78.4824
 31
0.0
  0
LINE
  5
160
330
1E
100
AcDbEntity
  8
0
100
AcDbLine
 10
148.733
 20
91.41899999999999
 30
0.0
 11
150.514
 21
87.3714
 31
0.0
  0
LINE
  5
161
330
1E
100
AcDbEntity
  8
0
100
AcDbLine
 10
149.19
 20
91.7688
 30
0.0
 11
150.9079999999999
 21
87.5176
 31
0.0
  0
LINE
  5
162
330
1E
100
AcDbEntity
  8
0
100
AcDbLine
 10
119.267
 20
91.41899999999999
 30
0.0
 11
121.857
 21
95.1429
 31
0.0
  0
LINE
  5
163
330
1E
100
AcDbEntity
  8
0
100
AcDbLine
 10
118.81
 20
91.7688
 30
0.0
 11
121.5999999999999
 21
95.4
 31
0.0
  0
LINE
  5
164
330
1E
100
AcDbEntity
  8
0
100
AcDbLine
 10
107.6999999999999
 20
90.0
 30
0.0
 11
110.4
 21
96.6
 31
0.0
  0
LINE
  5
165
330
1E
100
AcDbEntity
  8
0
100
AcDbLine
 10
106.6999999999999
 20
83.0
 30
0.0
 11
107.6999999999999
 21
90.0
 31
0.0
  0
LINE
  5
166
330
1E
100
AcDbEntity
  8
0
100
AcDbLine
 10
106.6999999999999
 20
83.0
 30
0.0
 11
107.6999999999999
 21
76.0
 31
0.0
  0
LINE
  5
167
330
1E
100
AcDbEntity
  8
0
100
AcDbLine
 10
30.1
 20
97.70000000000001
 30
0.0
 11
34.0
 21
98.3
 31
0.0
  0
LINE
  5
168
330
1E
100
AcDbEntity
  8
0
100
AcDbLine
 10
27.0
 20
109.2999999999999
 30
0.0
 11
34.0
 21
110.2999999999999
 31
0.0
  0
LINE
  5
169
330
1E
100
AcDbEntity
  8
0
100
AcDbLine
 10
34.0
 20
93.49999999999999
 30
0.0
 11
36.7
 21
93.1
 31
0.0
  0
LINE
  5
16A
330
1E
100
AcDbEntity
  8
0
100
AcDbLine
 10
36.7
 20
93.1
 30
0.0
 11
39.2
 21
92.09999999999999
 31
0.0
  0
LINE
  5
16D
330
1E
100
AcDbEntity
  8
0
100
AcDbLine
 10
41.6
 20
96.3
 30
0.0
 11
44.79999999999999
 21
93.8
 31
0.0
  0
LINE
  5
171
330
1E
100
AcDbEntity
  8
0
100
AcDbLine
 10
57.6
 20
96.6
 30
0.0
 11
60.3
 21
90.0
 31
0.0
  0
LINE
  5
172
330
1E
100
AcDbEntity
  8
0
100
AcDbLine
 10
146.143
 20
95.1429
 30
0.0
 11
148.733
 21
91.41899999999999
 31
0.0
  0
LINE
  5
173
330
1E
100
AcDbEntity
  8
0
100
AcDbLine
 10
146.4
 20
95.4
 30
0.0
 11
149.19
 21
91.7688
 31
0.0
  0
LINE
  5
174
330
1E
100
AcDbEntity
  8
0
100
AcDbLine
 10
157.6
 20
96.6
 30
0.0
 11
160.3
 21
90.0
 31
0.0
  0
LINE
  5
175
330
1E
100
AcDbEntity
  8
0
100
AcDbLine
 10
121.5999999999999
 20
95.4
 30
0.0
 11
125.231
 21
98.1895
 31
0.0
  0
LINE
  5
176
330
1E
100
AcDbEntity
  8
0
100
AcDbLine
 10
121.857
 20
95.1429
 30
0.0
 11
125.581
 21
97.73330000000001
 31
0.0
  0
LINE
  5
177
330
1E
100
AcDbEntity
  8
0
100
AcDbLine
 10
110.4
 20
96.6
 30
0.0
 11
114.7
 21
102.2999999999999
 31
0.0
  0
LINE
  5
179
330
1E
100
AcDbEntity
  8
0
100
AcDbLine
 10
37.9
 20
97.70000000000001
 30
0.0
 11
41.6
 21
96.3
 31
0.0
  0
LINE
  5
17A
330
1E
100
AcDbEntity
  8
0
100
AcDbLine
 10
34.0
 20
98.3
 30
0.0
 11
37.9
 21
97.70000000000001
 31
0.0
  0
LINE
  5
17B
330
1E
100
AcDbEntity
  8
0
100
AcDbLine
 10
47.6
 20
106.6
 30
0.0
 11
53.3
 21
102.2999999999999
 31
0.0
  0
LINE
  5
17C
330
1E
100
AcDbEntity
  8
0
100
AcDbLine
 10
41.0
 20
109.2999999999999
 30
0.0
 11
47.6
 21
106.6
 31
0.0
  0
LINE
  5
17D
330
1E
100
AcDbEntity
  8
0
100
AcDbLine
 10
34.0
 20
110.2999999999999
 30
0.0
 11
41.0
 21
109.2999999999999
 31
0.0
  0
LINE
  5
17F
330
1E
100
AcDbEntity
  8
0
100
AcDbLine
 10
53.3
 20
102.2999999999999
 30
0.0
 11
57.6
 21
96.6
 31
0.0
  0
LINE
  5
180
330
1E
100
AcDbEntity
  8
0
100
AcDbLine
 10
125.231
 20
98.1895
 30
0.0
 11
129.482
 21
99.9078
 31
0.0
  0
LINE
  5
181
330
1E
100
AcDbEntity
  8
0
100
AcDbLine
 10
142.769
 20
98.1895
 30
0.0
 11
146.4
 21
95.4
 31
0.0
  0
LINE
  5
182
330
1E
100
AcDbEntity
  8
0
100
AcDbLine
 10
142.4189999999999
 20
97.73330000000001
 30
0.0
 11
146.143
 21
95.1429
 31
0.0
  0
LINE
  5
183
330
1E
100
AcDbEntity
  8
0
100
AcDbLine
 10
125.581
 20
97.73330000000001
 30
0.0
 11
129.6289999999999
 21
99.51430000000001
 31
0.0
  0
LINE
  5
184
330
1E
100
AcDbEntity
  8
0
100
AcDbLine
 10
134.0
 20
100.5
 30
0.0
 11
138.518
 21
99.9078
 31
0.0
  0
LINE
  5
185
330
1E
100
AcDbEntity
  8
0
100
AcDbLine
 10
129.482
 20
99.9078
 30
0.0
 11
134.0
 21
100.5
 31
0.0
  0
LINE
  5
186
330
1E
100
AcDbEntity
  8
0
100
AcDbLine
 10
114.7
 20
102.2999999999999
 30
0.0
 11
120.4
 21
106.6
 31
0.0
  0
LINE
  5
187
330
1E
100
AcDbEntity
  8
0
100
AcDbLine
 10
84.0
 20
116.7
 30
0.0
 11
162.0
 21
116.7
 31
0.0
  0
LINE
  5
188
330
1E
100
AcDbEntity
  8
0
100
AcDbLine
 10
84.0
 20
117.0
 30
0.0
 11
162.0
 21
117.0
 31
0.0
  0
LINE
  5
189
330
1E
100
AcDbEntity
  8
0
100
AcDbLine
 10
120.4
 20
106.6
 30
0.0
 11
127.0
 21
109.2999999999999
 31
0.0
  0
LINE
  5
18A
330
1E
100
AcDbEntity
  8
0
100
AcDbLine
 10
134.0
 20
110.2999999999999
 30
0.0
 11
141.0
 21
109.2999999999999
 31
0.0
  0
LINE
  5
18B
330
1E
100
AcDbEntity
  8
0
100
AcDbLine
 10
127.0
 20
109.2999999999999
 30
0.0
 11
134.0
 21
110.2999999999999
 31
0.0
  0
LINE
  5
18D
330
1E
100
AcDbEntity
  8
0
100
AcDbLine
 10
138.518
 20
99.9078
 30
0.0
 11
142.769
 21
98.1895
 31
0.0
  0
LINE
  5
18E
330
1E
100
AcDbEntity
  8
0
100
AcDbLine
 10
153.3
 20
102.2999999999999
 30
0.0
 11
157.6
 21
96.6
 31
0.0
  0
LINE
  5
190
330
1E
100
AcDbEntity
  8
0
100
AcDbLine
 10
147.5999999999999
 20
106.6
 30
0.0
 11
153.3
 21
102.2999999999999
 31
0.0
  0
LINE
  5
191
330
1E
100
AcDbEntity
  8
0
100
AcDbLine
 10
141.0
 20
109.2999999999999
 30
0.0
 11
147.5999999999999
 21
106.6
 31
0.0
  0
LINE
  5
193
330
1E
100
AcDbEntity
  8
0
100
AcDbLine
 10
167.6999999999999
 20
111.0
 30
0.0
 11
167.6999999999999
 21
83.0
 31
0.0
  0
LINE
  5
194
330
1E
100
AcDbEntity
  8
0
100
AcDbLine
 10
166.9
 20
113.7999999999999
 30
0.0
 11
167.5
 21
112.5
 31
0.0
  0
LINE
  5
195
330
1E
100
AcDbEntity
  8
0
100
AcDbLine
 10
167.5
 20
112.5
 30
0.0
 11
167.6999999999999
 21
111.0
 31
0.0
  0
LINE
  5
196
330
1E
100
AcDbEntity
  8
0
100
AcDbLine
 10
162.0
 20
116.7
 30
0.0
 11
163.4999999999999
 21
116.5
 31
0.0
  0
LINE
  5
197
330
1E
100
AcDbEntity
  8
0
100
AcDbLine
 10
164.8
 20
115.9
 30
0.0
 11
166.0
 21
115.0
 31
0.0
  0
LINE
  5
198
330
1E
100
AcDbEntity
  8
0
100
AcDbLine
 10
163.4999999999999
 20
116.5
 30
0.0
 11
164.8
 21
115.9
 31
0.0
  0
LINE
  5
199
330
1E
100
AcDbEntity
  8
0
100
AcDbLine
 10
163.4999999999999
 20
116.7999999999999
 30
0.0
 11
165.0
 21
116.2
 31
0.0
  0
LINE
  5
19A
330
1E
100
AcDbEntity
  8
0
100
AcDbLine
 10
162.0
 20
117.0
 30
0.0
 11
163.4999999999999
 21
116.7999999999999
 31
0.0
  0
LINE
  5
19B
330
1E
100
AcDbEntity
  8
0
100
AcDbLine
 10
166.0
 20
115.0
 30
0.0
 11
166.9
 21
113.7999999999999
 31
0.0
  0
LINE
  5
19C
330
1E
100
AcDbEntity
  8
0
100
AcDbLine
 10
166.1999999999999
 20
115.2
 30
0.0
 11
167.1999999999999
 21
114.0
 31
0.0
  0
LINE
  5
19D
330
1E
100
AcDbEntity
  8
0
100
AcDbLine
 10
167.1999999999999
 20
114.0
 30
0.0
 11
167.8
 21
112.5
 31
0.0
  0
LINE
  5
19E
330
1E
100
AcDbEntity
  8
0
100
AcDbLine
 10
167.8
 20
112.5
 30
0.0
 11
168.0
 21
111.0
 31
0.0
  0
LINE
  5
19F
330
1E
100
AcDbEntity
  8
0
100
AcDbLine
 10
168.0
 20
111.0
 30
0.0
 11
168.0
 21
83.0
 31
0.0
  0
LINE
  5
1A0
330
1E
100
AcDbEntity
  8
0
100
AcDbLine
 10
134.0
 20
100.0
 30
0.0
 11
138.371
 21
99.51430000000001
 31
0.0
  0
LINE
  5
1A1
330
1E
100
AcDbEntity
  8
0
100
AcDbLine
 10
129.6289999999999
 20
99.51430000000001
 30
0.0
 11
134.0
 21
100.0
 31
0.0
  0
LINE
  5
1A4
330
1E
100
AcDbEntity
  8
0
100
AcDbLine
 10
31.3
 20
93.1
 30
0.0
 11
34.0
 21
93.49999999999999
 31
0.0
  0
LINE
  5
1A5
330
1E
100
AcDbEntity
  8
0
100
AcDbLine
 10
28.8
 20
92.09999999999999
 30
0.0
 11
31.3
 21
93.1
 31
0.0
  0
LINE
  5
1A6
330
1E
100
AcDbEntity
  8
0
100
AcDbLine
 10
26.6
 20
90.4
 30
0.0
 11
28.8
 21
92.09999999999999
 31
0.0
  0
LINE
  5
1A7
330
1E
100
AcDbEntity
  8
0
100
AcDbLine
 10
20.6070466022011
 20
75.6456625513256
 30
0.0
 11
20.69999999999999
 21
75.39999999999991
 31
0.0
  0
LINE
  5
1A9
330
1E
100
AcDbEntity
  8
0
100
AcDbLine
 10
10.4
 20
69.39999999999989
 30
0.0
 11
14.69999999999999
 21
63.7
 31
0.0
  0
LINE
  5
1AF
330
1E
100
AcDbEntity
  8
0
100
AcDbLine
 10
165.0
 20
116.2
 30
0.0
 11
166.1999999999999
 21
115.2
 31
0.0
  0
LINE
  5
1B0
330
1E
100
AcDbEntity
  8
0
100
AcDbLine
 10
163.4999999999999
 20
49.1999999999999
 30
0.0
 11
164.9215122945593
 21
49.88599766040664
 31
0.0
  0
LINE
  5
1B1
330
1E
100
AcDbEntity
  8
0
100
AcDbLine
 10
164.9215122945593
 20
49.88599766040664
 30
0.0
 11
166.2819791020066
 21
50.89739110975557
 31
0.0
  0
LINE
  5
1B2
330
1E
100
AcDbEntity
  8
0
100
AcDbLine
 10
166.2819791020066
 20
50.89739110975557
 30
0.0
 11
167.1999999999999
 21
51.99999999999989
 31
0.0
  0
LINE
  5
1B3
330
1E
100
AcDbEntity
  8
0
100
AcDbLine
 10
138.371
 20
99.51430000000001
 30
0.0
 11
142.4189999999999
 21
97.73330000000001
 31
0.0
  0
LINE
  5
1B4
330
1E
100
AcDbEntity
  8
0
100
AcDbLine
 10
120.4
 20
9.927269999999928
 30
0.0
 11
121.867
 21
6.745449999999929
 31
0.0
  0
LINE
  5
1B5
330
1E
100
AcDbEntity
  8
0
100
AcDbLine
 10
146.1329999999999
 20
6.745449999999929
 30
0.0
 11
147.5999999999999
 21
9.927269999999928
 31
0.0
  0
LINE
  5
1B6
330
1E
100
AcDbEntity
  8
0
100
AcDbLine
 10
44.79999999999999
 20
93.8
 30
0.0
 11
46.7714126535177
 21
91.32649388307601
 31
0.0
  0
LINE
  5
1B7
330
1E
100
AcDbEntity
  8
0
100
AcDbLine
 10
46.7714126535177
 20
91.32649388307601
 30
0.0
 11
48.00648153998714
 21
89.1571841464173
 31
0.0
  0
LINE
  5
1B8
330
1E
100
AcDbEntity
  8
0
100
AcDbLine
 10
48.00648153998714
 20
89.1571841464173
 30
0.0
 11
48.7
 21
86.90000000000001
 31
0.0
  0
ENDSEC
  0
SECTION
  2
OBJECTS
  0
DICTIONARY
  5
C
330
0
100
AcDbDictionary
281
     1
  3
ACAD_GROUP
350
D
  3
ACAD_LAYOUT
350
19
  3
ACAD_MLINESTYLE
350
16
  3
ACAD_PLOTSETTINGS
350
18
  3
ACAD_PLOTSTYLENAME
350
E
  3
AcDbVariableDictionary
350
1B9
  0
DICTIONARY
  5
D
102
{ACAD_REACTORS
330
C
102
}
330
C
100
AcDbDictionary
281
     1
  0
DICTIONARY
  5
19
102
{ACAD_REACTORS
330
C
102
}
330
C
100
AcDbDictionary
281
     1
  3
Layout1
350
1D
  3
Model
350
21
  0
DICTIONARY
  5
16
102
{ACAD_REACTORS
330
C
102
}
330
C
100
AcDbDictionary
281
     1
  3
Standard
350
17
  0
DICTIONARY
  5
18
102
{ACAD_REACTORS
330
C
102
}
330
C
100
AcDbDictionary
281
     1
  0
ACDBDICTIONARYWDFLT
  5
E
102
{ACAD_REACTORS
330
C
102
}
330
C
100
AcDbDictionary
281
     1
  3
Normal
350
F
100
AcDbDictionaryWithDefault
340
F
  0
DICTIONARY
  5
1B9
102
{ACAD_REACTORS
330
C
102
}
330
C
100
AcDbDictionary
281
     1
  3
DIMASSOC
350
1BA
  0
LAYOUT
  5
1D
102
{ACAD_REACTORS
330
19
102
}
330
19
100
AcDbPlotSettings
  1

  2
hp deskjet 980c series
  4

  6

 40
0.0
 41
0.0
 42
0.0
 43
0.0
 44
0.0
 45
0.0
 46
0.0
 47
0.0
 48
0.0
 49
0.0
140
0.0
141
0.0
142
1.0
143
1.0
 70
   688
 72
     0
 73
     0
 74
     5
  7

 75
    16
147
1.0
148
0.0
149
0.0
100
AcDbLayout
  1
Layout1
 70
     1
 71
     1
 10
0.0
 20
0.0
 11
12.0
 21
9.0
 12
0.0
 22
0.0
 32
0.0
 14
1.000000000000000E+20
 24
1.000000000000000E+20
 34
1.000000000000000E+20
 15
-1.000000000000000E+20
 25
-1.000000000000000E+20
 35
-1.000000000000000E+20
146
0.0
 13
0.0
 23
0.0
 33
0.0
 16
1.0
 26
0.0
 36
0.0
 17
0.0
 27
1.0
 37
0.0
 76
     0
330
1A
  0
LAYOUT
  5
21
102
{ACAD_REACTORS
330
19
102
}
330
19
100
AcDbPlotSettings
  1

  2
hp deskjet 980c series
  4

  6

 40
0.0
 41
0.0
 42
0.0
 43
0.0
 44
0.0
 45
0.0
 46
0.0
 47
0.0
 48
0.0
 49
0.0
140
0.0
141
0.0
142
1.0
143
1.0
 70
  1712
 72
     0
 73
     0
 74
     0
  7

 75
     0
147
1.0
148
0.0
149
0.0
100
AcDbLayout
  1
Model
 70
     1
 71
     0
 10
0.0
 20
0.0
 11
12.0
 21
9.0
 12
0.0
 22
0.0
 32
0.0
 14
0.0
 24
0.0
 34
0.0
 15
0.0
 25
0.0
 35
0.0
146
0.0
 13
0.0
 23
0.0
 33
0.0
 16
1.0
 26
0.0
 36
0.0
 17
0.0
 27
1.0
 37
0.0
 76
     0
330
1E
  0
MLINESTYLE
  5
17
102
{ACAD_REACTORS
330
16
102
}
330
16
100
AcDbMlineStyle
  2
STANDARD
 70
     0
  3

 62
   256
 51
90.0
 52
90.0
 71
     2
 49
0.5
 62
   256
  6
BYLAYER
 49
-0.5
 62
   256
  6
BYLAYER
  0
ACDBPLACEHOLDER
  5
F
102
{ACAD_REACTORS
330
E
102
}
330
E
  0
DICTIONARYVAR
  5
1BA
102
{ACAD_REACTORS
330
1B9
102
}
330
1B9
100
DictionaryVariables
280
     0
  1
1
  0
ENDSEC
  0
EOF
