  0
SECTION
  2
HEADER
  9
$ACADVER
  1
AC1015
  9
$ACADMAINTVER
 70
    13
  9
$DWGCODEPAGE
  3
ANSI_1252
  9
$INSBASE
 10
0.0
 20
0.0
 30
0.0
  9
$EXTMIN
 10
-0.143699999999999
 20
0.113009500000011
 30
0.0
  9
$EXTMAX
 10
51.1437
 20
166.8869905
 30
0.0
  9
$LIMMIN
 10
0.0
 20
0.0
  9
$LIMMAX
 10
12.0
 20
9.0
  9
$ORTHOMODE
 70
     0
  9
$REGENMODE
 70
     1
  9
$FILLMODE
 70
     1
  9
$QTEXTMODE
 70
     0
  9
$MIRRTEXT
 70
     1
  9
$LTSCALE
 40
1.0
  9
$ATTMODE
 70
     1
  9
$TEXTSIZE
 40
0.2
  9
$TRACEWID
 40
0.05
  9
$TEXTSTYLE
  7
Standard
  9
$CLAYER
  8
0
  9
$CELTYPE
  6
Continuous
  9
$CECOLOR
 62
   256
  9
$CELTSCALE
 40
1.0
  9
$DISPSILH
 70
     0
  9
$DIMSCALE
 40
1.0
  9
$DIMASZ
 40
0.18
  9
$DIMEXO
 40
0.0625
  9
$DIMDLI
 40
0.38
  9
$DIMRND
 40
0.0
  9
$DIMDLE
 40
0.0
  9
$DIMEXE
 40
0.18
  9
$DIMTP
 40
0.0
  9
$DIMTM
 40
0.0
  9
$DIMTXT
 40
0.18
  9
$DIMCEN
 40
0.09
  9
$DIMTSZ
 40
0.0
  9
$DIMTOL
 70
     0
  9
$DIMLIM
 70
     0
  9
$DIMTIH
 70
     1
  9
$DIMTOH
 70
     1
  9
$DIMSE1
 70
     0
  9
$DIMSE2
 70
     0
  9
$DIMTAD
 70
     0
  9
$DIMZIN
 70
     0
  9
$DIMBLK
  1

  9
$DIMASO
 70
     1
  9
$DIMSHO
 70
     1
  9
$DIMPOST
  1

  9
$DIMAPOST
  1

  9
$DIMALT
 70
     0
  9
$DIMALTD
 70
     2
  9
$DIMALTF
 40
25.4
  9
$DIMLFAC
 40
1.0
  9
$DIMTOFL
 70
     0
  9
$DIMTVP
 40
0.0
  9
$DIMTIX
 70
     0
  9
$DIMSOXD
 70
     0
  9
$DIMSAH
 70
     0
  9
$DIMBLK1
  1

  9
$DIMBLK2
  1

  9
$DIMSTYLE
  2
Standard
  9
$DIMCLRD
 70
     0
  9
$DIMCLRE
 70
     0
  9
$DIMCLRT
 70
     0
  9
$DIMTFAC
 40
1.0
  9
$DIMGAP
 40
0.09
  9
$DIMJUST
 70
     0
  9
$DIMSD1
 70
     0
  9
$DIMSD2
 70
     0
  9
$DIMTOLJ
 70
     1
  9
$DIMTZIN
 70
     0
  9
$DIMALTZ
 70
     0
  9
$DIMALTTZ
 70
     0
  9
$DIMUPT
 70
     0
  9
$DIMDEC
 70
     4
  9
$DIMTDEC
 70
     4
  9
$DIMALTU
 70
     2
  9
$DIMALTTD
 70
     2
  9
$DIMTXSTY
  7
Standard
  9
$DIMAUNIT
 70
     0
  9
$DIMADEC
 70
     0
  9
$DIMALTRND
 40
0.0
  9
$DIMAZIN
 70
     0
  9
$DIMDSEP
 70
    46
  9
$DIMATFIT
 70
     3
  9
$DIMFRAC
 70
     0
  9
$DIMLDRBLK
  1

  9
$DIMLUNIT
 70
     2
  9
$DIMLWD
 70
    -2
  9
$DIMLWE
 70
    -2
  9
$DIMTMOVE
 70
     0
  9
$LUNITS
 70
     2
  9
$LUPREC
 70
     4
  9
$SKETCHINC
 40
0.1
  9
$FILLETRAD
 40
0.0
  9
$AUNITS
 70
     0
  9
$AUPREC
 70
     0
  9
$MENU
  1
.
  9
$ELEVATION
 40
0.0
  9
$PELEVATION
 40
0.0
  9
$THICKNESS
 40
0.0
  9
$LIMCHECK
 70
     0
  9
$CHAMFERA
 40
0.0
  9
$CHAMFERB
 40
0.0
  9
$CHAMFERC
 40
0.0
  9
$CHAMFERD
 40
0.0
  9
$SKPOLY
 70
     0
  9
$TDCREATE
 40
2454637.649635926
  9
$TDUCREATE
 40
2454637.566302592
  9
$TDUPDATE
 40
2454637.664924733
  9
$TDUUPDATE
 40
2454637.581591400
  9
$TDINDWG
 40
0.0152888079
  9
$TDUSRTIMER
 40
0.0152888079
  9
$USRTIMER
 70
     1
  9
$ANGBASE
 50
0.0
  9
$ANGDIR
 70
     0
  9
$PDMODE
 70
     0
  9
$PDSIZE
 40
0.0
  9
$PLINEWID
 40
0.0
  9
$SPLFRAME
 70
     0
  9
$SPLINETYPE
 70
     6
  9
$SPLINESEGS
 70
     8
  9
$HANDSEED
  5
113
  9
$SURFTAB1
 70
     6
  9
$SURFTAB2
 70
     6
  9
$SURFTYPE
 70
     6
  9
$SURFU
 70
     6
  9
$SURFV
 70
     6
  9
$UCSBASE
  2

  9
$UCSNAME
  2

  9
$UCSORG
 10
0.0
 20
0.0
 30
0.0
  9
$UCSXDIR
 10
1.0
 20
0.0
 30
0.0
  9
$UCSYDIR
 10
0.0
 20
1.0
 30
0.0
  9
$UCSORTHOREF
  2

  9
$UCSORTHOVIEW
 70
     1
  9
$UCSORGTOP
 10
0.0
 20
0.0
 30
0.0
  9
$UCSORGBOTTOM
 10
0.0
 20
0.0
 30
0.0
  9
$UCSORGLEFT
 10
0.0
 20
0.0
 30
0.0
  9
$UCSORGRIGHT
 10
0.0
 20
0.0
 30
0.0
  9
$UCSORGFRONT
 10
0.0
 20
0.0
 30
0.0
  9
$UCSORGBACK
 10
0.0
 20
0.0
 30
0.0
  9
$PUCSBASE
  2

  9
$PUCSNAME
  2

  9
$PUCSORG
 10
0.0
 20
0.0
 30
0.0
  9
$PUCSXDIR
 10
1.0
 20
0.0
 30
0.0
  9
$PUCSYDIR
 10
0.0
 20
1.0
 30
0.0
  9
$PUCSORTHOREF
  2

  9
$PUCSORTHOVIEW
 70
     0
  9
$PUCSORGTOP
 10
0.0
 20
0.0
 30
0.0
  9
$PUCSORGBOTTOM
 10
0.0
 20
0.0
 30
0.0
  9
$PUCSORGLEFT
 10
0.0
 20
0.0
 30
0.0
  9
$PUCSORGRIGHT
 10
0.0
 20
0.0
 30
0.0
  9
$PUCSORGFRONT
 10
0.0
 20
0.0
 30
0.0
  9
$PUCSORGBACK
 10
0.0
 20
0.0
 30
0.0
  9
$USERI1
 70
     0
  9
$USERI2
 70
     0
  9
$USERI3
 70
     0
  9
$USERI4
 70
     0
  9
$USERI5
 70
     0
  9
$USERR1
 40
0.0
  9
$USERR2
 40
0.0
  9
$USERR3
 40
0.0
  9
$USERR4
 40
0.0
  9
$USERR5
 40
0.0
  9
$WORLDVIEW
 70
     1
  9
$SHADEDGE
 70
     3
  9
$SHADEDIF
 70
    70
  9
$TILEMODE
 70
     1
  9
$MAXACTVP
 70
    64
  9
$PINSBASE
 10
0.0
 20
0.0
 30
0.0
  9
$PLIMCHECK
 70
     0
  9
$PEXTMIN
 10
1.000000000000000E+20
 20
1.000000000000000E+20
 30
1.000000000000000E+20
  9
$PEXTMAX
 10
-1.000000000000000E+20
 20
-1.000000000000000E+20
 30
-1.000000000000000E+20
  9
$PLIMMIN
 10
0.0
 20
0.0
  9
$PLIMMAX
 10
12.0
 20
9.0
  9
$UNITMODE
 70
     0
  9
$VISRETAIN
 70
     1
  9
$PLINEGEN
 70
     0
  9
$PSLTSCALE
 70
     1
  9
$TREEDEPTH
 70
  3020
  9
$CMLSTYLE
  2
Standard
  9
$CMLJUST
 70
     0
  9
$CMLSCALE
 40
1.0
  9
$PROXYGRAPHICS
 70
     1
  9
$MEASUREMENT
 70
     0
  9
$CELWEIGHT
370
    -1
  9
$ENDCAPS
280
     0
  9
$JOINSTYLE
280
     0
  9
$LWDISPLAY
290
     0
  9
$INSUNITS
 70
     0
  9
$HYPERLINKBASE
  1

  9
$STYLESHEET
  1

  9
$XEDIT
290
     1
  9
$CEPSNTYPE
380
     0
  9
$PSTYLEMODE
290
     1
  9
$FINGERPRINTGUID
  2
{302E46A3-CAD8-4A35-9BC5-7A08F64C8E45}
  9
$VERSIONGUID
  2
{4366CB00-FAFF-407B-8CD4-756BDF03D24E}
  9
$EXTNAMES
290
     1
  9
$PSVPSCALE
 40
0.0
  9
$OLESTARTUP
290
     0
  0
ENDSEC
  0
SECTION
  2
CLASSES
  0
CLASS
  1
ACDBDICTIONARYWDFLT
  2
AcDbDictionaryWithDefault
  3
AutoCAD 2000
 90
        0
280
     0
281
     0
  0
CLASS
  1
ACDBPLACEHOLDER
  2
AcDbPlaceHolder
  3
AutoCAD 2000
 90
        0
280
     0
281
     0
  0
CLASS
  1
LAYOUT
  2
AcDbLayout
  3
AutoCAD 2000
 90
        0
280
     0
281
     0
  0
CLASS
  1
DICTIONARYVAR
  2
AcDbDictionaryVar
  3
AutoCAD 2000
 90
        0
280
     0
281
     0
  0
ENDSEC
  0
SECTION
  2
TABLES
  0
TABLE
  2
VPORT
  5
8
330
0
100
AcDbSymbolTable
 70
     4
  0
VPORT
  5
112
330
8
100
AcDbSymbolTableRecord
100
AcDbViewportTableRecord
  2
*Active
 70
     0
 10
0.0
 20
0.0
 11
1.0
 21
1.0
 12
25.5
 22
83.49999999999999
 13
0.0
 23
0.0
 14
1.0
 24
1.0
 15
0.0
 25
0.0
 16
0.0
 26
0.0
 36
1.0
 17
0.0
 27
0.0
 37
0.0
 40
168.0535767621483
 41
2.043533930857874
 42
50.0
 43
0.0
 44
0.0
 50
0.0
 51
0.0
 71
     0
 72
   100
 73
     1
 74
     3
 75
     0
 76
     0
 77
     0
 78
     0
281
     0
 65
     1
110
0.0
120
0.0
130
0.0
111
1.0
121
0.0
131
0.0
112
0.0
122
1.0
132
0.0
 79
     1
146
0.0
  0
ENDTAB
  0
TABLE
  2
LTYPE
  5
5
330
0
100
AcDbSymbolTable
 70
     1
  0
LTYPE
  5
13
330
5
100
AcDbSymbolTableRecord
100
AcDbLinetypeTableRecord
  2
ByBlock
 70
     0
  3

 72
    65
 73
     0
 40
0.0
  0
LTYPE
  5
14
330
5
100
AcDbSymbolTableRecord
100
AcDbLinetypeTableRecord
  2
ByLayer
 70
     0
  3

 72
    65
 73
     0
 40
0.0
  0
LTYPE
  5
15
330
5
100
AcDbSymbolTableRecord
100
AcDbLinetypeTableRecord
  2
Continuous
 70
     0
  3
Solid line
 72
    65
 73
     0
 40
0.0
  0
ENDTAB
  0
TABLE
  2
LAYER
  5
2
330
0
100
AcDbSymbolTable
 70
     1
  0
LAYER
  5
10
330
2
100
AcDbSymbolTableRecord
100
AcDbLayerTableRecord
  2
0
 70
     0
 62
     7
  6
Continuous
370
    -3
390
F
  0
ENDTAB
  0
TABLE
  2
STYLE
  5
3
330
0
100
AcDbSymbolTable
 70
     1
  0
STYLE
  5
11
330
3
100
AcDbSymbolTableRecord
100
AcDbTextStyleTableRecord
  2
Standard
 70
     0
 40
0.0
 41
1.0
 50
0.0
 71
     0
 42
0.2
  3
txt
  4

  0
ENDTAB
  0
TABLE
  2
VIEW
  5
6
330
0
100
AcDbSymbolTable
 70
     0
  0
ENDTAB
  0
TABLE
  2
UCS
  5
7
330
0
100
AcDbSymbolTable
 70
     0
  0
ENDTAB
  0
TABLE
  2
APPID
  5
9
330
0
100
AcDbSymbolTable
 70
     1
  0
APPID
  5
12
330
9
100
AcDbSymbolTableRecord
100
AcDbRegAppTableRecord
  2
ACAD
 70
     0
  0
ENDTAB
  0
TABLE
  2
DIMSTYLE
  5
A
330
0
100
AcDbSymbolTable
 70
     1
100
AcDbDimStyleTable
 71
     0
  0
DIMSTYLE
105
101
330
A
100
AcDbSymbolTableRecord
100
AcDbDimStyleTableRecord
  2
Standard
 70
     0
340
11
  0
ENDTAB
  0
TABLE
  2
BLOCK_RECORD
  5
1
330
0
100
AcDbSymbolTable
 70
     0
  0
BLOCK_RECORD
  5
1E
330
1
100
AcDbSymbolTableRecord
100
AcDbBlockTableRecord
  2
*Model_Space
340
21
  0
BLOCK_RECORD
  5
1A
330
1
100
AcDbSymbolTableRecord
100
AcDbBlockTableRecord
  2
*Paper_Space
340
1D
  0
ENDTAB
  0
ENDSEC
  0
SECTION
  2
BLOCKS
  0
BLOCK
  5
1F
330
1E
100
AcDbEntity
  8
0
100
AcDbBlockBegin
  2
*Model_Space
 70
     0
 10
0.0
 20
0.0
 30
0.0
  3
*Model_Space
  1

  0
ENDBLK
  5
20
330
1E
100
AcDbEntity
  8
0
100
AcDbBlockEnd
  0
BLOCK
  5
1B
330
1A
100
AcDbEntity
 67
     1
  8
0
100
AcDbBlockBegin
  2
*Paper_Space
 70
     0
 10
0.0
 20
0.0
 30
0.0
  3
*Paper_Space
  1

  0
ENDBLK
  5
1C
330
1A
100
AcDbEntity
 67
     1
  8
0
100
AcDbBlockEnd
  0
ENDSEC
  0
SECTION
  2
ENTITIES
  0
LINE
  5
22
330
1E
100
AcDbEntity
  8
0
100
AcDbLine
 10
0.102202000000001
 20
119.3919905
 30
0.0
 11
0.102202000000001
 21
139.4739905
 31
0.0
  0
LINE
  5
23
330
1E
100
AcDbEntity
  8
0
100
AcDbLine
 10
0.102202000000001
 20
119.3919905
 30
0.0
 11
0.266136000000001
 21
118.1619905
 31
0.0
  0
LINE
  5
24
330
1E
100
AcDbEntity
  8
0
100
AcDbLine
 10
-0.143699999999999
 20
119.3919905
 30
0.0
 11
-0.143699999999999
 21
139.4739905
 31
0.0
  0
LINE
  5
25
330
1E
100
AcDbEntity
  8
0
100
AcDbLine
 10
4.774329999999999
 20
114.4729905
 30
0.0
 11
8.808707709432038
 21
114.4729905
 31
0.0
  0
LINE
  5
26
330
1E
100
AcDbEntity
  8
0
100
AcDbLine
 10
0.266136000000001
 20
118.1619905
 30
0.0
 11
0.7579390000000011
 21
117.0959904999999
 31
0.0
  0
LINE
  5
27
330
1E
100
AcDbEntity
  8
0
100
AcDbLine
 10
0.7579390000000011
 20
117.0959904999999
 30
0.0
 11
1.495639999999999
 21
116.1129905
 31
0.0
  0
LINE
  5
28
330
1E
100
AcDbEntity
  8
0
100
AcDbLine
 10
0.5120380000000021
 20
116.9329905
 30
0.0
 11
1.331709999999999
 21
115.9489905
 31
0.0
  0
LINE
  5
29
330
1E
100
AcDbEntity
  8
0
100
AcDbLine
 10
1.495639999999999
 20
116.1129905
 30
0.0
 11
2.479249999999999
 21
115.3749905
 31
0.0
  0
LINE
  5
2A
330
1E
100
AcDbEntity
  8
0
100
AcDbLine
 10
2.479249999999999
 20
115.3749905
 30
0.0
 11
3.544819999999999
 21
114.8829905
 31
0.0
  0
LINE
  5
2B
330
1E
100
AcDbEntity
  8
0
100
AcDbLine
 10
3.544819999999999
 20
114.8829905
 30
0.0
 11
4.774329999999999
 21
114.7189905
 31
0.0
  0
LINE
  5
2C
330
1E
100
AcDbEntity
  8
0
100
AcDbLine
 10
4.774329999999999
 20
114.7189905
 30
0.0
 11
8.799336392423899
 21
114.7189905
 31
0.0
  0
LINE
  5
2D
330
1E
100
AcDbEntity
  8
0
100
AcDbLine
 10
4.774329999999999
 20
114.7189905
 30
0.0
 11
8.799336392423899
 21
114.7189905
 31
0.0
  0
LINE
  5
2E
330
1E
100
AcDbEntity
  8
0
100
AcDbLine
 10
4.774329999999999
 20
114.4729905
 30
0.0
 11
8.808707709432029
 21
114.4729905
 31
0.0
  0
LINE
  5
2F
330
1E
100
AcDbEntity
  8
0
100
AcDbLine
 10
0.102202000000001
 20
139.4739905
 30
0.0
 11
0.102202000000001
 21
159.5549905
 31
0.0
  0
LINE
  5
30
330
1E
100
AcDbEntity
  8
0
100
AcDbLine
 10
0.102202000000001
 20
139.4739905
 30
0.0
 11
0.102202000000001
 21
119.3919905
 31
0.0
  0
LINE
  5
31
330
1E
100
AcDbEntity
  8
0
100
AcDbLine
 10
-0.143699999999999
 20
139.4739905
 30
0.0
 11
-0.143699999999999
 21
159.5549905
 31
0.0
  0
LINE
  5
32
330
1E
100
AcDbEntity
  8
0
100
AcDbLine
 10
-0.143699999999999
 20
139.4739905
 30
0.0
 11
-0.143699999999999
 21
119.3919905
 31
0.0
  0
LINE
  5
33
330
1E
100
AcDbEntity
  8
0
100
AcDbLine
 10
6.2563
 20
134.3729905
 30
0.0
 11
8.156299999999999
 21
129.7739905
 31
0.0
  0
LINE
  5
34
330
1E
100
AcDbEntity
  8
0
100
AcDbLine
 10
5.7563
 20
139.4739905
 30
0.0
 11
6.2563
 21
144.5729905
 31
0.0
  0
LINE
  5
35
330
1E
100
AcDbEntity
  8
0
100
AcDbLine
 10
5.7563
 20
139.4739905
 30
0.0
 11
6.2563
 21
134.3729905
 31
0.0
  0
LINE
  5
38
330
1E
100
AcDbEntity
  8
0
100
AcDbLine
 10
7.8563
 20
138.6069905
 30
0.0
 11
7.8563
 21
139.4739905
 31
0.0
  0
LINE
  5
39
330
1E
100
AcDbEntity
  8
0
100
AcDbLine
 10
7.8563
 20
138.6069905
 30
0.0
 11
8.156299999999999
 21
130.2739904999999
 31
0.0
  0
LINE
  5
3B
330
1E
100
AcDbEntity
  8
0
100
AcDbLine
 10
7.8563
 20
140.1339905
 30
0.0
 11
8.34201
 21
144.3369905
 31
0.0
  0
LINE
  5
3D
330
1E
100
AcDbEntity
  8
0
100
AcDbLine
 10
7.8563
 20
140.1339905
 30
0.0
 11
7.8563
 21
139.4739905
 31
0.0
  0
LINE
  5
3E
330
1E
100
AcDbEntity
  8
0
100
AcDbLine
 10
7.8563
 20
139.4739905
 30
0.0
 11
7.8563
 21
138.6069905
 31
0.0
  0
LINE
  5
3F
330
1E
100
AcDbEntity
  8
0
100
AcDbLine
 10
7.8563
 20
139.4739905
 30
0.0
 11
7.8563
 21
140.1339905
 31
0.0
  0
LINE
  5
40
330
1E
100
AcDbEntity
  8
0
100
AcDbLine
 10
6.2563
 20
144.5729905
 30
0.0
 11
8.156299999999999
 21
149.1739905
 31
0.0
  0
LINE
  5
41
330
1E
100
AcDbEntity
  8
0
100
AcDbLine
 10
0.102202000000001
 20
159.5549905
 30
0.0
 11
0.266136000000001
 21
160.7849904999999
 31
0.0
  0
LINE
  5
42
330
1E
100
AcDbEntity
  8
0
100
AcDbLine
 10
0.102202000000001
 20
159.5549905
 30
0.0
 11
0.102202000000001
 21
139.4739905
 31
0.0
  0
LINE
  5
43
330
1E
100
AcDbEntity
  8
0
100
AcDbLine
 10
0.0202340000000013
 20
160.7849904999999
 30
0.0
 11
0.5120380000000021
 21
162.0139905
 31
0.0
  0
LINE
  5
44
330
1E
100
AcDbEntity
  8
0
100
AcDbLine
 10
0.7579390000000011
 20
161.8509904999999
 30
0.0
 11
1.495639999999999
 21
162.8339904999999
 31
0.0
  0
LINE
  5
45
330
1E
100
AcDbEntity
  8
0
100
AcDbLine
 10
0.266136000000001
 20
160.7849904999999
 30
0.0
 11
0.7579390000000011
 21
161.8509904999999
 31
0.0
  0
LINE
  5
46
330
1E
100
AcDbEntity
  8
0
100
AcDbLine
 10
0.5120380000000021
 20
162.0139905
 30
0.0
 11
1.331709999999999
 21
162.9979905
 31
0.0
  0
LINE
  5
47
330
1E
100
AcDbEntity
  8
0
100
AcDbLine
 10
0.0202340000000014
 20
160.7849904999999
 30
0.0
 11
0.5120380000000021
 21
162.0139905
 31
0.0
  0
LINE
  5
48
330
1E
100
AcDbEntity
  8
0
100
AcDbLine
 10
-0.143699999999999
 20
159.5549905
 30
0.0
 11
-0.143699999999999
 21
139.4739905
 31
0.0
  0
LINE
  5
49
330
1E
100
AcDbEntity
  8
0
100
AcDbLine
 10
-0.143699999999999
 20
159.5549905
 30
0.0
 11
0.0202340000000014
 21
160.7849904999999
 31
0.0
  0
LINE
  5
4A
330
1E
100
AcDbEntity
  8
0
100
AcDbLine
 10
-0.143699999999999
 20
159.5549905
 30
0.0
 11
0.0202340000000014
 21
160.7849904999999
 31
0.0
  0
LINE
  5
4B
330
1E
100
AcDbEntity
  8
0
100
AcDbLine
 10
1.495639999999999
 20
162.8339904999999
 30
0.0
 11
2.479249999999999
 21
163.5719905
 31
0.0
  0
LINE
  5
4C
330
1E
100
AcDbEntity
  8
0
100
AcDbLine
 10
1.331709999999999
 20
162.9979905
 30
0.0
 11
2.31532
 21
163.8179905
 31
0.0
  0
LINE
  5
4D
330
1E
100
AcDbEntity
  8
0
100
AcDbLine
 10
2.479249999999999
 20
163.5719905
 30
0.0
 11
3.544819999999999
 21
164.0639905
 31
0.0
  0
LINE
  5
4E
330
1E
100
AcDbEntity
  8
0
100
AcDbLine
 10
4.774329999999999
 20
164.2279905
 30
0.0
 11
24.8563
 21
164.2279905
 31
0.0
  0
LINE
  5
4F
330
1E
100
AcDbEntity
  8
0
100
AcDbLine
 10
3.544819999999999
 20
164.0639905
 30
0.0
 11
4.774329999999999
 21
164.2279905
 31
0.0
  0
LINE
  5
50
330
1E
100
AcDbEntity
  8
0
100
AcDbLine
 10
4.774329999999999
 20
164.2279905
 30
0.0
 11
24.8563
 21
164.2279905
 31
0.0
  0
LINE
  5
51
330
1E
100
AcDbEntity
  8
0
100
AcDbLine
 10
2.31532
 20
163.8179905
 30
0.0
 11
3.544819999999999
 21
164.3099904999999
 31
0.0
  0
LINE
  5
52
330
1E
100
AcDbEntity
  8
0
100
AcDbLine
 10
4.774329999999999
 20
164.4739905
 30
0.0
 11
24.8563
 21
164.4739905
 31
0.0
  0
LINE
  5
53
330
1E
100
AcDbEntity
  8
0
100
AcDbLine
 10
3.544819999999999
 20
164.3099904999999
 30
0.0
 11
4.774329999999999
 21
164.4739905
 31
0.0
  0
LINE
  5
54
330
1E
100
AcDbEntity
  8
0
100
AcDbLine
 10
4.774329999999999
 20
164.4739905
 30
0.0
 11
24.8563
 21
164.4739905
 31
0.0
  0
LINE
  5
55
330
1E
100
AcDbEntity
  8
0
100
AcDbLine
 10
8.156299999999999
 20
149.1739905
 30
0.0
 11
11.25629999999999
 21
153.0729905
 31
0.0
  0
LINE
  5
56
330
1E
100
AcDbEntity
  8
0
100
AcDbLine
 10
21.7706
 20
0.552671500000011
 30
0.0
 11
24.8563
 21
0.113009500000011
 31
0.0
  0
LINE
  5
57
330
1E
100
AcDbEntity
  8
0
100
AcDbLine
 10
14.4563
 20
5.938530500000009
 30
0.0
 11
16.3992
 21
3.520390500000009
 31
0.0
  0
LINE
  5
58
330
1E
100
AcDbEntity
  8
0
100
AcDbLine
 10
16.3992
 20
3.520390500000009
 30
0.0
 11
18.91339999999999
 21
1.65183050000001
 31
0.0
  0
LINE
  5
59
330
1E
100
AcDbEntity
  8
0
100
AcDbLine
 10
18.91339999999999
 20
1.65183050000001
 30
0.0
 11
21.7706
 21
0.552671500000011
 31
0.0
  0
LINE
  5
5A
330
1E
100
AcDbEntity
  8
0
100
AcDbLine
 10
18.91339999999999
 20
1.65183050000001
 30
0.0
 11
21.7706
 21
0.552671500000011
 31
0.0
  0
LINE
  5
5B
330
1E
100
AcDbEntity
  8
0
100
AcDbLine
 10
24.8563
 20
6.173490500000009
 30
0.0
 11
27.8563
 21
6.573490500000009
 31
0.0
  0
LINE
  5
5C
330
1E
100
AcDbEntity
  8
0
100
AcDbLine
 10
27.8563
 20
6.573490500000009
 30
0.0
 11
30.6563
 21
7.673490500000009
 31
0.0
  0
LINE
  5
5D
330
1E
100
AcDbEntity
  8
0
100
AcDbLine
 10
27.942
 20
0.552671500000011
 30
0.0
 11
30.79919999999999
 21
1.65183050000001
 31
0.0
  0
LINE
  5
5E
330
1E
100
AcDbEntity
  8
0
100
AcDbLine
 10
24.8563
 20
0.113009500000011
 30
0.0
 11
27.942
 21
0.552671500000011
 31
0.0
  0
LINE
  5
5F
330
1E
100
AcDbEntity
  8
0
100
AcDbLine
 10
35.2563
 20
5.938530500000009
 30
0.0
 11
36.3992
 21
8.686410500000009
 31
0.0
  0
LINE
  5
60
330
1E
100
AcDbEntity
  8
0
100
AcDbLine
 10
33.3134
 20
3.520390500000009
 30
0.0
 11
35.2563
 21
5.938530500000009
 31
0.0
  0
LINE
  5
61
330
1E
100
AcDbEntity
  8
0
100
AcDbLine
 10
30.79919999999999
 20
1.65183050000001
 30
0.0
 11
33.3134
 21
3.520390500000009
 31
0.0
  0
LINE
  5
62
330
1E
100
AcDbEntity
  8
0
100
AcDbLine
 10
27.942
 20
0.552671500000011
 30
0.0
 11
30.79919999999999
 21
1.65183050000001
 31
0.0
  0
LINE
  5
63
330
1E
100
AcDbEntity
  8
0
100
AcDbLine
 10
24.8563
 20
0.113009500000011
 30
0.0
 11
27.942
 21
0.552671500000011
 31
0.0
  0
LINE
  5
64
330
1E
100
AcDbEntity
  8
0
100
AcDbLine
 10
21.7706
 20
0.552671500000011
 30
0.0
 11
24.8563
 21
0.113009500000011
 31
0.0
  0
LINE
  5
65
330
1E
100
AcDbEntity
  8
0
100
AcDbLine
 10
13.31339999999999
 20
8.686410500000009
 30
0.0
 11
14.4563
 21
5.938530500000009
 31
0.0
  0
LINE
  5
66
330
1E
100
AcDbEntity
  8
0
100
AcDbLine
 10
12.8563
 20
13.2734905
 30
0.0
 11
12.8563
 21
11.6541905
 31
0.0
  0
LINE
  5
67
330
1E
100
AcDbEntity
  8
0
100
AcDbLine
 10
12.8563
 20
11.6541905
 30
0.0
 11
12.8563
 21
13.2734905
 31
0.0
  0
LINE
  5
68
330
1E
100
AcDbEntity
  8
0
100
AcDbLine
 10
12.8563
 20
11.6541905
 30
0.0
 11
13.31339999999999
 21
8.686410500000009
 31
0.0
  0
LINE
  5
69
330
1E
100
AcDbEntity
  8
0
100
AcDbLine
 10
13.3563
 20
17.67349049999999
 30
0.0
 11
13.7563
 21
14.6734905
 31
0.0
  0
LINE
  5
6B
330
1E
100
AcDbEntity
  8
0
100
AcDbLine
 10
13.7563
 20
14.6734905
 30
0.0
 11
14.8563
 21
11.87349049999999
 31
0.0
  0
LINE
  5
6D
330
1E
100
AcDbEntity
  8
0
100
AcDbLine
 10
14.8563
 20
11.87349049999999
 30
0.0
 11
16.6563
 21
9.473490500000009
 31
0.0
  0
LINE
  5
6E
330
1E
100
AcDbEntity
  8
0
100
AcDbLine
 10
16.6563
 20
9.473490500000009
 30
0.0
 11
19.0563
 21
7.673490500000009
 31
0.0
  0
LINE
  5
6F
330
1E
100
AcDbEntity
  8
0
100
AcDbLine
 10
30.6563
 20
7.673490500000009
 30
0.0
 11
33.0563
 21
9.473490500000009
 31
0.0
  0
LINE
  5
70
330
1E
100
AcDbEntity
  8
0
100
AcDbLine
 10
33.0563
 20
9.473490500000009
 30
0.0
 11
34.8563
 21
11.87349049999999
 31
0.0
  0
LINE
  5
71
330
1E
100
AcDbEntity
  8
0
100
AcDbLine
 10
34.8563
 20
11.87349049999999
 30
0.0
 11
35.95629999999999
 21
14.6734905
 31
0.0
  0
LINE
  5
72
330
1E
100
AcDbEntity
  8
0
100
AcDbLine
 10
35.95629999999999
 20
14.6734905
 30
0.0
 11
36.35629999999999
 21
17.67349049999999
 31
0.0
  0
LINE
  5
74
330
1E
100
AcDbEntity
  8
0
100
AcDbLine
 10
36.85629999999999
 20
11.6541905
 30
0.0
 11
36.85629999999999
 21
13.2734905
 31
0.0
  0
LINE
  5
75
330
1E
100
AcDbEntity
  8
0
100
AcDbLine
 10
36.3992
 20
8.686410500000009
 30
0.0
 11
36.85629999999999
 21
11.6541905
 31
0.0
  0
LINE
  5
77
330
1E
100
AcDbEntity
  8
0
100
AcDbLine
 10
37.0563
 20
16.87349049999999
 30
0.0
 11
37.2563
 21
21.1734905
 31
0.0
  0
LINE
  5
78
330
1E
100
AcDbEntity
  8
0
100
AcDbLine
 10
36.85629999999999
 20
13.2734905
 30
0.0
 11
36.85629999999999
 21
11.6541905
 31
0.0
  0
LINE
  5
79
330
1E
100
AcDbEntity
  8
0
100
AcDbLine
 10
36.85629999999999
 20
13.2734905
 30
0.0
 11
37.0563
 21
16.87349049999999
 31
0.0
  0
LINE
  5
7A
330
1E
100
AcDbEntity
  8
0
100
AcDbLine
 10
36.35629999999999
 20
17.67349049999999
 30
0.0
 11
38.61021779121289
 21
70.5742668937622
 31
0.0
  0
LINE
  5
7C
330
1E
100
AcDbEntity
  8
0
100
AcDbLine
 10
37.2563
 20
21.1734905
 30
0.0
 11
37.4563
 21
25.4734905
 31
0.0
  0
LINE
  5
80
330
1E
100
AcDbEntity
  8
0
100
AcDbLine
 10
19.0563
 20
7.673490500000009
 30
0.0
 11
21.8563
 21
6.573490500000009
 31
0.0
  0
LINE
  5
81
330
1E
100
AcDbEntity
  8
0
100
AcDbLine
 10
21.8563
 20
6.573490500000009
 30
0.0
 11
24.8563
 21
6.173490500000009
 31
0.0
  0
LINE
  5
82
330
1E
100
AcDbEntity
  8
0
100
AcDbLine
 10
12.6563
 20
16.87349049999999
 30
0.0
 11
12.8563
 21
13.2734905
 31
0.0
  0
LINE
  5
83
330
1E
100
AcDbEntity
  8
0
100
AcDbLine
 10
37.4563
 20
25.4734905
 30
0.0
 11
37.7563
 21
33.4734905
 31
0.0
  0
LINE
  5
84
330
1E
100
AcDbEntity
  8
0
100
AcDbLine
 10
12.4563
 20
21.1734905
 30
0.0
 11
12.6563
 21
16.87349049999999
 31
0.0
  0
LINE
  5
85
330
1E
100
AcDbEntity
  8
0
100
AcDbLine
 10
12.25629999999999
 20
25.4734905
 30
0.0
 11
12.4563
 21
21.1734905
 31
0.0
  0
LINE
  5
87
330
1E
100
AcDbEntity
  8
0
100
AcDbLine
 10
10.85629999999999
 20
73.07569050000001
 30
0.0
 11
11.25629999999999
 21
69.3027905
 31
0.0
  0
LINE
  5
88
330
1E
100
AcDbEntity
  8
0
100
AcDbLine
 10
11.1023822087871
 20
70.5742668937622
 30
0.0
 11
13.3563
 21
17.67349049999999
 31
0.0
  0
LINE
  5
89
330
1E
100
AcDbEntity
  8
0
100
AcDbLine
 10
11.25629999999999
 20
69.3027905
 30
0.0
 11
12.72299999999999
 21
66.2427905
 31
0.0
  0
LINE
  5
8A
330
1E
100
AcDbEntity
  8
0
100
AcDbLine
 10
11.1023822087871
 20
70.5742668937622
 30
0.0
 11
13.3563
 21
17.67349049999999
 31
0.0
  0
LINE
  5
8B
330
1E
100
AcDbEntity
  8
0
100
AcDbLine
 10
8.34201
 20
144.3369905
 30
0.0
 11
10.12299999999999
 21
148.2289905
 31
0.0
  0
LINE
  5
8D
330
1E
100
AcDbEntity
  8
0
100
AcDbLine
 10
9.252399999999999
 20
111.3289905
 30
0.0
 11
9.30832
 21
109.8649905
 31
0.0
  0
LINE
  5
8E
330
1E
100
AcDbEntity
  8
0
100
AcDbLine
 10
8.408768290359079
 20
124.971525231733
 30
0.0
 11
9.30832
 21
110.3559905
 31
0.0
  0
LINE
  5
8F
330
1E
100
AcDbEntity
  8
0
100
AcDbLine
 10
9.30832
 20
110.3559905
 30
0.0
 11
10.85629999999999
 21
73.07569050000001
 31
0.0
  0
LINE
  5
90
330
1E
100
AcDbEntity
  8
0
100
AcDbLine
 10
10.12299999999999
 20
148.2289905
 30
0.0
 11
12.7134
 21
151.8099904999999
 31
0.0
  0
LINE
  5
94
330
1E
100
AcDbEntity
  8
0
100
AcDbLine
 10
12.7134
 20
151.8099904999999
 30
0.0
 11
16.4372
 21
154.3009905
 31
0.0
  0
LINE
  5
96
330
1E
100
AcDbEntity
  8
0
100
AcDbLine
 10
16.4372
 20
154.3009905
 30
0.0
 11
20.4849
 21
156.0139904999999
 31
0.0
  0
LINE
  5
98
330
1E
100
AcDbEntity
  8
0
100
AcDbLine
 10
12.72299999999999
 20
66.2427905
 30
0.0
 11
14.8563
 21
63.4281905
 31
0.0
  0
LINE
  5
99
330
1E
100
AcDbEntity
  8
0
100
AcDbLine
 10
14.8563
 20
63.4281905
 30
0.0
 11
17.923
 21
61.4703905
 31
0.0
  0
LINE
  5
9A
330
1E
100
AcDbEntity
  8
0
100
AcDbLine
 10
17.923
 20
61.4703905
 30
0.0
 11
21.2563
 21
60.1241905
 31
0.0
  0
LINE
  5
9C
330
1E
100
AcDbEntity
  8
0
100
AcDbLine
 10
11.25629999999999
 20
153.0729905
 30
0.0
 11
15.15629999999999
 21
156.1739905
 31
0.0
  0
LINE
  5
9D
330
1E
100
AcDbEntity
  8
0
100
AcDbLine
 10
15.15629999999999
 20
156.1739905
 30
0.0
 11
19.75629999999999
 21
158.0729905
 31
0.0
  0
LINE
  5
9E
330
1E
100
AcDbEntity
  8
0
100
AcDbLine
 10
24.8563
 20
59.7568905
 30
0.0
 11
28.323
 21
60.0883905
 31
0.0
  0
LINE
  5
9F
330
1E
100
AcDbEntity
  8
0
100
AcDbLine
 10
28.323
 20
60.0883905
 30
0.0
 11
28.45629999999999
 21
60.1241905
 31
0.0
  0
LINE
  5
A0
330
1E
100
AcDbEntity
  8
0
100
AcDbLine
 10
20.4849
 20
156.0139904999999
 30
0.0
 11
24.8563
 21
156.4809904999999
 31
0.0
  0
LINE
  5
A2
330
1E
100
AcDbEntity
  8
0
100
AcDbLine
 10
28.45629999999999
 20
60.1241905
 30
0.0
 11
31.7896
 21
61.4703905
 31
0.0
  0
LINE
  5
A4
330
1E
100
AcDbEntity
  8
0
100
AcDbLine
 10
29.22769999999999
 20
156.0139904999999
 30
0.0
 11
33.27539999999999
 21
154.3009905
 31
0.0
  0
LINE
  5
A5
330
1E
100
AcDbEntity
  8
0
100
AcDbLine
 10
24.8563
 20
156.4809904999999
 30
0.0
 11
29.22769999999999
 21
156.0139904999999
 31
0.0
  0
LINE
  5
A6
330
1E
100
AcDbEntity
  8
0
100
AcDbLine
 10
21.2563
 20
60.1241905
 30
0.0
 11
21.3896
 21
60.0883905
 31
0.0
  0
LINE
  5
A7
330
1E
100
AcDbEntity
  8
0
100
AcDbLine
 10
21.3896
 20
60.0883905
 30
0.0
 11
24.8563
 21
59.7568905
 31
0.0
  0
LINE
  5
AA
330
1E
100
AcDbEntity
  8
0
100
AcDbLine
 10
34.8563
 20
63.4281905
 30
0.0
 11
36.9896
 21
66.2427905
 31
0.0
  0
LINE
  5
AB
330
1E
100
AcDbEntity
  8
0
100
AcDbLine
 10
36.9896
 20
66.2427905
 30
0.0
 11
38.45629999999999
 21
69.3027905
 31
0.0
  0
LINE
  5
AC
330
1E
100
AcDbEntity
  8
0
100
AcDbLine
 10
31.7896
 20
61.4703905
 30
0.0
 11
34.8563
 21
63.4281905
 31
0.0
  0
LINE
  5
AD
330
1E
100
AcDbEntity
  8
0
100
AcDbLine
 10
38.45629999999999
 20
69.3027905
 30
0.0
 11
38.85629999999999
 21
72.60709049999999
 31
0.0
  0
LINE
  5
AF
330
1E
100
AcDbEntity
  8
0
100
AcDbLine
 10
38.85629999999999
 20
72.60709049999999
 30
0.0
 11
40.40429999999999
 21
109.8649905
 31
0.0
  0
LINE
  5
B0
330
1E
100
AcDbEntity
  8
0
100
AcDbLine
 10
37.79507410312089
 20
150.7097646031209
 30
0.0
 11
40.6433
 21
153.5579905
 31
0.0
  0
LINE
  5
B1
330
1E
100
AcDbEntity
  8
0
100
AcDbLine
 10
34.7454945002253
 20
153.3175850002249
 30
0.0
 11
37.8149
 21
156.3869904999999
 31
0.0
  0
LINE
  5
B2
330
1E
100
AcDbEntity
  8
0
100
AcDbLine
 10
36.9992
 20
151.8099904999999
 30
0.0
 11
39.58959999999999
 21
148.2289905
 31
0.0
  0
LINE
  5
B3
330
1E
100
AcDbEntity
  8
0
100
AcDbLine
 10
33.27539999999999
 20
154.3009905
 30
0.0
 11
36.9992
 21
151.8099904999999
 31
0.0
  0
LINE
  5
B5
330
1E
100
AcDbEntity
  8
0
100
AcDbLine
 10
39.58959999999999
 20
148.2289905
 30
0.0
 11
41.3706
 21
144.3369905
 31
0.0
  0
LINE
  5
B6
330
1E
100
AcDbEntity
  8
0
100
AcDbLine
 10
39.2101505500786
 20
152.1248410500789
 30
0.0
 11
41.5563
 21
149.1739905
 31
0.0
  0
LINE
  5
B7
330
1E
100
AcDbEntity
  8
0
100
AcDbLine
 10
38.0268
 20
156.5989905
 30
0.0
 11
38.3639
 21
156.9359904999999
 31
0.0
  0
LINE
  5
B8
330
1E
100
AcDbEntity
  8
0
100
AcDbLine
 10
37.8149
 20
156.3869904999999
 30
0.0
 11
38.0268
 21
156.5989905
 31
0.0
  0
LINE
  5
B9
330
1E
100
AcDbEntity
  8
0
100
AcDbLine
 10
38.80319999999999
 20
157.3749904999999
 30
0.0
 11
39.3148
 21
157.8869904999999
 31
0.0
  0
LINE
  5
BA
330
1E
100
AcDbEntity
  8
0
100
AcDbLine
 10
39.3148
 20
157.8869904999999
 30
0.0
 11
39.8639
 21
158.4359905
 31
0.0
  0
LINE
  5
BB
330
1E
100
AcDbEntity
  8
0
100
AcDbLine
 10
38.3639
 20
156.9359904999999
 30
0.0
 11
38.80319999999999
 21
157.3749904999999
 31
0.0
  0
LINE
  5
BC
330
1E
100
AcDbEntity
  8
0
100
AcDbLine
 10
39.8639
 20
158.4359905
 30
0.0
 11
48.25849999999999
 21
166.8309905
 31
0.0
  0
LINE
  5
BD
330
1E
100
AcDbEntity
  8
0
100
AcDbLine
 10
34.5563
 20
156.1739905
 30
0.0
 11
36.25289191544069
 21
154.8249824154409
 31
0.0
  0
LINE
  5
BE
330
1E
100
AcDbEntity
  8
0
100
AcDbLine
 10
29.9563
 20
158.0729905
 30
0.0
 11
34.5563
 21
156.1739905
 31
0.0
  0
LINE
  5
BF
330
1E
100
AcDbEntity
  8
0
100
AcDbLine
 10
24.8563
 20
164.2279905
 30
0.0
 11
44.93829999999999
 21
164.2279905
 31
0.0
  0
LINE
  5
C0
330
1E
100
AcDbEntity
  8
0
100
AcDbLine
 10
24.8563
 20
164.4739905
 30
0.0
 11
44.93829999999999
 21
164.4739905
 31
0.0
  0
LINE
  5
C1
330
1E
100
AcDbEntity
  8
0
100
AcDbLine
 10
24.8563
 20
158.5729904999999
 30
0.0
 11
29.9563
 21
158.0729905
 31
0.0
  0
LINE
  5
C2
330
1E
100
AcDbEntity
  8
0
100
AcDbLine
 10
40.40429999999999
 20
109.8649905
 30
0.0
 11
40.4602
 21
111.3289905
 31
0.0
  0
LINE
  5
C4
330
1E
100
AcDbEntity
  8
0
100
AcDbLine
 10
40.40429999999999
 20
110.3559905
 30
0.0
 11
41.3038317096409
 21
124.971525231733
 31
0.0
  0
LINE
  5
C5
330
1E
100
AcDbEntity
  8
0
100
AcDbLine
 10
46.1678
 20
114.8829905
 30
0.0
 11
47.23329999999999
 21
115.3749905
 31
0.0
  0
LINE
  5
C6
330
1E
100
AcDbEntity
  8
0
100
AcDbLine
 10
44.93829999999999
 20
114.7189905
 30
0.0
 11
46.1678
 21
114.8829905
 31
0.0
  0
LINE
  5
C7
330
1E
100
AcDbEntity
  8
0
100
AcDbLine
 10
40.9132636075761
 20
114.7189905
 30
0.0
 11
44.93829999999999
 21
114.7189905
 31
0.0
  0
LINE
  5
C8
330
1E
100
AcDbEntity
  8
0
100
AcDbLine
 10
48.21699999999999
 20
116.1129905
 30
0.0
 11
48.9547
 21
117.0959904999999
 31
0.0
  0
LINE
  5
C9
330
1E
100
AcDbEntity
  8
0
100
AcDbLine
 10
48.9547
 20
117.0959904999999
 30
0.0
 11
49.4465
 21
118.1619905
 31
0.0
  0
LINE
  5
CA
330
1E
100
AcDbEntity
  8
0
100
AcDbLine
 10
49.6104
 20
119.3919905
 30
0.0
 11
49.6104
 21
139.4739905
 31
0.0
  0
LINE
  5
CB
330
1E
100
AcDbEntity
  8
0
100
AcDbLine
 10
49.4465
 20
118.1619905
 30
0.0
 11
49.6104
 21
119.3919905
 31
0.0
  0
LINE
  5
CC
330
1E
100
AcDbEntity
  8
0
100
AcDbLine
 10
49.8563
 20
119.3919905
 30
0.0
 11
49.8563
 21
139.4739905
 31
0.0
  0
LINE
  5
CD
330
1E
100
AcDbEntity
  8
0
100
AcDbLine
 10
48.3809
 20
115.9489905
 30
0.0
 11
49.2006
 21
116.9329905
 31
0.0
  0
LINE
  5
CE
330
1E
100
AcDbEntity
  8
0
100
AcDbLine
 10
47.23329999999999
 20
115.3749905
 30
0.0
 11
48.21699999999999
 21
116.1129905
 31
0.0
  0
LINE
  5
CF
330
1E
100
AcDbEntity
  8
0
100
AcDbLine
 10
47.3973
 20
115.1289905
 30
0.0
 11
48.3809
 21
115.9489905
 31
0.0
  0
LINE
  5
D0
330
1E
100
AcDbEntity
  8
0
100
AcDbLine
 10
40.90389229056799
 20
114.4729905
 30
0.0
 11
44.93829999999999
 21
114.4729905
 31
0.0
  0
LINE
  5
D2
330
1E
100
AcDbEntity
  8
0
100
AcDbLine
 10
41.3706
 20
144.3369905
 30
0.0
 11
41.85629999999999
 21
140.1339905
 31
0.0
  0
LINE
  5
D4
330
1E
100
AcDbEntity
  8
0
100
AcDbLine
 10
41.5563
 20
129.7739905
 30
0.0
 11
43.45629999999999
 21
134.3729905
 31
0.0
  0
LINE
  5
D5
330
1E
100
AcDbEntity
  8
0
100
AcDbLine
 10
40.6433
 20
153.5579905
 30
0.0
 11
40.8552
 21
153.7699905
 31
0.0
  0
LINE
  5
D6
330
1E
100
AcDbEntity
  8
0
100
AcDbLine
 10
41.1923
 20
154.1079905
 30
0.0
 11
41.6317
 21
154.5469905
 31
0.0
  0
LINE
  5
D7
330
1E
100
AcDbEntity
  8
0
100
AcDbLine
 10
40.8552
 20
153.7699905
 30
0.0
 11
41.1923
 21
154.1079905
 31
0.0
  0
LINE
  5
D8
330
1E
100
AcDbEntity
  8
0
100
AcDbLine
 10
41.5563
 20
149.1739905
 30
0.0
 11
43.45629999999999
 21
144.5729905
 31
0.0
  0
LINE
  5
D9
330
1E
100
AcDbEntity
  8
0
100
AcDbLine
 10
41.72089999999999
 20
136.9549905
 30
0.0
 11
41.85629999999999
 21
140.1339905
 31
0.0
  0
LINE
  5
DA
330
1E
100
AcDbEntity
  8
0
100
AcDbLine
 10
43.45629999999999
 20
134.3729905
 30
0.0
 11
43.95629999999999
 21
139.4739905
 31
0.0
  0
LINE
  5
DB
330
1E
100
AcDbEntity
  8
0
100
AcDbLine
 10
49.6104
 20
139.4739905
 30
0.0
 11
49.6104
 21
119.3919905
 31
0.0
  0
LINE
  5
DC
330
1E
100
AcDbEntity
  8
0
100
AcDbLine
 10
49.6104
 20
139.4739905
 30
0.0
 11
49.6104
 21
159.5549905
 31
0.0
  0
LINE
  5
DD
330
1E
100
AcDbEntity
  8
0
100
AcDbLine
 10
41.6317
 20
154.5469905
 30
0.0
 11
42.1433
 21
155.0579905
 31
0.0
  0
LINE
  5
DE
330
1E
100
AcDbEntity
  8
0
100
AcDbLine
 10
42.6923
 20
155.6079904999999
 30
0.0
 11
51.08699999999999
 21
164.0019905
 31
0.0
  0
LINE
  5
DF
330
1E
100
AcDbEntity
  8
0
100
AcDbLine
 10
42.1433
 20
155.0579905
 30
0.0
 11
42.6923
 21
155.6079904999999
 31
0.0
  0
LINE
  5
E0
330
1E
100
AcDbEntity
  8
0
100
AcDbLine
 10
49.6104
 20
159.5549905
 30
0.0
 11
49.6104
 21
139.4739905
 31
0.0
  0
LINE
  5
E1
330
1E
100
AcDbEntity
  8
0
100
AcDbLine
 10
48.9547
 20
161.8509904999999
 30
0.0
 11
49.4465
 21
160.7849904999999
 31
0.0
  0
LINE
  5
E2
330
1E
100
AcDbEntity
  8
0
100
AcDbLine
 10
49.4465
 20
160.7849904999999
 30
0.0
 11
49.6104
 21
159.5549905
 31
0.0
  0
LINE
  5
E3
330
1E
100
AcDbEntity
  8
0
100
AcDbLine
 10
49.1543541613548
 20
162.069505816856
 30
0.0
 11
49.2006
 21
162.0139905
 31
0.0
  0
LINE
  5
E4
330
1E
100
AcDbEntity
  8
0
100
AcDbLine
 10
49.2006
 20
162.0139905
 30
0.0
 11
49.6924
 21
160.7849904999999
 31
0.0
  0
LINE
  5
E5
330
1E
100
AcDbEntity
  8
0
100
AcDbLine
 10
50.957
 20
164.3129905
 30
0.0
 11
51.0928
 21
164.1779904999999
 31
0.0
  0
LINE
  5
E6
330
1E
100
AcDbEntity
  8
0
100
AcDbLine
 10
51.0928
 20
164.1779904999999
 30
0.0
 11
51.1437
 21
164.1269905
 31
0.0
  0
LINE
  5
E7
330
1E
100
AcDbEntity
  8
0
100
AcDbLine
 10
51.08699999999999
 20
164.0019905
 30
0.0
 11
51.1437
 21
164.1269905
 31
0.0
  0
LINE
  5
E8
330
1E
100
AcDbEntity
  8
0
100
AcDbLine
 10
49.6924
 20
160.7849904999999
 30
0.0
 11
49.8563
 21
159.5549905
 31
0.0
  0
LINE
  5
E9
330
1E
100
AcDbEntity
  8
0
100
AcDbLine
 10
49.8563
 20
159.5549905
 30
0.0
 11
49.8563
 21
139.4739905
 31
0.0
  0
LINE
  5
EA
330
1E
100
AcDbEntity
  8
0
100
AcDbLine
 10
44.93829999999999
 20
164.2279905
 30
0.0
 11
45.5712062331256
 21
164.1435686844389
 31
0.0
  0
LINE
  5
EB
330
1E
100
AcDbEntity
  8
0
100
AcDbLine
 10
48.38309999999999
 20
166.8869905
 30
0.0
 11
48.43399999999999
 21
166.8359905
 31
0.0
  0
LINE
  5
EC
330
1E
100
AcDbEntity
  8
0
100
AcDbLine
 10
48.43399999999999
 20
166.8359905
 30
0.0
 11
48.5698
 21
166.7009905
 31
0.0
  0
LINE
  5
ED
330
1E
100
AcDbEntity
  8
0
100
AcDbLine
 10
48.5698
 20
166.7009905
 30
0.0
 11
48.79039999999999
 21
166.4799905
 31
0.0
  0
LINE
  5
EE
330
1E
100
AcDbEntity
  8
0
100
AcDbLine
 10
48.79039999999999
 20
166.4799905
 30
0.0
 11
49.0789
 21
166.1909904999999
 31
0.0
  0
LINE
  5
EF
330
1E
100
AcDbEntity
  8
0
100
AcDbLine
 10
48.25849999999999
 20
166.8309905
 30
0.0
 11
48.38309999999999
 21
166.8869905
 31
0.0
  0
LINE
  5
F0
330
1E
100
AcDbEntity
  8
0
100
AcDbLine
 10
49.0789
 20
166.1909904999999
 30
0.0
 11
49.40699999999999
 21
165.8629904999999
 31
0.0
  0
LINE
  5
F1
330
1E
100
AcDbEntity
  8
0
100
AcDbLine
 10
50.73640000000001
 20
164.5339905
 30
0.0
 11
50.957
 21
164.3129905
 31
0.0
  0
LINE
  5
F2
330
1E
100
AcDbEntity
  8
0
100
AcDbLine
 10
50.1198
 20
165.1509905
 30
0.0
 11
50.44789999999999
 21
164.8229904999999
 31
0.0
  0
LINE
  5
F3
330
1E
100
AcDbEntity
  8
0
100
AcDbLine
 10
49.7634
 20
165.5069904999999
 30
0.0
 11
50.1198
 21
165.1509905
 31
0.0
  0
LINE
  5
F4
330
1E
100
AcDbEntity
  8
0
100
AcDbLine
 10
50.44789999999999
 20
164.8229904999999
 30
0.0
 11
50.73640000000001
 21
164.5339905
 31
0.0
  0
LINE
  5
F5
330
1E
100
AcDbEntity
  8
0
100
AcDbLine
 10
49.40699999999999
 20
165.8629904999999
 30
0.0
 11
49.7634
 21
165.5069904999999
 31
0.0
  0
LINE
  5
F6
330
1E
100
AcDbEntity
  8
0
100
AcDbLine
 10
44.93829999999999
 20
164.4739905
 30
0.0
 11
45.788245547579
 21
164.360618340746
 31
0.0
  0
LINE
  5
F7
330
1E
100
AcDbEntity
  8
0
100
AcDbLine
 10
43.45629999999999
 20
144.5729905
 30
0.0
 11
43.95629999999999
 21
139.4739905
 31
0.0
  0
LINE
  5
F8
330
1E
100
AcDbEntity
  8
0
100
AcDbLine
 10
49.8563
 20
139.4739905
 30
0.0
 11
49.8563
 21
119.3919905
 31
0.0
  0
LINE
  5
F9
330
1E
100
AcDbEntity
  8
0
100
AcDbLine
 10
49.8563
 20
139.4739905
 30
0.0
 11
49.8563
 21
159.5549905
 31
0.0
  0
LINE
  5
FB
330
1E
100
AcDbEntity
  8
0
100
AcDbLine
 10
41.3038317096409
 20
124.971525231733
 30
0.0
 11
41.72089999999999
 21
136.9549905
 31
0.0
  0
LINE
  5
FD
330
1E
100
AcDbEntity
  8
0
100
AcDbLine
 10
37.7563
 20
33.4734905
 30
0.0
 11
40.90389229056799
 21
114.4729905
 31
0.0
  0
LINE
  5
FE
330
1E
100
AcDbEntity
  8
0
100
AcDbLine
 10
19.75629999999999
 20
158.0729905
 30
0.0
 11
24.8563
 21
158.5729904999999
 31
0.0
  0
LINE
  5
FF
330
1E
100
AcDbEntity
  8
0
100
AcDbLine
 10
8.808707709432029
 20
114.4729905
 30
0.0
 11
12.25629999999999
 21
25.4734905
 31
0.0
  0
LINE
  5
100
330
1E
100
AcDbEntity
  8
0
100
AcDbLine
 10
8.156299999999999
 20
130.2739904999999
 30
0.0
 11
8.408768290359079
 21
124.971525231733
 31
0.0
  0
LINE
  5
105
330
1E
100
AcDbEntity
  8
0
100
AcDbLine
 10
-0.143699999999999
 20
119.3919905
 30
0.0
 11
0.0166153228478834
 21
118.0290514721751
 31
0.0
  0
LINE
  5
106
330
1E
100
AcDbEntity
  8
0
100
AcDbLine
 10
0.0166153228478834
 20
118.0290514721751
 30
0.0
 11
0.5120380000000021
 21
116.9329905
 31
0.0
  0
LINE
  5
107
330
1E
100
AcDbEntity
  8
0
100
AcDbLine
 10
1.331709999999999
 20
115.9489905
 30
0.0
 11
2.253389547563756
 21
115.2235049599951
 31
0.0
  0
LINE
  5
108
330
1E
100
AcDbEntity
  8
0
100
AcDbLine
 10
2.253389547563756
 20
115.2235049599951
 30
0.0
 11
3.50872239593832
 21
114.6304626523628
 31
0.0
  0
LINE
  5
109
330
1E
100
AcDbEntity
  8
0
100
AcDbLine
 10
3.50872239593832
 20
114.6304626523628
 30
0.0
 11
4.774329999999999
 21
114.4729905
 31
0.0
  0
LINE
  5
10A
330
1E
100
AcDbEntity
  8
0
100
AcDbLine
 10
44.93829999999999
 20
114.4729905
 30
0.0
 11
46.22461850078582
 21
114.6532719417887
 31
0.0
  0
LINE
  5
10B
330
1E
100
AcDbEntity
  8
0
100
AcDbLine
 10
46.22461850078582
 20
114.6532719417887
 30
0.0
 11
47.3973
 21
115.1289905
 31
0.0
  0
LINE
  5
10C
330
1E
100
AcDbEntity
  8
0
100
AcDbLine
 10
49.2006
 20
116.9329905
 30
0.0
 11
49.67107592907814
 21
118.051860761601
 31
0.0
  0
LINE
  5
10D
330
1E
100
AcDbEntity
  8
0
100
AcDbLine
 10
49.67107592907814
 20
118.051860761601
 30
0.0
 11
49.8563
 21
119.3919905
 31
0.0
  0
ENDSEC
  0
SECTION
  2
OBJECTS
  0
DICTIONARY
  5
C
330
0
100
AcDbDictionary
281
     1
  3
ACAD_GROUP
350
D
  3
ACAD_LAYOUT
350
19
  3
ACAD_MLINESTYLE
350
16
  3
ACAD_PLOTSETTINGS
350
18
  3
ACAD_PLOTSTYLENAME
350
E
  3
AcDbVariableDictionary
350
10E
  0
DICTIONARY
  5
D
102
{ACAD_REACTORS
330
C
102
}
330
C
100
AcDbDictionary
281
     1
  0
DICTIONARY
  5
19
102
{ACAD_REACTORS
330
C
102
}
330
C
100
AcDbDictionary
281
     1
  3
Layout1
350
1D
  3
Model
350
21
  0
DICTIONARY
  5
16
102
{ACAD_REACTORS
330
C
102
}
330
C
100
AcDbDictionary
281
     1
  3
Standard
350
17
  0
DICTIONARY
  5
18
102
{ACAD_REACTORS
330
C
102
}
330
C
100
AcDbDictionary
281
     1
  0
ACDBDICTIONARYWDFLT
  5
E
102
{ACAD_REACTORS
330
C
102
}
330
C
100
AcDbDictionary
281
     1
  3
Normal
350
F
100
AcDbDictionaryWithDefault
340
F
  0
DICTIONARY
  5
10E
102
{ACAD_REACTORS
330
C
102
}
330
C
100
AcDbDictionary
281
     1
  3
DIMASSOC
350
10F
  0
LAYOUT
  5
1D
102
{ACAD_REACTORS
330
19
102
}
330
19
100
AcDbPlotSettings
  1

  2
hp deskjet 980c series
  4

  6

 40
0.0
 41
0.0
 42
0.0
 43
0.0
 44
0.0
 45
0.0
 46
0.0
 47
0.0
 48
0.0
 49
0.0
140
0.0
141
0.0
142
1.0
143
1.0
 70
   688
 72
     0
 73
     0
 74
     5
  7

 75
    16
147
1.0
148
0.0
149
0.0
100
AcDbLayout
  1
Layout1
 70
     1
 71
     1
 10
0.0
 20
0.0
 11
12.0
 21
9.0
 12
0.0
 22
0.0
 32
0.0
 14
1.000000000000000E+20
 24
1.000000000000000E+20
 34
1.000000000000000E+20
 15
-1.000000000000000E+20
 25
-1.000000000000000E+20
 35
-1.000000000000000E+20
146
0.0
 13
0.0
 23
0.0
 33
0.0
 16
1.0
 26
0.0
 36
0.0
 17
0.0
 27
1.0
 37
0.0
 76
     0
330
1A
  0
LAYOUT
  5
21
102
{ACAD_REACTORS
330
19
102
}
330
19
100
AcDbPlotSettings
  1

  2
hp deskjet 980c series
  4

  6

 40
0.0
 41
0.0
 42
0.0
 43
0.0
 44
0.0
 45
0.0
 46
0.0
 47
0.0
 48
0.0
 49
0.0
140
0.0
141
0.0
142
1.0
143
1.0
 70
  1712
 72
     0
 73
     0
 74
     0
  7

 75
     0
147
1.0
148
0.0
149
0.0
100
AcDbLayout
  1
Model
 70
     1
 71
     0
 10
0.0
 20
0.0
 11
12.0
 21
9.0
 12
0.0
 22
0.0
 32
0.0
 14
0.0
 24
0.0
 34
0.0
 15
0.0
 25
0.0
 35
0.0
146
0.0
 13
0.0
 23
0.0
 33
0.0
 16
1.0
 26
0.0
 36
0.0
 17
0.0
 27
1.0
 37
0.0
 76
     0
330
1E
  0
MLINESTYLE
  5
17
102
{ACAD_REACTORS
330
16
102
}
330
16
100
AcDbMlineStyle
  2
STANDARD
 70
     0
  3

 62
   256
 51
90.0
 52
90.0
 71
     2
 49
0.5
 62
   256
  6
BYLAYER
 49
-0.5
 62
   256
  6
BYLAYER
  0
ACDBPLACEHOLDER
  5
F
102
{ACAD_REACTORS
330
E
102
}
330
E
  0
DICTIONARYVAR
  5
10F
102
{ACAD_REACTORS
330
10E
102
}
330
10E
100
DictionaryVariables
280
     0
  1
1
  0
ENDSEC
  0
EOF
